0
SECTION
2
HEADER
9
$ACADVER
1
AC1009
9
$CLAYER
8
0
0
ENDSEC
0
SECTION
2
TABLES
0
TABLE
2
LTYPE
70
46
0
LTYPE
2
CONTINUOUS
70
0
3
Solid line
72
65
73
0
40
0.0
0
LTYPE
2
DASHED
70
0
3
Dashed __ __ __ __ __ __ __ __ __ __ __ __ __ _
72
65
73
2
40
0.75
49
0.5
49
-0.25
0
LTYPE
2
CENTER2
70
0
3
Center (.5x) ___ _ ___ _ ___ _ ___ _ ___ _ ___
72
65
73
4
40
1.125
49
0.75
49
-0.125
49
0.125
49
-0.125
0
ENDTAB
0
TABLE
2
LAYER
70
9
0
LAYER
2
0
70
0
62
7
6
CONTINUOUS
0
LAYER
2
DISTXT
70
0
62
7
6
CONTINUOUS
0
LAYER
2
EXISTING
70
0
62
2
6
DASHED
0
LAYER
2
FINAL
70
0
62
1
6
CENTER2
0
LAYER
2
PNTDESC
70
1
62
3
6
CONTINUOUS
0
LAYER
2
PNTELEV
70
1
62
5
6
CONTINUOUS
0
LAYER
2
PNTMARK
70
0
62
1
6
CONTINUOUS
0
LAYER
2
PNTNO
70
1
62
7
6
CONTINUOUS
0
LAYER
2
PNTS
70
0
62
1
6
CONTINUOUS
0
ENDTAB
0
TABLE
2
APPID
70
8
0
APPID
2
CGISCE_GIS_2000
70
0
0
APPID
2
CGISCE_F2F_2000
70
0
0
ENDTAB
0
ENDSEC
0
SECTION
2
ENTITIES
0
POLYLINE
8
0
66
1
70
1
10
0.0
20
0.0
30
0.0
1001
CGISCE_GIS_2000
1000
1119879768
0
VERTEX
8
0
10
1079.99986000
20
983.15028000
30
0.0
0
VERTEX
8
0
10
1082.71017000
20
986.48045000
30
0.0
0
VERTEX
8
0
10
1082.55290000
20
986.65707000
30
0.0
0
VERTEX
8
0
10
1082.94424000
20
987.02683000
30
0.0
0
VERTEX
8
0
10
1083.26222000
20
986.73778000
30
0.0
0
VERTEX
8
0
10
1083.95633000
20
987.52663000
30
0.0
0
VERTEX
8
0
10
1084.65208000
20
987.98237000
30
0.0
0
VERTEX
8
0
10
1084.90502000
20
987.89743000
30
0.0
0
VERTEX
8
0
10
1083.70111000
20
986.50641000
30
0.0
0
VERTEX
8
0
10
1083.58222000
20
986.44677000
30
0.0
0
VERTEX
8
0
10
1084.78969000
20
985.34906000
30
0.0
0
VERTEX
8
0
10
1086.96790000
20
987.65992000
30
0.0
0
VERTEX
8
0
10
1085.68185000
20
988.68441000
30
0.0
0
VERTEX
8
0
10
1085.45396000
20
988.43935000
30
0.0
0
VERTEX
8
0
10
1085.21171000
20
988.59360000
30
0.0
0
VERTEX
8
0
10
1085.30719000
20
988.86303000
30
0.0
0
VERTEX
8
0
10
1085.73954000
20
989.29721000
30
0.0
0
VERTEX
8
0
10
1086.26321000
20
988.92144000
30
0.0
0
VERTEX
8
0
10
1087.85847000
20
987.64470000
30
0.0
0
VERTEX
8
0
10
1089.09897000
20
986.49555000
30
0.0
0
VERTEX
8
0
10
1091.21556000
20
984.70946000
30
0.0
0
VERTEX
8
0
10
1093.49035000
20
982.90469000
30
0.0
0
VERTEX
8
0
10
1093.48518000
20
982.82707000
30
0.0
0
VERTEX
8
0
10
1095.69198000
20
981.07660000
30
0.0
0
VERTEX
8
0
10
1096.37393000
20
981.93531000
30
0.0
0
VERTEX
8
0
10
1096.73435000
20
982.32419000
30
0.0
0
VERTEX
8
0
10
1098.90716000
20
984.75755000
30
0.0
0
VERTEX
8
0
10
1099.16361000
20
984.86919000
30
0.0
0
VERTEX
8
0
10
1099.54152000
20
984.62737000
30
0.0
0
VERTEX
8
0
10
1097.06592000
20
981.83148000
30
0.0
0
VERTEX
8
0
10
1099.82116000
20
979.69350000
30
0.0
0
VERTEX
8
0
10
1099.39648000
20
979.15445000
30
0.0
0
VERTEX
8
0
10
1098.84276000
20
978.34542000
30
0.0
0
VERTEX
8
0
10
1097.48190000
20
976.73414000
30
0.0
0
VERTEX
8
0
10
1096.85105000
20
977.28600000
30
0.0
0
VERTEX
8
0
10
1097.79196000
20
978.30484000
30
0.0
0
VERTEX
8
0
10
1093.54210000
20
981.89886000
30
0.0
0
VERTEX
8
0
10
1092.74335000
20
980.84383000
30
0.0
0
VERTEX
8
0
10
1092.23030000
20
981.21229000
30
0.0
0
VERTEX
8
0
10
1093.15054000
20
982.39644000
30
0.0
0
VERTEX
8
0
10
1091.56401000
20
983.66139000
30
0.0
0
VERTEX
8
0
10
1089.28032000
20
981.26640000
30
0.0
0
VERTEX
8
0
10
1089.73559000
20
980.85246000
30
0.0
0
VERTEX
8
0
10
1087.72018000
20
977.96916000
30
0.0
0
VERTEX
8
0
10
1087.61101000
20
977.93817000
30
0.0
0
VERTEX
8
0
10
1088.86353000
20
977.13418000
30
0.0
0
VERTEX
8
0
10
1091.57831000
20
980.37114000
30
0.0
0
VERTEX
8
0
10
1092.03847000
20
979.91638000
30
0.0
0
VERTEX
8
0
10
1089.34059000
20
976.68270000
30
0.0
0
VERTEX
8
0
10
1093.68483000
20
973.22320000
30
0.0
0
VERTEX
8
0
10
1096.01937000
20
976.22098000
30
0.0
0
VERTEX
8
0
10
1096.57926000
20
975.70959000
30
0.0
0
VERTEX
8
0
10
1093.69470000
20
972.12764000
30
0.0
0
VERTEX
8
0
10
1092.60289000
20
970.28806000
30
0.0
0
VERTEX
8
0
10
1091.68874000
20
970.91865000
30
0.0
0
VERTEX
8
0
10
1093.03643000
20
972.68598000
30
0.0
0
VERTEX
8
0
10
1086.92537000
20
977.54441000
30
0.0
0
VERTEX
8
0
10
1085.33161000
20
975.60680000
30
0.0
0
VERTEX
8
0
10
1084.80316000
20
975.95650000
30
0.0
0
VERTEX
8
0
10
1085.95214000
20
977.55687000
30
0.0
0
VERTEX
8
0
10
1084.69125000
20
978.77986000
30
0.0
0
VERTEX
8
0
10
1085.16275000
20
979.27421000
30
0.0
0
VERTEX
8
0
10
1086.26788000
20
978.26851000
30
0.0
0
VERTEX
8
0
10
1086.42105000
20
978.43739000
30
0.0
0
VERTEX
8
0
10
1086.82135000
20
978.18671000
30
0.0
0
VERTEX
8
0
10
1087.00125000
20
978.32959000
30
0.0
0
VERTEX
8
0
10
1087.07745000
20
978.28070000
30
0.0
0
VERTEX
8
0
10
1088.85456000
20
980.80394000
30
0.0
0
VERTEX
8
0
10
1083.21136000
20
985.87735000
30
0.0
0
VERTEX
8
0
10
1080.79823000
20
983.22110000
30
0.0
0
VERTEX
8
0
10
1084.46915000
20
979.76183000
30
0.0
0
VERTEX
8
0
10
1084.13079000
20
979.34006000
30
0.0
0
SEQEND
8
0
0
POLYLINE
8
0
66
1
70
1
10
0.0
20
0.0
30
0.0
1001
CGISCE_GIS_2000
1000
1119879769
0
VERTEX
8
0
10
1087.47001000
20
987.17164000
30
0.0
0
VERTEX
8
0
10
1085.33911000
20
984.84952000
30
0.0
0
VERTEX
8
0
10
1088.82629000
20
981.67916000
30
0.0
0
VERTEX
8
0
10
1091.09428000
20
984.07074000
30
0.0
0
SEQEND
8
0
0
POLYLINE
8
0
66
1
70
1
10
0.0
20
0.0
30
0.0
1001
CGISCE_GIS_2000
1000
1119879770
0
VERTEX
8
0
10
1084.42507000
20
995.76395000
30
0.0
0
VERTEX
8
0
10
1084.74972000
20
996.17996000
30
0.0
0
VERTEX
8
0
10
1084.95647000
20
996.06552000
30
0.0
0
VERTEX
8
0
10
1086.74807000
20
998.58145000
30
0.0
0
VERTEX
8
0
10
1089.04430000
20
996.93987000
30
0.0
0
VERTEX
8
0
10
1090.41795000
20
998.94144000
30
0.0
0
VERTEX
8
0
10
1091.52748000
20
997.96381000
30
0.0
0
VERTEX
8
0
10
1091.51868000
20
997.94944000
30
0.0
0
VERTEX
8
0
10
1093.03326000
20
996.83151000
30
0.0
0
VERTEX
8
0
10
1094.11996000
20
998.17315000
30
0.0
0
VERTEX
8
0
10
1091.29634000
20
1000.62142000
30
0.0
0
VERTEX
8
0
10
1090.51509000
20
999.80696000
30
0.0
0
VERTEX
8
0
10
1088.79371000
20
1001.46358000
30
0.0
0
VERTEX
8
0
10
1089.40804000
20
1002.25874000
30
0.0
0
VERTEX
8
0
10
1089.75538000
20
1002.72329000
30
0.0
0
VERTEX
8
0
10
1094.60477000
20
998.61422000
30
0.0
0
VERTEX
8
0
10
1097.50606000
20
1002.11824000
30
0.0
0
VERTEX
8
0
10
1092.54891000
20
1005.42126000
30
0.0
0
VERTEX
8
0
10
1092.90668000
20
1005.94604000
30
0.0
0
VERTEX
8
0
10
1098.09909000
20
1002.83449000
30
0.0
0
VERTEX
8
0
10
1099.86735000
20
1001.58654000
30
0.0
0
VERTEX
8
0
10
1099.28720000
20
1000.82279000
30
0.0
0
VERTEX
8
0
10
1098.00170000
20
1001.59157000
30
0.0
0
VERTEX
8
0
10
1095.06570000
20
998.25690000
30
0.0
0
VERTEX
8
0
10
1096.27401000
20
997.17756000
30
0.0
0
VERTEX
8
0
10
1095.78272000
20
996.69618000
30
0.0
0
VERTEX
8
0
10
1094.53309000
20
997.71059000
30
0.0
0
VERTEX
8
0
10
1093.44218000
20
996.53153000
30
0.0
0
VERTEX
8
0
10
1094.43666000
20
995.74867000
30
0.0
0
VERTEX
8
0
10
1092.83088000
20
993.84678000
30
0.0
0
VERTEX
8
0
10
1092.36402000
20
994.25479000
30
0.0
0
VERTEX
8
0
10
1093.46684000
20
995.66298000
30
0.0
0
VERTEX
8
0
10
1091.17442000
20
997.39246000
30
0.0
0
VERTEX
8
0
10
1091.18337000
20
997.40717000
30
0.0
0
VERTEX
8
0
10
1090.65930000
20
997.88330000
30
0.0
0
VERTEX
8
0
10
1089.23287000
20
995.82858000
30
0.0
0
VERTEX
8
0
10
1086.60993000
20
997.56992000
30
0.0
0
VERTEX
8
0
10
1085.33785000
20
995.77235000
30
0.0
0
VERTEX
8
0
10
1087.17353000
20
994.21742000
30
0.0
0
VERTEX
8
0
10
1088.35703000
20
995.88225000
30
0.0
0
VERTEX
8
0
10
1088.96697000
20
995.43808000
30
0.0
0
VERTEX
8
0
10
1087.76763000
20
993.76306000
30
0.0
0
VERTEX
8
0
10
1090.29934000
20
991.76517000
30
0.0
0
VERTEX
8
0
10
1091.70748000
20
993.51400000
30
0.0
0
VERTEX
8
0
10
1092.31922000
20
993.05142000
30
0.0
0
VERTEX
8
0
10
1090.87958000
20
991.28593000
30
0.0
0
VERTEX
8
0
10
1092.13164000
20
990.31014000
30
0.0
0
VERTEX
8
0
10
1097.13063000
20
996.53962000
30
0.0
0
VERTEX
8
0
10
1097.35865000
20
996.43437000
30
0.0
0
VERTEX
8
0
10
1097.50639000
20
996.31085000
30
0.0
0
VERTEX
8
0
10
1099.21794000
20
998.46879000
30
0.0
0
VERTEX
8
0
10
1099.60448000
20
998.09155000
30
0.0
0
VERTEX
8
0
10
1097.99309000
20
995.90391000
30
0.0
0
VERTEX
8
0
10
1099.48290000
20
994.65826000
30
0.0
0
VERTEX
8
0
10
1102.43792000
20
998.37039000
30
0.0
0
VERTEX
8
0
10
1100.74698000
20
999.66029000
30
0.0
0
VERTEX
8
0
10
1100.01879000
20
998.70502000
30
0.0
0
VERTEX
8
0
10
1099.60283000
20
998.97386000
30
0.0
0
VERTEX
8
0
10
1100.42495000
20
1000.03922000
30
0.0
0
VERTEX
8
0
10
1099.81968000
20
1000.55063000
30
0.0
0
VERTEX
8
0
10
1100.26686000
20
1001.14340000
30
0.0
0
VERTEX
8
0
10
1105.29455000
20
997.35857000
30
0.0
0
VERTEX
8
0
10
1104.96539000
20
996.77960000
30
0.0
0
VERTEX
8
0
10
1103.12502000
20
998.02255000
30
0.0
0
VERTEX
8
0
10
1100.10388000
20
994.13902000
30
0.0
0
VERTEX
8
0
10
1100.69298000
20
993.64641000
30
0.0
0
VERTEX
8
0
10
1101.57750000
20
993.03159000
30
0.0
0
VERTEX
8
0
10
1103.46433000
20
991.47936000
30
0.0
0
VERTEX
8
0
10
1106.68043000
20
995.50197000
30
0.0
0
VERTEX
8
0
10
1105.91073000
20
996.09659000
30
0.0
0
VERTEX
8
0
10
1106.32754000
20
996.57159000
30
0.0
0
VERTEX
8
0
10
1110.74702000
20
993.05646000
30
0.0
0
VERTEX
8
0
10
1106.84654000
20
987.84957000
30
0.0
0
VERTEX
8
0
10
1105.48188000
20
989.07289000
30
0.0
0
VERTEX
8
0
10
1105.85388000
20
989.57391000
30
0.0
0
VERTEX
8
0
10
1106.67189000
20
988.96073000
30
0.0
0
VERTEX
8
0
10
1109.78356000
20
993.07758000
30
0.0
0
VERTEX
8
0
10
1107.39308000
20
994.87100000
30
0.0
0
VERTEX
8
0
10
1104.00665000
20
991.02162000
30
0.0
0
VERTEX
8
0
10
1105.09372000
20
990.21286000
30
0.0
0
VERTEX
8
0
10
1104.70896000
20
989.60316000
30
0.0
0
VERTEX
8
0
10
1103.56872000
20
990.46716000
30
0.0
0
VERTEX
8
0
10
1100.43396000
20
986.49360000
30
0.0
0
VERTEX
8
0
10
1103.20798000
20
984.50148000
30
0.0
0
VERTEX
8
0
10
1105.06806000
20
986.90949000
30
0.0
0
VERTEX
8
0
10
1105.58183000
20
986.41812000
30
0.0
0
VERTEX
8
0
10
1102.19255000
20
982.40468000
30
0.0
0
VERTEX
8
0
10
1101.57860000
20
982.75575000
30
0.0
0
VERTEX
8
0
10
1101.64859000
20
982.88755000
30
0.0
0
VERTEX
8
0
10
1101.33116000
20
983.13910000
30
0.0
0
VERTEX
8
0
10
1101.49107000
20
983.29014000
30
0.0
0
VERTEX
8
0
10
1101.74896000
20
983.55941000
30
0.0
0
VERTEX
8
0
10
1101.86632000
20
983.79021000
30
0.0
0
VERTEX
8
0
10
1101.89461000
20
984.03761000
30
0.0
0
VERTEX
8
0
10
1101.84088000
20
984.27659000
30
0.0
0
VERTEX
8
0
10
1101.72165000
20
984.47900000
30
0.0
0
VERTEX
8
0
10
1101.55250000
20
984.65488000
30
0.0
0
VERTEX
8
0
10
1101.41008000
20
984.77761000
30
0.0
0
VERTEX
8
0
10
1101.27743000
20
984.88799000
30
0.0
0
VERTEX
8
0
10
1101.13918000
20
984.97293000
30
0.0
0
VERTEX
8
0
10
1100.96402000
20
985.01579000
30
0.0
0
VERTEX
8
0
10
1100.71700000
20
985.02508000
30
0.0
0
VERTEX
8
0
10
1100.54008000
20
985.01410000
30
0.0
0
VERTEX
8
0
10
1100.38357000
20
984.94993000
30
0.0
0
VERTEX
8
0
10
1100.18493000
20
984.82610000
30
0.0
0
VERTEX
8
0
10
1099.91009000
20
985.43760000
30
0.0
0
VERTEX
8
0
10
1100.07297000
20
985.49430000
30
0.0
0
VERTEX
8
0
10
1100.25717000
20
985.53763000
30
0.0
0
VERTEX
8
0
10
1100.39276000
20
985.56915000
30
0.0
0
VERTEX
8
0
10
1100.54444000
20
985.58433000
30
0.0
0
VERTEX
8
0
10
1099.43626000
20
986.34235000
30
0.0
0
VERTEX
8
0
10
1100.44057000
20
987.81873000
30
0.0
0
VERTEX
8
0
10
1097.12108000
20
990.11839000
30
0.0
0
VERTEX
8
0
10
1097.50873000
20
990.69502000
30
0.0
0
VERTEX
8
0
10
1094.88419000
20
992.70291000
30
0.0
0
VERTEX
8
0
10
1092.24351000
20
989.46441000
30
0.0
0
VERTEX
8
0
10
1088.28689000
20
992.57793000
30
0.0
0
VERTEX
8
0
10
1085.77748000
20
989.78247000
30
0.0
0
VERTEX
8
0
10
1085.57895000
20
989.97084000
30
0.0
0
VERTEX
8
0
10
1087.72198000
20
993.02247000
30
0.0
0
VERTEX
8
0
10
1087.38943000
20
993.28415000
30
0.0
0
SEQEND
8
0
0
POLYLINE
8
0
66
1
70
1
10
0.0
20
0.0
30
0.0
1001
CGISCE_GIS_2000
1000
1119879771
0
VERTEX
8
0
10
1097.12421000
20
995.72132000
30
0.0
0
VERTEX
8
0
10
1095.33967000
20
993.46666000
30
0.0
0
VERTEX
8
0
10
1098.06264000
20
991.28076000
30
0.0
0
VERTEX
8
0
10
1098.29572000
20
991.60262000
30
0.0
0
VERTEX
8
0
10
1098.92269000
20
991.24829000
30
0.0
0
VERTEX
8
0
10
1098.75267000
20
990.97887000
30
0.0
0
VERTEX
8
0
10
1100.08361000
20
989.93978000
30
0.0
0
VERTEX
8
0
10
1100.61142000
20
989.54359000
30
0.0
0
VERTEX
8
0
10
1101.27912000
20
988.98582000
30
0.0
0
VERTEX
8
0
10
1101.53195000
20
988.77392000
30
0.0
0
VERTEX
8
0
10
1103.12808000
20
990.99594000
30
0.0
0
VERTEX
8
0
10
1101.13261000
20
992.37647000
30
0.0
0
VERTEX
8
0
10
1100.18144000
20
993.04622000
30
0.0
0
VERTEX
8
0
10
1099.26766000
20
991.97397000
30
0.0
0
VERTEX
8
0
10
1098.84469000
20
992.37456000
30
0.0
0
VERTEX
8
0
10
1099.70798000
20
993.50620000
30
0.0
0
SEQEND
8
0
0
POLYLINE
8
0
66
1
70
1
10
0.0
20
0.0
30
0.0
1001
CGISCE_GIS_2000
1000
1119879772
0
VERTEX
8
0
10
1098.93929000
20
961.93441000
30
0.0
0
VERTEX
8
0
10
1099.17245000
20
962.34053000
30
0.0
0
VERTEX
8
0
10
1100.54181000
20
961.37295000
30
0.0
0
VERTEX
8
0
10
1101.78464000
20
963.14900000
30
0.0
0
VERTEX
8
0
10
1102.04997000
20
963.15591000
30
0.0
0
VERTEX
8
0
10
1102.42590000
20
963.67980000
30
0.0
0
VERTEX
8
0
10
1106.29182000
20
960.91765000
30
0.0
0
VERTEX
8
0
10
1109.73014000
20
958.24327000
30
0.0
0
VERTEX
8
0
10
1111.90701000
20
956.35780000
30
0.0
0
VERTEX
8
0
10
1113.55721000
20
958.61067000
30
0.0
0
VERTEX
8
0
10
1105.06114000
20
965.24951000
30
0.0
0
VERTEX
8
0
10
1104.21494000
20
964.25920000
30
0.0
0
VERTEX
8
0
10
1103.12269000
20
964.86163000
30
0.0
0
VERTEX
8
0
10
1103.59801000
20
965.44760000
30
0.0
0
VERTEX
8
0
10
1107.29778000
20
969.82557000
30
0.0
0
VERTEX
8
0
10
1107.15295000
20
969.85475000
30
0.0
0
VERTEX
8
0
10
1103.33844000
20
972.76395000
30
0.0
0
VERTEX
8
0
10
1100.60885000
20
969.51066000
30
0.0
0
VERTEX
8
0
10
1100.07432000
20
969.89450000
30
0.0
0
VERTEX
8
0
10
1101.87476000
20
972.14897000
30
0.0
0
VERTEX
8
0
10
1103.36177000
20
974.00935000
30
0.0
0
VERTEX
8
0
10
1105.16545000
20
976.34822000
30
0.0
0
VERTEX
8
0
10
1107.53351000
20
979.52311000
30
0.0
0
VERTEX
8
0
10
1109.80057000
20
982.55156000
30
0.0
0
VERTEX
8
0
10
1110.34311000
20
982.21194000
30
0.0
0
VERTEX
8
0
10
1114.63446000
20
979.26780000
30
0.0
0
VERTEX
8
0
10
1114.42725000
20
979.40997000
30
0.0
0
VERTEX
8
0
10
1114.78887000
20
979.83623000
30
0.0
0
VERTEX
8
0
10
1117.91532000
20
977.54297000
30
0.0
0
VERTEX
8
0
10
1122.60560000
20
973.93834000
30
0.0
0
VERTEX
8
0
10
1123.28849000
20
973.39703000
30
0.0
0
VERTEX
8
0
10
1124.37605000
20
974.87859000
30
0.0
0
VERTEX
8
0
10
1124.62764000
20
974.68462000
30
0.0
0
VERTEX
8
0
10
1124.41464000
20
974.16806000
30
0.0
0
VERTEX
8
0
10
1126.15485000
20
972.83828000
30
0.0
0
VERTEX
8
0
10
1125.50989000
20
971.72913000
30
0.0
0
VERTEX
8
0
10
1132.12809000
20
966.65231000
30
0.0
0
VERTEX
8
0
10
1134.88688000
20
964.52917000
30
0.0
0
VERTEX
8
0
10
1136.39889000
20
963.36536000
30
0.0
0
VERTEX
8
0
10
1136.62196000
20
963.69029000
30
0.0
0
VERTEX
8
0
10
1143.14194000
20
971.68608000
30
0.0
0
VERTEX
8
0
10
1140.20554000
20
973.85819000
30
0.0
0
VERTEX
8
0
10
1139.80034000
20
973.40288000
30
0.0
0
VERTEX
8
0
10
1139.14717000
20
973.93989000
30
0.0
0
VERTEX
8
0
10
1139.46232000
20
974.38055000
30
0.0
0
VERTEX
8
0
10
1136.55077000
20
976.57527000
30
0.0
0
VERTEX
8
0
10
1136.21606000
20
976.14338000
30
0.0
0
VERTEX
8
0
10
1135.57840000
20
976.62401000
30
0.0
0
VERTEX
8
0
10
1135.52467000
20
976.65509000
30
0.0
0
VERTEX
8
0
10
1131.17406000
20
971.59349000
30
0.0
0
VERTEX
8
0
10
1130.74303000
20
972.00391000
30
0.0
0
VERTEX
8
0
10
1135.96519000
20
978.19218000
30
0.0
0
VERTEX
8
0
10
1141.04052000
20
974.37541000
30
0.0
0
VERTEX
8
0
10
1144.26540000
20
978.17571000
30
0.0
0
VERTEX
8
0
10
1143.64653000
20
978.72471000
30
0.0
0
VERTEX
8
0
10
1144.97348000
20
980.39796000
30
0.0
0
VERTEX
8
0
10
1146.02580000
20
979.55677000
30
0.0
0
VERTEX
8
0
10
1145.25462000
20
978.58558000
30
0.0
0
VERTEX
8
0
10
1145.72640000
20
978.18742000
30
0.0
0
VERTEX
8
0
10
1141.99503000
20
973.67784000
30
0.0
0
VERTEX
8
0
10
1144.33582000
20
971.84062000
30
0.0
0
VERTEX
8
0
10
1137.04075000
20
962.86862000
30
0.0
0
VERTEX
8
0
10
1138.19741000
20
962.19241000
30
0.0
0
VERTEX
8
0
10
1146.07962000
20
971.82830000
30
0.0
0
VERTEX
8
0
10
1146.28595000
20
971.82121000
30
0.0
0
VERTEX
8
0
10
1147.38572000
20
973.30959000
30
0.0
0
VERTEX
8
0
10
1147.95209000
20
972.77194000
30
0.0
0
VERTEX
8
0
10
1146.29361000
20
970.68278000
30
0.0
0
VERTEX
8
0
10
1147.04147000
20
970.07300000
30
0.0
0
VERTEX
8
0
10
1147.68943000
20
969.61438000
30
0.0
0
VERTEX
8
0
10
1147.81916000
20
969.29062000
30
0.0
0
VERTEX
8
0
10
1149.11441000
20
967.87588000
30
0.0
0
VERTEX
8
0
10
1151.08701000
20
966.13745000
30
0.0
0
VERTEX
8
0
10
1152.62623000
20
967.64600000
30
0.0
0
VERTEX
8
0
10
1153.67019000
20
967.73669000
30
0.0
0
VERTEX
8
0
10
1154.45892000
20
966.93091000
30
0.0
0
VERTEX
8
0
10
1151.76260000
20
964.22037000
30
0.0
0
VERTEX
8
0
10
1148.21156000
20
966.69929000
30
0.0
0
VERTEX
8
0
10
1146.97354000
20
965.21006000
30
0.0
0
VERTEX
8
0
10
1145.70437000
20
963.53004000
30
0.0
0
VERTEX
8
0
10
1145.04867000
20
962.62391000
30
0.0
0
VERTEX
8
0
10
1143.81718000
20
960.99004000
30
0.0
0
VERTEX
8
0
10
1143.11207000
20
960.12909000
30
0.0
0
VERTEX
8
0
10
1141.94958000
20
958.58570000
30
0.0
0
VERTEX
8
0
10
1140.75102000
20
957.04525000
30
0.0
0
VERTEX
8
0
10
1139.17393000
20
955.05915000
30
0.0
0
VERTEX
8
0
10
1137.96660000
20
953.56559000
30
0.0
0
VERTEX
8
0
10
1136.57650000
20
951.76411000
30
0.0
0
VERTEX
8
0
10
1134.81739000
20
949.45803000
30
0.0
0
VERTEX
8
0
10
1133.74889000
20
948.10546000
30
0.0
0
VERTEX
8
0
10
1132.33338000
20
946.29637000
30
0.0
0
VERTEX
8
0
10
1130.74693000
20
944.29430000
30
0.0
0
VERTEX
8
0
10
1128.78730000
20
941.75747000
30
0.0
0
VERTEX
8
0
10
1126.98852000
20
939.47754000
30
0.0
0
VERTEX
8
0
10
1123.43270000
20
934.94543000
30
0.0
0
VERTEX
8
0
10
1122.20314000
20
935.78611000
30
0.0
0
VERTEX
8
0
10
1122.16122000
20
935.82482000
30
0.0
0
VERTEX
8
0
10
1122.10077000
20
936.08060000
30
0.0
0
VERTEX
8
0
10
1121.86363000
20
936.03217000
30
0.0
0
VERTEX
8
0
10
1119.64499000
20
937.82191000
30
0.0
0
VERTEX
8
0
10
1117.71295000
20
935.18435000
30
0.0
0
VERTEX
8
0
10
1116.81303000
20
935.00050000
30
0.0
0
VERTEX
8
0
10
1117.33026000
20
935.68975000
30
0.0
0
VERTEX
8
0
10
1115.53075000
20
936.99662000
30
0.0
0
VERTEX
8
0
10
1115.48176000
20
937.29000000
30
0.0
0
VERTEX
8
0
10
1115.94798000
20
937.93362000
30
0.0
0
VERTEX
8
0
10
1116.87880000
20
937.29217000
30
0.0
0
VERTEX
8
0
10
1118.96882000
20
940.02097000
30
0.0
0
VERTEX
8
0
10
1121.15596000
20
938.29298000
30
0.0
0
VERTEX
8
0
10
1122.45796000
20
940.09128000
30
0.0
0
VERTEX
8
0
10
1123.12695000
20
939.68383000
30
0.0
0
VERTEX
8
0
10
1123.74144000
20
940.52061000
30
0.0
0
VERTEX
8
0
10
1123.14771000
20
940.98781000
30
0.0
0
VERTEX
8
0
10
1124.62058000
20
942.91450000
30
0.0
0
VERTEX
8
0
10
1122.60677000
20
944.61291000
30
0.0
0
VERTEX
8
0
10
1124.47157000
20
947.03885000
30
0.0
0
VERTEX
8
0
10
1125.84990000
20
945.90828000
30
0.0
0
VERTEX
8
0
10
1124.67273000
20
944.36642000
30
0.0
0
VERTEX
8
0
10
1127.22119000
20
942.42348000
30
0.0
0
VERTEX
8
0
10
1128.13719000
20
943.78963000
30
0.0
0
VERTEX
8
0
10
1129.75880000
20
945.81076000
30
0.0
0
VERTEX
8
0
10
1129.74343000
20
945.82406000
30
0.0
0
VERTEX
8
0
10
1129.19842000
20
946.23045000
30
0.0
0
VERTEX
8
0
10
1128.96666000
20
946.39906000
30
0.0
0
VERTEX
8
0
10
1128.64747000
20
946.47827000
30
0.0
0
VERTEX
8
0
10
1128.39844000
20
946.63731000
30
0.0
0
VERTEX
8
0
10
1128.27615000
20
946.73174000
30
0.0
0
VERTEX
8
0
10
1128.15942000
20
946.91996000
30
0.0
0
VERTEX
8
0
10
1127.99652000
20
947.07618000
30
0.0
0
VERTEX
8
0
10
1127.83192000
20
947.37204000
30
0.0
0
VERTEX
8
0
10
1127.17467000
20
947.78351000
30
0.0
0
VERTEX
8
0
10
1126.51723000
20
946.86041000
30
0.0
0
VERTEX
8
0
10
1125.07320000
20
948.02443000
30
0.0
0
VERTEX
8
0
10
1125.02972000
20
948.10793000
30
0.0
0
VERTEX
8
0
10
1125.70111000
20
948.95308000
30
0.0
0
VERTEX
8
0
10
1123.78252000
20
950.44004000
30
0.0
0
VERTEX
8
0
10
1122.15652000
20
951.74361000
30
0.0
0
VERTEX
8
0
10
1121.02066000
20
952.63857000
30
0.0
0
VERTEX
8
0
10
1120.61574000
20
952.95488000
30
0.0
0
VERTEX
8
0
10
1118.57584000
20
954.47601000
30
0.0
0
VERTEX
8
0
10
1114.77535000
20
949.46260000
30
0.0
0
VERTEX
8
0
10
1113.15427000
20
947.86862000
30
0.0
0
VERTEX
8
0
10
1112.40818000
20
948.42542000
30
0.0
0
VERTEX
8
0
10
1112.39105000
20
948.47254000
30
0.0
0
VERTEX
8
0
10
1115.62504000
20
952.54159000
30
0.0
0
VERTEX
8
0
10
1111.22214000
20
955.80963000
30
0.0
0
VERTEX
8
0
10
1109.48377000
20
957.21067000
30
0.0
0
VERTEX
8
0
10
1102.62918000
20
948.32995000
30
0.0
0
VERTEX
8
0
10
1102.49210000
20
948.43420000
30
0.0
0
VERTEX
8
0
10
1101.70666000
20
949.29403000
30
0.0
0
VERTEX
8
0
10
1108.43512000
20
957.99756000
30
0.0
0
VERTEX
8
0
10
1102.42172000
20
962.74491000
30
0.0
0
VERTEX
8
0
10
1101.98063000
20
962.47706000
30
0.0
0
VERTEX
8
0
10
1101.61420000
20
961.02136000
30
0.0
0
VERTEX
8
0
10
1099.95678000
20
958.56750000
30
0.0
0
VERTEX
8
0
10
1099.14946000
20
959.26599000
30
0.0
0
VERTEX
8
0
10
1100.29527000
20
960.90635000
30
0.0
0
SEQEND
8
0
0
POLYLINE
8
0
66
1
70
1
10
0.0
20
0.0
30
0.0
1001
CGISCE_GIS_2000
1000
1119879773
0
VERTEX
8
0
10
1106.47502000
20
976.85922000
30
0.0
0
VERTEX
8
0
10
1103.79493000
20
973.24764000
30
0.0
0
VERTEX
8
0
10
1107.72914000
20
970.23903000
30
0.0
0
VERTEX
8
0
10
1110.26183000
20
973.90517000
30
0.0
0
VERTEX
8
0
10
1109.14141000
20
974.74452000
30
0.0
0
VERTEX
8
0
10
1109.37474000
20
975.27936000
30
0.0
0
VERTEX
8
0
10
1110.59904000
20
974.31900000
30
0.0
0
VERTEX
8
0
10
1114.28387000
20
978.72907000
30
0.0
0
VERTEX
8
0
10
1110.10196000
20
981.64211000
30
0.0
0
VERTEX
8
0
10
1106.79785000
20
977.26552000
30
0.0
0
VERTEX
8
0
10
1108.92012000
20
975.67491000
30
0.0
0
VERTEX
8
0
10
1108.74802000
20
975.52836000
30
0.0
0
VERTEX
8
0
10
1108.36215000
20
975.45171000
30
0.0
0
SEQEND
8
0
0
POLYLINE
8
0
66
1
70
1
10
0.0
20
0.0
30
0.0
1001
CGISCE_GIS_2000
1000
1119879774
0
VERTEX
8
0
10
1107.52030000
20
966.55591000
30
0.0
0
VERTEX
8
0
10
1107.44839000
20
965.61105000
30
0.0
0
VERTEX
8
0
10
1129.37332000
20
949.07658000
30
0.0
0
VERTEX
8
0
10
1130.22709000
20
949.22115000
30
0.0
0
VERTEX
8
0
10
1137.75885000
20
958.60205000
30
0.0
0
VERTEX
8
0
10
1137.78665000
20
959.59206000
30
0.0
0
VERTEX
8
0
10
1116.14093000
20
975.99778000
30
0.0
0
VERTEX
8
0
10
1114.89537000
20
975.97108000
30
0.0
0
SEQEND
8
0
0
POLYLINE
8
0
66
1
70
1
10
0.0
20
0.0
30
0.0
1001
CGISCE_GIS_2000
1000
1119879775
0
VERTEX
8
0
10
1114.09830000
20
957.82094000
30
0.0
0
VERTEX
8
0
10
1112.59737000
20
955.91230000
30
0.0
0
VERTEX
8
0
10
1116.14230000
20
953.21686000
30
0.0
0
VERTEX
8
0
10
1117.56038000
20
955.11961000
30
0.0
0
VERTEX
8
0
10
1116.77435000
20
955.72909000
30
0.0
0
VERTEX
8
0
10
1116.77740000
20
955.73349000
30
0.0
0
SEQEND
8
0
0
POLYLINE
8
0
66
1
70
1
10
0.0
20
0.0
30
0.0
1001
CGISCE_GIS_2000
1000
1119879776
0
VERTEX
8
0
10
1125.28572000
20
942.30888000
30
0.0
0
VERTEX
8
0
10
1121.89179000
20
937.64259000
30
0.0
0
VERTEX
8
0
10
1122.95124000
20
936.86908000
30
0.0
0
VERTEX
8
0
10
1126.41526000
20
941.38852000
30
0.0
0
VERTEX
8
0
10
1126.43726000
20
941.40947000
30
0.0
0
SEQEND
8
0
0
POLYLINE
8
0
66
1
70
1
10
0.0
20
0.0
30
0.0
1001
CGISCE_GIS_2000
1000
1119879777
0
VERTEX
8
0
10
1145.34464000
20
969.71118000
30
0.0
0
VERTEX
8
0
10
1138.79391000
20
961.44296000
30
0.0
0
VERTEX
8
0
10
1140.25203000
20
960.42031000
30
0.0
0
VERTEX
8
0
10
1140.38532000
20
960.42883000
30
0.0
0
VERTEX
8
0
10
1146.85427000
20
968.63594000
30
0.0
0
SEQEND
8
0
0
POLYLINE
8
0
66
1
70
1
10
0.0
20
0.0
30
0.0
1001
CGISCE_GIS_2000
1000
1119879778
0
VERTEX
8
0
10
1099.86352000
20
980.78000000
30
0.0
0
VERTEX
8
0
10
1100.62664000
20
981.59835000
30
0.0
0
VERTEX
8
0
10
1101.48847000
20
981.64183000
30
0.0
0
VERTEX
8
0
10
1101.46970000
20
981.52295000
30
0.0
0
VERTEX
8
0
10
1100.35988000
20
980.31302000
30
0.0
0
SEQEND
8
0
0
POLYLINE
8
0
66
1
70
1
10
0.0
20
0.0
30
0.0
1001
CGISCE_GIS_2000
1000
1119879779
0
VERTEX
8
0
10
1107.07457000
20
943.71148000
30
0.0
0
VERTEX
8
0
10
1107.54330000
20
944.54853000
30
0.0
0
VERTEX
8
0
10
1108.75140000
20
943.64569000
30
0.0
0
VERTEX
8
0
10
1109.00648000
20
943.97807000
30
0.0
0
VERTEX
8
0
10
1109.94247000
20
943.29137000
30
0.0
0
VERTEX
8
0
10
1109.56979000
20
942.80180000
30
0.0
0
VERTEX
8
0
10
1110.38896000
20
942.10526000
30
0.0
0
VERTEX
8
0
10
1108.85180000
20
940.01470000
30
0.0
0
VERTEX
8
0
10
1108.98772000
20
939.98955000
30
0.0
0
VERTEX
8
0
10
1109.34139000
20
939.63099000
30
0.0
0
VERTEX
8
0
10
1108.96314000
20
939.40334000
30
0.0
0
VERTEX
8
0
10
1109.95173000
20
937.66780000
30
0.0
0
VERTEX
8
0
10
1109.96771000
20
937.63098000
30
0.0
0
VERTEX
8
0
10
1109.39855000
20
937.21652000
30
0.0
0
VERTEX
8
0
10
1109.08202000
20
937.42943000
30
0.0
0
VERTEX
8
0
10
1108.73326000
20
937.89449000
30
0.0
0
VERTEX
8
0
10
1108.20927000
20
938.98333000
30
0.0
0
VERTEX
8
0
10
1107.67057000
20
939.12023000
30
0.0
0
VERTEX
8
0
10
1107.52513000
20
940.44595000
30
0.0
0
VERTEX
8
0
10
1107.92842000
20
940.65777000
30
0.0
0
VERTEX
8
0
10
1108.49189000
20
942.01516000
30
0.0
0
VERTEX
8
0
10
1107.93244000
20
942.63278000
30
0.0
0
SEQEND
8
0
0
POLYLINE
8
0
66
1
70
1
10
0.0
20
0.0
30
0.0
1001
CGISCE_GIS_2000
1000
1119879780
0
VERTEX
8
0
10
1109.33686000
20
983.13729000
30
0.0
0
VERTEX
8
0
10
1110.34722000
20
984.16041000
30
0.0
0
VERTEX
8
0
10
1110.73540000
20
983.83279000
30
0.0
0
VERTEX
8
0
10
1111.71760000
20
984.82449000
30
0.0
0
VERTEX
8
0
10
1112.12671000
20
984.09889000
30
0.0
0
VERTEX
8
0
10
1110.71108000
20
982.14892000
30
0.0
0
SEQEND
8
0
0
POLYLINE
8
0
66
1
70
1
10
0.0
20
0.0
30
0.0
1001
CGISCE_GIS_2000
1000
1119879781
0
VERTEX
8
0
10
1109.54630000
20
944.66179000
30
0.0
0
VERTEX
8
0
10
1111.44254000
20
947.06310000
30
0.0
0
VERTEX
8
0
10
1111.57345000
20
947.09368000
30
0.0
0
VERTEX
8
0
10
1112.43517000
20
946.45276000
30
0.0
0
VERTEX
8
0
10
1110.47290000
20
943.92712000
30
0.0
0
SEQEND
8
0
0
POLYLINE
8
0
66
1
70
1
10
0.0
20
0.0
30
0.0
1001
CGISCE_GIS_2000
1000
1119879782
0
VERTEX
8
0
10
1110.50827000
20
936.10670000
30
0.0
0
VERTEX
8
0
10
1110.79132000
20
936.54914000
30
0.0
0
VERTEX
8
0
10
1111.47426000
20
936.38844000
30
0.0
0
VERTEX
8
0
10
1112.07528000
20
936.10972000
30
0.0
0
VERTEX
8
0
10
1112.68221000
20
935.93414000
30
0.0
0
VERTEX
8
0
10
1113.37616000
20
935.90982000
30
0.0
0
VERTEX
8
0
10
1113.74839000
20
936.68700000
30
0.0
0
VERTEX
8
0
10
1114.37967000
20
936.18294000
30
0.0
0
VERTEX
8
0
10
1114.58824000
20
936.14888000
30
0.0
0
VERTEX
8
0
10
1115.00645000
20
935.81310000
30
0.0
0
VERTEX
8
0
10
1115.60026000
20
935.32831000
30
0.0
0
VERTEX
8
0
10
1116.16368000
20
934.86785000
30
0.0
0
VERTEX
8
0
10
1115.73267000
20
934.77981000
30
0.0
0
VERTEX
8
0
10
1115.79779000
20
934.50444000
30
0.0
0
VERTEX
8
0
10
1115.13408000
20
934.38577000
30
0.0
0
VERTEX
8
0
10
1114.32618000
20
935.00681000
30
0.0
0
VERTEX
8
0
10
1113.88164000
20
935.00590000
30
0.0
0
VERTEX
8
0
10
1113.29078000
20
934.99546000
30
0.0
0
VERTEX
8
0
10
1112.64397000
20
935.09261000
30
0.0
0
VERTEX
8
0
10
1111.75509000
20
935.39277000
30
0.0
0
VERTEX
8
0
10
1111.03241000
20
935.78156000
30
0.0
0
SEQEND
8
0
0
POLYLINE
8
0
66
1
70
1
10
0.0
20
0.0
30
0.0
1001
CGISCE_GIS_2000
1000
1119879783
0
VERTEX
8
0
10
1113.26362000
20
982.86451000
30
0.0
0
VERTEX
8
0
10
1113.47542000
20
983.14857000
30
0.0
0
VERTEX
8
0
10
1116.02661000
20
981.00157000
30
0.0
0
VERTEX
8
0
10
1116.94400000
20
982.97019000
30
0.0
0
VERTEX
8
0
10
1115.89461000
20
983.47076000
30
0.0
0
VERTEX
8
0
10
1115.14844000
20
984.88561000
30
0.0
0
VERTEX
8
0
10
1115.72124000
20
985.13661000
30
0.0
0
VERTEX
8
0
10
1117.58695000
20
983.93966000
30
0.0
0
VERTEX
8
0
10
1118.26640000
20
984.56698000
30
0.0
0
VERTEX
8
0
10
1119.31740000
20
984.16939000
30
0.0
0
VERTEX
8
0
10
1119.34275000
20
982.90855000
30
0.0
0
VERTEX
8
0
10
1119.01260000
20
982.56678000
30
0.0
0
VERTEX
8
0
10
1118.26557000
20
981.56619000
30
0.0
0
VERTEX
8
0
10
1117.39772000
20
980.64745000
30
0.0
0
VERTEX
8
0
10
1116.83763000
20
980.59872000
30
0.0
0
VERTEX
8
0
10
1115.76479000
20
979.39266000
30
0.0
0
VERTEX
8
0
10
1115.23098000
20
979.69696000
30
0.0
0
VERTEX
8
0
10
1115.80800000
20
980.35692000
30
0.0
0
VERTEX
8
0
10
1115.29703000
20
980.69010000
30
0.0
0
VERTEX
8
0
10
1114.31191000
20
981.49259000
30
0.0
0
VERTEX
8
0
10
1113.34735000
20
982.38779000
30
0.0
0
SEQEND
8
0
0
POLYLINE
8
0
66
1
70
1
10
0.0
20
0.0
30
0.0
1001
CGISCE_GIS_2000
1000
1119879784
0
VERTEX
8
0
10
1116.00004000
20
947.74254000
30
0.0
0
VERTEX
8
0
10
1116.26430000
20
948.17258000
30
0.0
0
VERTEX
8
0
10
1116.24509000
20
948.22432000
30
0.0
0
VERTEX
8
0
10
1116.22671000
20
948.27636000
30
0.0
0
VERTEX
8
0
10
1116.20917000
20
948.32869000
30
0.0
0
VERTEX
8
0
10
1116.19248000
20
948.38130000
30
0.0
0
VERTEX
8
0
10
1116.17663000
20
948.43417000
30
0.0
0
VERTEX
8
0
10
1116.16163000
20
948.48728000
30
0.0
0
VERTEX
8
0
10
1116.14749000
20
948.54063000
30
0.0
0
VERTEX
8
0
10
1116.13421000
20
948.59420000
30
0.0
0
VERTEX
8
0
10
1116.12179000
20
948.64797000
30
0.0
0
VERTEX
8
0
10
1116.11023000
20
948.70194000
30
0.0
0
VERTEX
8
0
10
1116.09955000
20
948.75609000
30
0.0
0
VERTEX
8
0
10
1116.08973000
20
948.81040000
30
0.0
0
VERTEX
8
0
10
1116.08079000
20
948.86486000
30
0.0
0
VERTEX
8
0
10
1116.07273000
20
948.91946000
30
0.0
0
VERTEX
8
0
10
1116.06554000
20
948.97419000
30
0.0
0
VERTEX
8
0
10
1116.05924000
20
949.02902000
30
0.0
0
VERTEX
8
0
10
1116.05381000
20
949.08394000
30
0.0
0
VERTEX
8
0
10
1116.04927000
20
949.13894000
30
0.0
0
VERTEX
8
0
10
1116.04562000
20
949.19401000
30
0.0
0
VERTEX
8
0
10
1116.04285000
20
949.24914000
30
0.0
0
VERTEX
8
0
10
1116.04096000
20
949.30430000
30
0.0
0
VERTEX
8
0
10
1116.03996000
20
949.35948000
30
0.0
0
VERTEX
8
0
10
1116.03985000
20
949.41467000
30
0.0
0
VERTEX
8
0
10
1116.04063000
20
949.46985000
30
0.0
0
VERTEX
8
0
10
1116.04229000
20
949.52502000
30
0.0
0
VERTEX
8
0
10
1116.04484000
20
949.58015000
30
0.0
0
VERTEX
8
0
10
1116.04827000
20
949.63524000
30
0.0
0
VERTEX
8
0
10
1116.05259000
20
949.69026000
30
0.0
0
VERTEX
8
0
10
1116.05779000
20
949.74521000
30
0.0
0
VERTEX
8
0
10
1116.06388000
20
949.80006000
30
0.0
0
VERTEX
8
0
10
1116.07084000
20
949.85481000
30
0.0
0
VERTEX
8
0
10
1116.07869000
20
949.90944000
30
0.0
0
VERTEX
8
0
10
1116.08741000
20
949.96394000
30
0.0
0
VERTEX
8
0
10
1116.09700000
20
950.01829000
30
0.0
0
VERTEX
8
0
10
1116.10747000
20
950.07248000
30
0.0
0
VERTEX
8
0
10
1116.11881000
20
950.12650000
30
0.0
0
VERTEX
8
0
10
1116.13101000
20
950.18032000
30
0.0
0
VERTEX
8
0
10
1116.14408000
20
950.23394000
30
0.0
0
VERTEX
8
0
10
1116.15801000
20
950.28735000
30
0.0
0
VERTEX
8
0
10
1116.17279000
20
950.34052000
30
0.0
0
VERTEX
8
0
10
1116.18842000
20
950.39345000
30
0.0
0
VERTEX
8
0
10
1116.20491000
20
950.44613000
30
0.0
0
VERTEX
8
0
10
1116.22224000
20
950.49853000
30
0.0
0
VERTEX
8
0
10
1116.24040000
20
950.55064000
30
0.0
0
VERTEX
8
0
10
1116.25941000
20
950.60246000
30
0.0
0
VERTEX
8
0
10
1116.27924000
20
950.65396000
30
0.0
0
VERTEX
8
0
10
1116.29990000
20
950.70514000
30
0.0
0
VERTEX
8
0
10
1116.32138000
20
950.75598000
30
0.0
0
VERTEX
8
0
10
1116.34367000
20
950.80647000
30
0.0
0
VERTEX
8
0
10
1116.36677000
20
950.85660000
30
0.0
0
VERTEX
8
0
10
1116.39067000
20
950.90634000
30
0.0
0
VERTEX
8
0
10
1116.41537000
20
950.95570000
30
0.0
0
VERTEX
8
0
10
1116.44086000
20
951.00465000
30
0.0
0
VERTEX
8
0
10
1116.46713000
20
951.05319000
30
0.0
0
VERTEX
8
0
10
1116.49418000
20
951.10130000
30
0.0
0
VERTEX
8
0
10
1116.52200000
20
951.14897000
30
0.0
0
VERTEX
8
0
10
1116.55058000
20
951.19618000
30
0.0
0
VERTEX
8
0
10
1116.57991000
20
951.24293000
30
0.0
0
VERTEX
8
0
10
1116.61000000
20
951.28920000
30
0.0
0
VERTEX
8
0
10
1116.64082000
20
951.33499000
30
0.0
0
VERTEX
8
0
10
1116.67237000
20
951.38027000
30
0.0
0
VERTEX
8
0
10
1116.70465000
20
951.42504000
30
0.0
0
VERTEX
8
0
10
1116.73764000
20
951.46928000
30
0.0
0
VERTEX
8
0
10
1116.77134000
20
951.51299000
30
0.0
0
VERTEX
8
0
10
1116.80574000
20
951.55615000
30
0.0
0
VERTEX
8
0
10
1116.84083000
20
951.59875000
30
0.0
0
VERTEX
8
0
10
1116.87660000
20
951.64079000
30
0.0
0
VERTEX
8
0
10
1116.91303000
20
951.68224000
30
0.0
0
VERTEX
8
0
10
1116.95013000
20
951.72310000
30
0.0
0
VERTEX
8
0
10
1116.98788000
20
951.76337000
30
0.0
0
VERTEX
8
0
10
1117.02628000
20
951.80301000
30
0.0
0
VERTEX
8
0
10
1117.06530000
20
951.84204000
30
0.0
0
VERTEX
8
0
10
1117.10495000
20
951.88044000
30
0.0
0
VERTEX
8
0
10
1117.14521000
20
951.91819000
30
0.0
0
VERTEX
8
0
10
1117.18607000
20
951.95529000
30
0.0
0
VERTEX
8
0
10
1117.22752000
20
951.99173000
30
0.0
0
VERTEX
8
0
10
1117.26955000
20
952.02750000
30
0.0
0
VERTEX
8
0
10
1117.31215000
20
952.06259000
30
0.0
0
VERTEX
8
0
10
1117.35531000
20
952.09699000
30
0.0
0
VERTEX
8
0
10
1117.39901000
20
952.13070000
30
0.0
0
VERTEX
8
0
10
1117.44326000
20
952.16369000
30
0.0
0
VERTEX
8
0
10
1117.48802000
20
952.19597000
30
0.0
0
VERTEX
8
0
10
1117.53330000
20
952.22753000
30
0.0
0
VERTEX
8
0
10
1117.57908000
20
952.25835000
30
0.0
0
VERTEX
8
0
10
1117.62535000
20
952.28844000
30
0.0
0
VERTEX
8
0
10
1117.67210000
20
952.31778000
30
0.0
0
VERTEX
8
0
10
1117.71931000
20
952.34636000
30
0.0
0
VERTEX
8
0
10
1117.76698000
20
952.37418000
30
0.0
0
VERTEX
8
0
10
1117.81509000
20
952.40124000
30
0.0
0
VERTEX
8
0
10
1117.86362000
20
952.42751000
30
0.0
0
VERTEX
8
0
10
1117.91257000
20
952.45300000
30
0.0
0
VERTEX
8
0
10
1117.96193000
20
952.47771000
30
0.0
0
VERTEX
8
0
10
1118.01167000
20
952.50161000
30
0.0
0
VERTEX
8
0
10
1118.06180000
20
952.52472000
30
0.0
0
VERTEX
8
0
10
1118.11228000
20
952.54701000
30
0.0
0
VERTEX
8
0
10
1118.16312000
20
952.56849000
30
0.0
0
VERTEX
8
0
10
1118.21430000
20
952.58915000
30
0.0
0
VERTEX
8
0
10
1118.26581000
20
952.60899000
30
0.0
0
VERTEX
8
0
10
1118.31762000
20
952.62800000
30
0.0
0
VERTEX
8
0
10
1118.36974000
20
952.64617000
30
0.0
0
VERTEX
8
0
10
1118.42214000
20
952.66350000
30
0.0
0
VERTEX
8
0
10
1118.47481000
20
952.67999000
30
0.0
0
VERTEX
8
0
10
1118.52774000
20
952.69563000
30
0.0
0
VERTEX
8
0
10
1118.58091000
20
952.71041000
30
0.0
0
VERTEX
8
0
10
1118.63431000
20
952.72434000
30
0.0
0
VERTEX
8
0
10
1118.68794000
20
952.73741000
30
0.0
0
VERTEX
8
0
10
1118.74176000
20
952.74962000
30
0.0
0
VERTEX
8
0
10
1118.79577000
20
952.76096000
30
0.0
0
VERTEX
8
0
10
1118.84996000
20
952.77143000
30
0.0
0
VERTEX
8
0
10
1118.90431000
20
952.78103000
30
0.0
0
VERTEX
8
0
10
1118.95881000
20
952.78975000
30
0.0
0
VERTEX
8
0
10
1119.01344000
20
952.79760000
30
0.0
0
VERTEX
8
0
10
1119.06819000
20
952.80457000
30
0.0
0
VERTEX
8
0
10
1119.12305000
20
952.81066000
30
0.0
0
VERTEX
8
0
10
1119.17799000
20
952.81586000
30
0.0
0
VERTEX
8
0
10
1119.23301000
20
952.82019000
30
0.0
0
VERTEX
8
0
10
1119.28810000
20
952.82362000
30
0.0
0
VERTEX
8
0
10
1119.34323000
20
952.82618000
30
0.0
0
VERTEX
8
0
10
1119.39840000
20
952.82784000
30
0.0
0
VERTEX
8
0
10
1119.45358000
20
952.82862000
30
0.0
0
VERTEX
8
0
10
1119.50877000
20
952.82851000
30
0.0
0
VERTEX
8
0
10
1119.56396000
20
952.82752000
30
0.0
0
VERTEX
8
0
10
1119.61911000
20
952.82564000
30
0.0
0
VERTEX
8
0
10
1119.67424000
20
952.82287000
30
0.0
0
VERTEX
8
0
10
1119.72931000
20
952.81922000
30
0.0
0
VERTEX
8
0
10
1119.78431000
20
952.81468000
30
0.0
0
VERTEX
8
0
10
1119.83924000
20
952.80926000
30
0.0
0
VERTEX
8
0
10
1119.89407000
20
952.80296000
30
0.0
0
VERTEX
8
0
10
1119.94879000
20
952.79578000
30
0.0
0
VERTEX
8
0
10
1120.00339000
20
952.78772000
30
0.0
0
VERTEX
8
0
10
1120.05785000
20
952.77878000
30
0.0
0
VERTEX
8
0
10
1120.11216000
20
952.76897000
30
0.0
0
VERTEX
8
0
10
1120.16631000
20
952.75829000
30
0.0
0
VERTEX
8
0
10
1120.22028000
20
952.74674000
30
0.0
0
VERTEX
8
0
10
1120.27406000
20
952.73432000
30
0.0
0
VERTEX
8
0
10
1120.32763000
20
952.72104000
30
0.0
0
VERTEX
8
0
10
1120.38098000
20
952.70691000
30
0.0
0
VERTEX
8
0
10
1120.43409000
20
952.69191000
30
0.0
0
VERTEX
8
0
10
1120.48696000
20
952.67607000
30
0.0
0
VERTEX
8
0
10
1120.53957000
20
952.65937000
30
0.0
0
VERTEX
8
0
10
1120.59190000
20
952.64184000
30
0.0
0
VERTEX
8
0
10
1120.64394000
20
952.62346000
30
0.0
0
VERTEX
8
0
10
1120.69568000
20
952.60426000
30
0.0
0
VERTEX
8
0
10
1120.74711000
20
952.58422000
30
0.0
0
VERTEX
8
0
10
1120.79821000
20
952.56336000
30
0.0
0
VERTEX
8
0
10
1120.84896000
20
952.54168000
30
0.0
0
VERTEX
8
0
10
1120.89936000
20
952.51919000
30
0.0
0
VERTEX
8
0
10
1120.94939000
20
952.49589000
30
0.0
0
VERTEX
8
0
10
1120.99905000
20
952.47179000
30
0.0
0
VERTEX
8
0
10
1121.04830000
20
952.44690000
30
0.0
0
VERTEX
8
0
10
1121.09716000
20
952.42121000
30
0.0
0
VERTEX
8
0
10
1121.14559000
20
952.39475000
30
0.0
0
VERTEX
8
0
10
1121.19359000
20
952.36751000
30
0.0
0
VERTEX
8
0
10
1121.24115000
20
952.33950000
30
0.0
0
VERTEX
8
0
10
1121.28825000
20
952.31073000
30
0.0
0
VERTEX
8
0
10
1121.33488000
20
952.28121000
30
0.0
0
VERTEX
8
0
10
1121.38103000
20
952.25095000
30
0.0
0
VERTEX
8
0
10
1121.42669000
20
952.21994000
30
0.0
0
VERTEX
8
0
10
1121.47185000
20
952.18821000
30
0.0
0
VERTEX
8
0
10
1121.51649000
20
952.15576000
30
0.0
0
VERTEX
8
0
10
1121.56060000
20
952.12259000
30
0.0
0
VERTEX
8
0
10
1121.60418000
20
952.08872000
30
0.0
0
VERTEX
8
0
10
1121.64720000
20
952.05415000
30
0.0
0
VERTEX
8
0
10
1121.68967000
20
952.01889000
30
0.0
0
VERTEX
8
0
10
1121.73156000
20
951.98296000
30
0.0
0
VERTEX
8
0
10
1121.77287000
20
951.94636000
30
0.0
0
VERTEX
8
0
10
1121.81358000
20
951.90910000
30
0.0
0
VERTEX
8
0
10
1121.85369000
20
951.87119000
30
0.0
0
VERTEX
8
0
10
1121.89319000
20
951.83264000
30
0.0
0
VERTEX
8
0
10
1121.93206000
20
951.79346000
30
0.0
0
VERTEX
8
0
10
1121.97030000
20
951.75366000
30
0.0
0
VERTEX
8
0
10
1122.00790000
20
951.71325000
30
0.0
0
VERTEX
8
0
10
1122.04484000
20
951.67224000
30
0.0
0
VERTEX
8
0
10
1122.08111000
20
951.63065000
30
0.0
0
VERTEX
8
0
10
1122.11671000
20
951.58848000
30
0.0
0
VERTEX
8
0
10
1122.15163000
20
951.54574000
30
0.0
0
VERTEX
8
0
10
1122.18586000
20
951.50244000
30
0.0
0
VERTEX
8
0
10
1122.21939000
20
951.45860000
30
0.0
0
VERTEX
8
0
10
1122.25221000
20
951.41423000
30
0.0
0
VERTEX
8
0
10
1122.28432000
20
951.36934000
30
0.0
0
VERTEX
8
0
10
1122.31569000
20
951.32393000
30
0.0
0
VERTEX
8
0
10
1122.34634000
20
951.27803000
30
0.0
0
VERTEX
8
0
10
1122.37624000
20
951.23164000
30
0.0
0
VERTEX
8
0
10
1122.40539000
20
951.18478000
30
0.0
0
VERTEX
8
0
10
1122.43379000
20
951.13745000
30
0.0
0
VERTEX
8
0
10
1122.46142000
20
951.08967000
30
0.0
0
VERTEX
8
0
10
1122.48828000
20
951.04146000
30
0.0
0
VERTEX
8
0
10
1122.51437000
20
950.99282000
30
0.0
0
VERTEX
8
0
10
1122.53966000
20
950.94377000
30
0.0
0
VERTEX
8
0
10
1122.56417000
20
950.89432000
30
0.0
0
VERTEX
8
0
10
1122.58788000
20
950.84448000
30
0.0
0
VERTEX
8
0
10
1122.61078000
20
950.79426000
30
0.0
0
VERTEX
8
0
10
1122.63288000
20
950.74369000
30
0.0
0
VERTEX
8
0
10
1122.65416000
20
950.69276000
30
0.0
0
VERTEX
8
0
10
1122.67462000
20
950.64150000
30
0.0
0
VERTEX
8
0
10
1122.69425000
20
950.58992000
30
0.0
0
VERTEX
8
0
10
1122.71305000
20
950.53803000
30
0.0
0
VERTEX
8
0
10
1122.73102000
20
950.48585000
30
0.0
0
VERTEX
8
0
10
1122.74814000
20
950.43338000
30
0.0
0
VERTEX
8
0
10
1122.76442000
20
950.38064000
30
0.0
0
VERTEX
8
0
10
1122.77985000
20
950.32765000
30
0.0
0
VERTEX
8
0
10
1122.79442000
20
950.27442000
30
0.0
0
VERTEX
8
0
10
1122.80814000
20
950.22096000
30
0.0
0
VERTEX
8
0
10
1122.82100000
20
950.16729000
30
0.0
0
VERTEX
8
0
10
1122.83299000
20
950.11342000
30
0.0
0
VERTEX
8
0
10
1122.84412000
20
950.05936000
30
0.0
0
VERTEX
8
0
10
1122.85437000
20
950.00513000
30
0.0
0
VERTEX
8
0
10
1122.86376000
20
949.95074000
30
0.0
0
VERTEX
8
0
10
1122.87227000
20
949.89621000
30
0.0
0
VERTEX
8
0
10
1122.87990000
20
949.84155000
30
0.0
0
VERTEX
8
0
10
1122.88665000
20
949.78677000
30
0.0
0
VERTEX
8
0
10
1122.89252000
20
949.73189000
30
0.0
0
VERTEX
8
0
10
1122.89751000
20
949.67693000
30
0.0
0
VERTEX
8
0
10
1122.90161000
20
949.62189000
30
0.0
0
VERTEX
8
0
10
1122.90483000
20
949.56679000
30
0.0
0
VERTEX
8
0
10
1122.90717000
20
949.51165000
30
0.0
0
VERTEX
8
0
10
1122.90861000
20
949.45647000
30
0.0
0
VERTEX
8
0
10
1122.90917000
20
949.40129000
30
0.0
0
VERTEX
8
0
10
1122.90885000
20
949.34610000
30
0.0
0
VERTEX
8
0
10
1122.90763000
20
949.29092000
30
0.0
0
VERTEX
8
0
10
1122.90553000
20
949.23577000
30
0.0
0
VERTEX
8
0
10
1122.90255000
20
949.18066000
30
0.0
0
VERTEX
8
0
10
1122.89868000
20
949.12560000
30
0.0
0
VERTEX
8
0
10
1122.89392000
20
949.07061000
30
0.0
0
VERTEX
8
0
10
1122.88829000
20
949.01571000
30
0.0
0
VERTEX
8
0
10
1122.88177000
20
948.96091000
30
0.0
0
VERTEX
8
0
10
1122.87437000
20
948.90621000
30
0.0
0
VERTEX
8
0
10
1122.86609000
20
948.85165000
30
0.0
0
VERTEX
8
0
10
1122.85694000
20
948.79722000
30
0.0
0
VERTEX
8
0
10
1122.84691000
20
948.74295000
30
0.0
0
VERTEX
8
0
10
1122.83602000
20
948.68884000
30
0.0
0
VERTEX
8
0
10
1122.82425000
20
948.63492000
30
0.0
0
VERTEX
8
0
10
1122.81162000
20
948.58119000
30
0.0
0
VERTEX
8
0
10
1122.79813000
20
948.52767000
30
0.0
0
VERTEX
8
0
10
1122.78378000
20
948.47438000
30
0.0
0
VERTEX
8
0
10
1122.76858000
20
948.42132000
30
0.0
0
VERTEX
8
0
10
1122.75252000
20
948.36852000
30
0.0
0
VERTEX
8
0
10
1122.73562000
20
948.31598000
30
0.0
0
VERTEX
8
0
10
1122.71788000
20
948.26372000
30
0.0
0
VERTEX
8
0
10
1122.69930000
20
948.21175000
30
0.0
0
VERTEX
8
0
10
1122.67989000
20
948.16008000
30
0.0
0
VERTEX
8
0
10
1122.65965000
20
948.10874000
30
0.0
0
VERTEX
8
0
10
1122.63858000
20
948.05772000
30
0.0
0
VERTEX
8
0
10
1122.61670000
20
948.00705000
30
0.0
0
VERTEX
8
0
10
1122.59401000
20
947.95674000
30
0.0
0
VERTEX
8
0
10
1122.57052000
20
947.90680000
30
0.0
0
VERTEX
8
0
10
1122.54622000
20
947.85725000
30
0.0
0
VERTEX
8
0
10
1122.52113000
20
947.80809000
30
0.0
0
VERTEX
8
0
10
1122.49525000
20
947.75934000
30
0.0
0
VERTEX
8
0
10
1122.46860000
20
947.71101000
30
0.0
0
VERTEX
8
0
10
1122.44117000
20
947.66312000
30
0.0
0
VERTEX
8
0
10
1122.41297000
20
947.61567000
30
0.0
0
VERTEX
8
0
10
1122.38402000
20
947.56869000
30
0.0
0
VERTEX
8
0
10
1122.35432000
20
947.52217000
30
0.0
0
VERTEX
8
0
10
1122.32387000
20
947.47614000
30
0.0
0
VERTEX
8
0
10
1122.29268000
20
947.43060000
30
0.0
0
VERTEX
8
0
10
1122.26077000
20
947.38557000
30
0.0
0
VERTEX
8
0
10
1122.22814000
20
947.34106000
30
0.0
0
VERTEX
8
0
10
1122.19480000
20
947.29708000
30
0.0
0
VERTEX
8
0
10
1122.16075000
20
947.25364000
30
0.0
0
VERTEX
8
0
10
1122.12601000
20
947.21075000
30
0.0
0
VERTEX
8
0
10
1122.09059000
20
947.16843000
30
0.0
0
VERTEX
8
0
10
1122.05449000
20
947.12668000
30
0.0
0
VERTEX
8
0
10
1122.01773000
20
947.08551000
30
0.0
0
VERTEX
8
0
10
1121.98030000
20
947.04495000
30
0.0
0
VERTEX
8
0
10
1121.94224000
20
947.00499000
30
0.0
0
VERTEX
8
0
10
1121.90353000
20
946.96564000
30
0.0
0
VERTEX
8
0
10
1121.86420000
20
946.92692000
30
0.0
0
VERTEX
8
0
10
1121.82425000
20
946.88884000
30
0.0
0
VERTEX
8
0
10
1121.78369000
20
946.85141000
30
0.0
0
VERTEX
8
0
10
1121.74254000
20
946.81464000
30
0.0
0
VERTEX
8
0
10
1121.70080000
20
946.77852000
30
0.0
0
VERTEX
8
0
10
1121.65848000
20
946.74309000
30
0.0
0
VERTEX
8
0
10
1121.61561000
20
946.70834000
30
0.0
0
VERTEX
8
0
10
1121.57218000
20
946.67428000
30
0.0
0
VERTEX
8
0
10
1121.52821000
20
946.64093000
30
0.0
0
VERTEX
8
0
10
1121.48370000
20
946.60828000
30
0.0
0
VERTEX
8
0
10
1121.43868000
20
946.57636000
30
0.0
0
VERTEX
8
0
10
1121.39315000
20
946.54516000
30
0.0
0
VERTEX
8
0
10
1121.34713000
20
946.51470000
30
0.0
0
VERTEX
8
0
10
1121.30062000
20
946.48498000
30
0.0
0
VERTEX
8
0
10
1121.25364000
20
946.45601000
30
0.0
0
VERTEX
8
0
10
1121.20621000
20
946.42780000
30
0.0
0
VERTEX
8
0
10
1121.15832000
20
946.40036000
30
0.0
0
VERTEX
8
0
10
1121.11000000
20
946.37369000
30
0.0
0
VERTEX
8
0
10
1121.06126000
20
946.34780000
30
0.0
0
VERTEX
8
0
10
1121.01211000
20
946.32270000
30
0.0
0
VERTEX
8
0
10
1120.96256000
20
946.29839000
30
0.0
0
VERTEX
8
0
10
1120.91263000
20
946.27487000
30
0.0
0
VERTEX
8
0
10
1120.86232000
20
946.25217000
30
0.0
0
VERTEX
8
0
10
1120.81166000
20
946.23027000
30
0.0
0
VERTEX
8
0
10
1120.76065000
20
946.20920000
30
0.0
0
VERTEX
8
0
10
1120.70931000
20
946.18894000
30
0.0
0
VERTEX
8
0
10
1120.65765000
20
946.16951000
30
0.0
0
VERTEX
8
0
10
1120.60569000
20
946.15092000
30
0.0
0
VERTEX
8
0
10
1120.55343000
20
946.13316000
30
0.0
0
VERTEX
8
0
10
1120.50089000
20
946.11625000
30
0.0
0
VERTEX
8
0
10
1120.44809000
20
946.10018000
30
0.0
0
VERTEX
8
0
10
1120.39504000
20
946.08496000
30
0.0
0
VERTEX
8
0
10
1120.34175000
20
946.07059000
30
0.0
0
VERTEX
8
0
10
1120.28824000
20
946.05709000
30
0.0
0
VERTEX
8
0
10
1120.23452000
20
946.04444000
30
0.0
0
VERTEX
8
0
10
1120.18060000
20
946.03266000
30
0.0
0
VERTEX
8
0
10
1120.12650000
20
946.02175000
30
0.0
0
VERTEX
8
0
10
1120.07223000
20
946.01171000
30
0.0
0
VERTEX
8
0
10
1120.01780000
20
946.00254000
30
0.0
0
VERTEX
8
0
10
1120.16864000
20
945.34055000
30
0.0
0
VERTEX
8
0
10
1121.96893000
20
943.89412000
30
0.0
0
VERTEX
8
0
10
1120.28674000
20
941.74487000
30
0.0
0
VERTEX
8
0
10
1119.77029000
20
942.14912000
30
0.0
0
VERTEX
8
0
10
1121.00453000
20
943.78258000
30
0.0
0
SEQEND
8
0
0
POLYLINE
8
0
66
1
70
1
10
0.0
20
0.0
30
0.0
1001
CGISCE_GIS_2000
1000
1119879785
0
VERTEX
8
0
10
1116.94302000
20
949.42262000
30
0.0
0
VERTEX
8
0
10
1116.94279000
20
949.37507000
30
0.0
0
VERTEX
8
0
10
1116.94344000
20
949.32753000
30
0.0
0
VERTEX
8
0
10
1116.94497000
20
949.28000000
30
0.0
0
VERTEX
8
0
10
1116.94738000
20
949.23251000
30
0.0
0
VERTEX
8
0
10
1116.95068000
20
949.18507000
30
0.0
0
VERTEX
8
0
10
1116.95458000
20
949.14061000
30
0.0
0
VERTEX
8
0
10
1116.95959000
20
949.09332000
30
0.0
0
VERTEX
8
0
10
1116.96547000
20
949.04614000
30
0.0
0
VERTEX
8
0
10
1116.97223000
20
948.99907000
30
0.0
0
VERTEX
8
0
10
1116.97987000
20
948.95213000
30
0.0
0
VERTEX
8
0
10
1116.98837000
20
948.90535000
30
0.0
0
VERTEX
8
0
10
1116.99774000
20
948.85873000
30
0.0
0
VERTEX
8
0
10
1117.00798000
20
948.81229000
30
0.0
0
VERTEX
8
0
10
1117.01908000
20
948.76605000
30
0.0
0
VERTEX
8
0
10
1117.03104000
20
948.72003000
30
0.0
0
VERTEX
8
0
10
1117.04385000
20
948.67423000
30
0.0
0
VERTEX
8
0
10
1117.05752000
20
948.62869000
30
0.0
0
VERTEX
8
0
10
1117.07202000
20
948.58340000
30
0.0
0
VERTEX
8
0
10
1117.08737000
20
948.53839000
30
0.0
0
VERTEX
8
0
10
1117.10355000
20
948.49368000
30
0.0
0
VERTEX
8
0
10
1117.12055000
20
948.44927000
30
0.0
0
VERTEX
8
0
10
1117.13838000
20
948.40519000
30
0.0
0
VERTEX
8
0
10
1117.15703000
20
948.36144000
30
0.0
0
VERTEX
8
0
10
1117.17649000
20
948.31805000
30
0.0
0
VERTEX
8
0
10
1117.19675000
20
948.27503000
30
0.0
0
VERTEX
8
0
10
1117.21780000
20
948.23240000
30
0.0
0
VERTEX
8
0
10
1117.23965000
20
948.19016000
30
0.0
0
VERTEX
8
0
10
1117.26228000
20
948.14834000
30
0.0
0
VERTEX
8
0
10
1117.28568000
20
948.10694000
30
0.0
0
VERTEX
8
0
10
1117.30984000
20
948.06599000
30
0.0
0
VERTEX
8
0
10
1117.33477000
20
948.02549000
30
0.0
0
VERTEX
8
0
10
1117.36044000
20
947.98546000
30
0.0
0
VERTEX
8
0
10
1117.38685000
20
947.94592000
30
0.0
0
VERTEX
8
0
10
1117.41399000
20
947.90687000
30
0.0
0
VERTEX
8
0
10
1117.44186000
20
947.86834000
30
0.0
0
VERTEX
8
0
10
1117.47043000
20
947.83033000
30
0.0
0
VERTEX
8
0
10
1117.49971000
20
947.79286000
30
0.0
0
VERTEX
8
0
10
1117.52968000
20
947.75594000
30
0.0
0
VERTEX
8
0
10
1117.56033000
20
947.71958000
30
0.0
0
VERTEX
8
0
10
1117.59165000
20
947.68380000
30
0.0
0
VERTEX
8
0
10
1117.62363000
20
947.64861000
30
0.0
0
VERTEX
8
0
10
1117.65626000
20
947.61402000
30
0.0
0
VERTEX
8
0
10
1117.68952000
20
947.58004000
30
0.0
0
VERTEX
8
0
10
1117.72342000
20
947.54668000
30
0.0
0
VERTEX
8
0
10
1117.75792000
20
947.51397000
30
0.0
0
VERTEX
8
0
10
1117.79303000
20
947.48189000
30
0.0
0
VERTEX
8
0
10
1117.82873000
20
947.45048000
30
0.0
0
VERTEX
8
0
10
1117.86501000
20
947.41974000
30
0.0
0
VERTEX
8
0
10
1117.90185000
20
947.38967000
30
0.0
0
VERTEX
8
0
10
1117.93925000
20
947.36030000
30
0.0
0
VERTEX
8
0
10
1117.97718000
20
947.33162000
30
0.0
0
VERTEX
8
0
10
1118.01564000
20
947.30366000
30
0.0
0
VERTEX
8
0
10
1118.05462000
20
947.27642000
30
0.0
0
VERTEX
8
0
10
1118.09409000
20
947.24990000
30
0.0
0
VERTEX
8
0
10
1118.13405000
20
947.22413000
30
0.0
0
VERTEX
8
0
10
1118.17448000
20
947.19910000
30
0.0
0
VERTEX
8
0
10
1118.21537000
20
947.17483000
30
0.0
0
VERTEX
8
0
10
1118.25671000
20
947.15132000
30
0.0
0
VERTEX
8
0
10
1118.29847000
20
947.12858000
30
0.0
0
VERTEX
8
0
10
1118.34065000
20
947.10663000
30
0.0
0
VERTEX
8
0
10
1118.38323000
20
947.08546000
30
0.0
0
VERTEX
8
0
10
1118.42620000
20
947.06509000
30
0.0
0
VERTEX
8
0
10
1118.46954000
20
947.04552000
30
0.0
0
VERTEX
8
0
10
1118.51324000
20
947.02676000
30
0.0
0
VERTEX
8
0
10
1118.55727000
20
947.00881000
30
0.0
0
VERTEX
8
0
10
1118.60164000
20
946.99169000
30
0.0
0
VERTEX
8
0
10
1118.64631000
20
946.97539000
30
0.0
0
VERTEX
8
0
10
1118.69128000
20
946.95993000
30
0.0
0
VERTEX
8
0
10
1118.73652000
20
946.94531000
30
0.0
0
VERTEX
8
0
10
1118.78204000
20
946.93153000
30
0.0
0
VERTEX
8
0
10
1118.82780000
20
946.91860000
30
0.0
0
VERTEX
8
0
10
1118.87379000
20
946.90652000
30
0.0
0
VERTEX
8
0
10
1118.92000000
20
946.89530000
30
0.0
0
VERTEX
8
0
10
1118.96641000
20
946.88494000
30
0.0
0
VERTEX
8
0
10
1119.01300000
20
946.87545000
30
0.0
0
VERTEX
8
0
10
1119.05977000
20
946.86682000
30
0.0
0
VERTEX
8
0
10
1119.10668000
20
946.85906000
30
0.0
0
VERTEX
8
0
10
1119.15373000
20
946.85218000
30
0.0
0
VERTEX
8
0
10
1119.20091000
20
946.84617000
30
0.0
0
VERTEX
8
0
10
1119.24818000
20
946.84104000
30
0.0
0
VERTEX
8
0
10
1119.29554000
20
946.83680000
30
0.0
0
VERTEX
8
0
10
1119.34298000
20
946.83343000
30
0.0
0
VERTEX
8
0
10
1119.39046000
20
946.83094000
30
0.0
0
VERTEX
8
0
10
1119.43799000
20
946.82934000
30
0.0
0
VERTEX
8
0
10
1119.48554000
20
946.82862000
30
0.0
0
VERTEX
8
0
10
1119.53309000
20
946.82879000
30
0.0
0
VERTEX
8
0
10
1119.58063000
20
946.82984000
30
0.0
0
VERTEX
8
0
10
1119.62814000
20
946.83177000
30
0.0
0
VERTEX
8
0
10
1119.67561000
20
946.83459000
30
0.0
0
VERTEX
8
0
10
1119.72302000
20
946.83829000
30
0.0
0
VERTEX
8
0
10
1119.77035000
20
946.84287000
30
0.0
0
VERTEX
8
0
10
1119.81759000
20
946.84833000
30
0.0
0
VERTEX
8
0
10
1119.86472000
20
946.85466000
30
0.0
0
VERTEX
8
0
10
1119.91172000
20
946.86187000
30
0.0
0
VERTEX
8
0
10
1119.95858000
20
946.86996000
30
0.0
0
VERTEX
8
0
10
1120.00528000
20
946.87891000
30
0.0
0
VERTEX
8
0
10
1120.05181000
20
946.88873000
30
0.0
0
VERTEX
8
0
10
1120.09814000
20
946.89941000
30
0.0
0
VERTEX
8
0
10
1120.14427000
20
946.91096000
30
0.0
0
VERTEX
8
0
10
1120.19018000
20
946.92336000
30
0.0
0
VERTEX
8
0
10
1120.23585000
20
946.93661000
30
0.0
0
VERTEX
8
0
10
1120.28127000
20
946.95070000
30
0.0
0
VERTEX
8
0
10
1120.32641000
20
946.96564000
30
0.0
0
VERTEX
8
0
10
1120.37127000
20
946.98142000
30
0.0
0
VERTEX
8
0
10
1120.41583000
20
946.99803000
30
0.0
0
VERTEX
8
0
10
1120.46007000
20
947.01546000
30
0.0
0
VERTEX
8
0
10
1120.50398000
20
947.03371000
30
0.0
0
VERTEX
8
0
10
1120.54754000
20
947.05277000
30
0.0
0
VERTEX
8
0
10
1120.59074000
20
947.07265000
30
0.0
0
VERTEX
8
0
10
1120.63357000
20
947.09332000
30
0.0
0
VERTEX
8
0
10
1120.67600000
20
947.11478000
30
0.0
0
VERTEX
8
0
10
1120.71803000
20
947.13703000
30
0.0
0
VERTEX
8
0
10
1120.75963000
20
947.16006000
30
0.0
0
VERTEX
8
0
10
1120.80080000
20
947.18385000
30
0.0
0
VERTEX
8
0
10
1120.84152000
20
947.20841000
30
0.0
0
VERTEX
8
0
10
1120.88178000
20
947.23372000
30
0.0
0
VERTEX
8
0
10
1120.92156000
20
947.25978000
30
0.0
0
VERTEX
8
0
10
1120.96085000
20
947.28657000
30
0.0
0
VERTEX
8
0
10
1120.99963000
20
947.31408000
30
0.0
0
VERTEX
8
0
10
1121.03789000
20
947.34231000
30
0.0
0
VERTEX
8
0
10
1121.07563000
20
947.37125000
30
0.0
0
VERTEX
8
0
10
1121.11282000
20
947.40089000
30
0.0
0
VERTEX
8
0
10
1121.14945000
20
947.43121000
30
0.0
0
VERTEX
8
0
10
1121.18551000
20
947.46220000
30
0.0
0
VERTEX
8
0
10
1121.22099000
20
947.49387000
30
0.0
0
VERTEX
8
0
10
1121.25587000
20
947.52618000
30
0.0
0
VERTEX
8
0
10
1121.29015000
20
947.55914000
30
0.0
0
VERTEX
8
0
10
1121.32381000
20
947.59273000
30
0.0
0
VERTEX
8
0
10
1121.35684000
20
947.62694000
30
0.0
0
VERTEX
8
0
10
1121.38922000
20
947.66176000
30
0.0
0
VERTEX
8
0
10
1121.42096000
20
947.69717000
30
0.0
0
VERTEX
8
0
10
1121.45203000
20
947.73317000
30
0.0
0
VERTEX
8
0
10
1121.48242000
20
947.76974000
30
0.0
0
VERTEX
8
0
10
1121.51213000
20
947.80687000
30
0.0
0
VERTEX
8
0
10
1121.54115000
20
947.84455000
30
0.0
0
VERTEX
8
0
10
1121.56945000
20
947.88275000
30
0.0
0
VERTEX
8
0
10
1121.59705000
20
947.92148000
30
0.0
0
VERTEX
8
0
10
1121.62392000
20
947.96071000
30
0.0
0
VERTEX
8
0
10
1121.65005000
20
948.00044000
30
0.0
0
VERTEX
8
0
10
1121.67544000
20
948.04065000
30
0.0
0
VERTEX
8
0
10
1121.70008000
20
948.08132000
30
0.0
0
VERTEX
8
0
10
1121.72396000
20
948.12244000
30
0.0
0
VERTEX
8
0
10
1121.74707000
20
948.16400000
30
0.0
0
VERTEX
8
0
10
1121.76941000
20
948.20598000
30
0.0
0
VERTEX
8
0
10
1121.79096000
20
948.24837000
30
0.0
0
VERTEX
8
0
10
1121.81172000
20
948.29115000
30
0.0
0
VERTEX
8
0
10
1121.83168000
20
948.33431000
30
0.0
0
VERTEX
8
0
10
1121.85083000
20
948.37783000
30
0.0
0
VERTEX
8
0
10
1121.86917000
20
948.42171000
30
0.0
0
VERTEX
8
0
10
1121.88669000
20
948.46591000
30
0.0
0
VERTEX
8
0
10
1121.90339000
20
948.51044000
30
0.0
0
VERTEX
8
0
10
1121.91926000
20
948.55527000
30
0.0
0
VERTEX
8
0
10
1121.93429000
20
948.60038000
30
0.0
0
VERTEX
8
0
10
1121.94848000
20
948.64577000
30
0.0
0
VERTEX
8
0
10
1121.96182000
20
948.69141000
30
0.0
0
VERTEX
8
0
10
1121.97431000
20
948.73729000
30
0.0
0
VERTEX
8
0
10
1121.98595000
20
948.78340000
30
0.0
0
VERTEX
8
0
10
1121.99672000
20
948.82971000
30
0.0
0
VERTEX
8
0
10
1122.00664000
20
948.87622000
30
0.0
0
VERTEX
8
0
10
1122.01569000
20
948.92290000
30
0.0
0
VERTEX
8
0
10
1122.02387000
20
948.96975000
30
0.0
0
VERTEX
8
0
10
1122.03117000
20
949.01673000
30
0.0
0
VERTEX
8
0
10
1122.03760000
20
949.06385000
30
0.0
0
VERTEX
8
0
10
1122.04316000
20
949.11108000
30
0.0
0
VERTEX
8
0
10
1122.04783000
20
949.15840000
30
0.0
0
VERTEX
8
0
10
1122.05163000
20
949.20580000
30
0.0
0
VERTEX
8
0
10
1122.05454000
20
949.25326000
30
0.0
0
VERTEX
8
0
10
1122.05657000
20
949.30077000
30
0.0
0
VERTEX
8
0
10
1122.05772000
20
949.34831000
30
0.0
0
VERTEX
8
0
10
1122.05798000
20
949.39586000
30
0.0
0
VERTEX
8
0
10
1122.05736000
20
949.44341000
30
0.0
0
VERTEX
8
0
10
1122.05585000
20
949.49094000
30
0.0
0
VERTEX
8
0
10
1122.05346000
20
949.53843000
30
0.0
0
VERTEX
8
0
10
1122.05019000
20
949.58587000
30
0.0
0
VERTEX
8
0
10
1122.04604000
20
949.63324000
30
0.0
0
VERTEX
8
0
10
1122.04101000
20
949.68052000
30
0.0
0
VERTEX
8
0
10
1122.03510000
20
949.72771000
30
0.0
0
VERTEX
8
0
10
1122.02831000
20
949.77477000
30
0.0
0
VERTEX
8
0
10
1122.02065000
20
949.82170000
30
0.0
0
VERTEX
8
0
10
1122.01211000
20
949.86849000
30
0.0
0
VERTEX
8
0
10
1122.00271000
20
949.91510000
30
0.0
0
VERTEX
8
0
10
1121.99245000
20
949.96153000
30
0.0
0
VERTEX
8
0
10
1121.98132000
20
950.00776000
30
0.0
0
VERTEX
8
0
10
1121.96934000
20
950.05378000
30
0.0
0
VERTEX
8
0
10
1121.95650000
20
950.09957000
30
0.0
0
VERTEX
8
0
10
1121.94281000
20
950.14511000
30
0.0
0
VERTEX
8
0
10
1121.92828000
20
950.19038000
30
0.0
0
VERTEX
8
0
10
1121.91291000
20
950.23538000
30
0.0
0
VERTEX
8
0
10
1121.89670000
20
950.28009000
30
0.0
0
VERTEX
8
0
10
1121.87967000
20
950.32449000
30
0.0
0
VERTEX
8
0
10
1121.86182000
20
950.36856000
30
0.0
0
VERTEX
8
0
10
1121.84314000
20
950.41229000
30
0.0
0
VERTEX
8
0
10
1121.82366000
20
950.45567000
30
0.0
0
VERTEX
8
0
10
1121.80338000
20
950.49868000
30
0.0
0
VERTEX
8
0
10
1121.78230000
20
950.54130000
30
0.0
0
VERTEX
8
0
10
1121.76043000
20
950.58353000
30
0.0
0
VERTEX
8
0
10
1121.73778000
20
950.62534000
30
0.0
0
VERTEX
8
0
10
1121.71435000
20
950.66672000
30
0.0
0
VERTEX
8
0
10
1121.69016000
20
950.70766000
30
0.0
0
VERTEX
8
0
10
1121.66521000
20
950.74815000
30
0.0
0
VERTEX
8
0
10
1121.63952000
20
950.78816000
30
0.0
0
VERTEX
8
0
10
1121.61309000
20
950.82769000
30
0.0
0
VERTEX
8
0
10
1121.58592000
20
950.86671000
30
0.0
0
VERTEX
8
0
10
1121.55804000
20
950.90523000
30
0.0
0
VERTEX
8
0
10
1121.52944000
20
950.94322000
30
0.0
0
VERTEX
8
0
10
1121.50014000
20
950.98068000
30
0.0
0
VERTEX
8
0
10
1121.47015000
20
951.01758000
30
0.0
0
VERTEX
8
0
10
1121.43948000
20
951.05392000
30
0.0
0
VERTEX
8
0
10
1121.40814000
20
951.08968000
30
0.0
0
VERTEX
8
0
10
1121.37614000
20
951.12486000
30
0.0
0
VERTEX
8
0
10
1121.34349000
20
951.15943000
30
0.0
0
VERTEX
8
0
10
1121.31020000
20
951.19339000
30
0.0
0
VERTEX
8
0
10
1121.27629000
20
951.22673000
30
0.0
0
VERTEX
8
0
10
1121.24177000
20
951.25943000
30
0.0
0
VERTEX
8
0
10
1121.20664000
20
951.29148000
30
0.0
0
VERTEX
8
0
10
1121.17092000
20
951.32287000
30
0.0
0
VERTEX
8
0
10
1121.13463000
20
951.35359000
30
0.0
0
VERTEX
8
0
10
1121.09777000
20
951.38364000
30
0.0
0
VERTEX
8
0
10
1121.06036000
20
951.41299000
30
0.0
0
VERTEX
8
0
10
1121.02241000
20
951.44164000
30
0.0
0
VERTEX
8
0
10
1120.98393000
20
951.46958000
30
0.0
0
VERTEX
8
0
10
1120.94494000
20
951.49680000
30
0.0
0
VERTEX
8
0
10
1120.90545000
20
951.52330000
30
0.0
0
VERTEX
8
0
10
1120.86547000
20
951.54905000
30
0.0
0
VERTEX
8
0
10
1120.82503000
20
951.57405000
30
0.0
0
VERTEX
8
0
10
1120.78412000
20
951.59830000
30
0.0
0
VERTEX
8
0
10
1120.74277000
20
951.62179000
30
0.0
0
VERTEX
8
0
10
1120.70100000
20
951.64450000
30
0.0
0
VERTEX
8
0
10
1120.65880000
20
951.66643000
30
0.0
0
VERTEX
8
0
10
1120.61621000
20
951.68757000
30
0.0
0
VERTEX
8
0
10
1120.57323000
20
951.70792000
30
0.0
0
VERTEX
8
0
10
1120.52988000
20
951.72747000
30
0.0
0
VERTEX
8
0
10
1120.48618000
20
951.74620000
30
0.0
0
VERTEX
8
0
10
1120.44213000
20
951.76412000
30
0.0
0
VERTEX
8
0
10
1120.39776000
20
951.78122000
30
0.0
0
VERTEX
8
0
10
1120.35307000
20
951.79749000
30
0.0
0
VERTEX
8
0
10
1120.30810000
20
951.81292000
30
0.0
0
VERTEX
8
0
10
1120.26284000
20
951.82752000
30
0.0
0
VERTEX
8
0
10
1120.21732000
20
951.84128000
30
0.0
0
VERTEX
8
0
10
1120.17155000
20
951.85418000
30
0.0
0
VERTEX
8
0
10
1120.12555000
20
951.86623000
30
0.0
0
VERTEX
8
0
10
1120.07934000
20
951.87743000
30
0.0
0
VERTEX
8
0
10
1120.03292000
20
951.88776000
30
0.0
0
VERTEX
8
0
10
1119.98632000
20
951.89723000
30
0.0
0
VERTEX
8
0
10
1119.93955000
20
951.90583000
30
0.0
0
VERTEX
8
0
10
1119.89263000
20
951.91356000
30
0.0
0
VERTEX
8
0
10
1119.84558000
20
951.92041000
30
0.0
0
VERTEX
8
0
10
1119.79840000
20
951.92639000
30
0.0
0
VERTEX
8
0
10
1119.75112000
20
951.93149000
30
0.0
0
VERTEX
8
0
10
1119.70376000
20
951.93572000
30
0.0
0
VERTEX
8
0
10
1119.65633000
20
951.93906000
30
0.0
0
VERTEX
8
0
10
1119.60884000
20
951.94152000
30
0.0
0
VERTEX
8
0
10
1119.56131000
20
951.94309000
30
0.0
0
VERTEX
8
0
10
1119.51376000
20
951.94378000
30
0.0
0
VERTEX
8
0
10
1119.46621000
20
951.94359000
30
0.0
0
VERTEX
8
0
10
1119.41867000
20
951.94251000
30
0.0
0
VERTEX
8
0
10
1119.37116000
20
951.94055000
30
0.0
0
VERTEX
8
0
10
1119.32369000
20
951.93771000
30
0.0
0
VERTEX
8
0
10
1119.27629000
20
951.93398000
30
0.0
0
VERTEX
8
0
10
1119.22896000
20
951.92937000
30
0.0
0
VERTEX
8
0
10
1119.18172000
20
951.92389000
30
0.0
0
VERTEX
8
0
10
1119.13460000
20
951.91752000
30
0.0
0
VERTEX
8
0
10
1119.08760000
20
951.91029000
30
0.0
0
VERTEX
8
0
10
1119.04074000
20
951.90218000
30
0.0
0
VERTEX
8
0
10
1118.99405000
20
951.89320000
30
0.0
0
VERTEX
8
0
10
1118.94753000
20
951.88335000
30
0.0
0
VERTEX
8
0
10
1118.90119000
20
951.87264000
30
0.0
0
VERTEX
8
0
10
1118.85507000
20
951.86107000
30
0.0
0
VERTEX
8
0
10
1118.80917000
20
951.84864000
30
0.0
0
VERTEX
8
0
10
1118.76351000
20
951.83537000
30
0.0
0
VERTEX
8
0
10
1118.71810000
20
951.82124000
30
0.0
0
VERTEX
8
0
10
1118.67297000
20
951.80628000
30
0.0
0
VERTEX
8
0
10
1118.62812000
20
951.79048000
30
0.0
0
VERTEX
8
0
10
1118.58357000
20
951.77385000
30
0.0
0
VERTEX
8
0
10
1118.53934000
20
951.75639000
30
0.0
0
VERTEX
8
0
10
1118.49544000
20
951.73811000
30
0.0
0
VERTEX
8
0
10
1118.45188000
20
951.71902000
30
0.0
0
VERTEX
8
0
10
1118.40869000
20
951.69913000
30
0.0
0
VERTEX
8
0
10
1118.36588000
20
951.67843000
30
0.0
0
VERTEX
8
0
10
1118.32346000
20
951.65694000
30
0.0
0
VERTEX
8
0
10
1118.28145000
20
951.63467000
30
0.0
0
VERTEX
8
0
10
1118.23986000
20
951.61162000
30
0.0
0
VERTEX
8
0
10
1118.19870000
20
951.58780000
30
0.0
0
VERTEX
8
0
10
1118.15799000
20
951.56322000
30
0.0
0
VERTEX
8
0
10
1118.11775000
20
951.53788000
30
0.0
0
VERTEX
8
0
10
1118.07799000
20
951.51181000
30
0.0
0
VERTEX
8
0
10
1118.03871000
20
951.48499000
30
0.0
0
VERTEX
8
0
10
1117.99995000
20
951.45746000
30
0.0
0
VERTEX
8
0
10
1117.96170000
20
951.42920000
30
0.0
0
VERTEX
8
0
10
1117.92398000
20
951.40024000
30
0.0
0
VERTEX
8
0
10
1117.88681000
20
951.37059000
30
0.0
0
VERTEX
8
0
10
1117.85020000
20
951.34025000
30
0.0
0
VERTEX
8
0
10
1117.81415000
20
951.30923000
30
0.0
0
VERTEX
8
0
10
1117.77869000
20
951.27755000
30
0.0
0
VERTEX
8
0
10
1117.74383000
20
951.24521000
30
0.0
0
VERTEX
8
0
10
1117.70957000
20
951.21223000
30
0.0
0
VERTEX
8
0
10
1117.67593000
20
951.17862000
30
0.0
0
VERTEX
8
0
10
1117.64292000
20
951.14439000
30
0.0
0
VERTEX
8
0
10
1117.61055000
20
951.10956000
30
0.0
0
VERTEX
8
0
10
1117.57884000
20
951.07412000
30
0.0
0
VERTEX
8
0
10
1117.54779000
20
951.03811000
30
0.0
0
VERTEX
8
0
10
1117.51742000
20
951.00152000
30
0.0
0
VERTEX
8
0
10
1117.48773000
20
950.96437000
30
0.0
0
VERTEX
8
0
10
1117.45873000
20
950.92668000
30
0.0
0
VERTEX
8
0
10
1117.43045000
20
950.88846000
30
0.0
0
VERTEX
8
0
10
1117.40288000
20
950.84972000
30
0.0
0
VERTEX
8
0
10
1117.37603000
20
950.81047000
30
0.0
0
VERTEX
8
0
10
1117.34992000
20
950.77073000
30
0.0
0
VERTEX
8
0
10
1117.32455000
20
950.73051000
30
0.0
0
VERTEX
8
0
10
1117.29993000
20
950.68982000
30
0.0
0
VERTEX
8
0
10
1117.27607000
20
950.64869000
30
0.0
0
VERTEX
8
0
10
1117.25299000
20
950.60711000
30
0.0
0
VERTEX
8
0
10
1117.23068000
20
950.56512000
30
0.0
0
VERTEX
8
0
10
1117.20915000
20
950.52272000
30
0.0
0
VERTEX
8
0
10
1117.18842000
20
950.47992000
30
0.0
0
VERTEX
8
0
10
1117.16848000
20
950.43675000
30
0.0
0
VERTEX
8
0
10
1117.14935000
20
950.39322000
30
0.0
0
VERTEX
8
0
10
1117.13104000
20
950.34933000
30
0.0
0
VERTEX
8
0
10
1117.11354000
20
950.30512000
30
0.0
0
VERTEX
8
0
10
1117.09687000
20
950.26058000
30
0.0
0
VERTEX
8
0
10
1117.08103000
20
950.21575000
30
0.0
0
VERTEX
8
0
10
1117.06602000
20
950.17062000
30
0.0
0
VERTEX
8
0
10
1117.05186000
20
950.12523000
30
0.0
0
VERTEX
8
0
10
1117.03855000
20
950.07958000
30
0.0
0
VERTEX
8
0
10
1117.02608000
20
950.03369000
30
0.0
0
VERTEX
8
0
10
1117.01447000
20
949.98758000
30
0.0
0
VERTEX
8
0
10
1117.00372000
20
949.94126000
30
0.0
0
VERTEX
8
0
10
1116.99383000
20
949.89474000
30
0.0
0
VERTEX
8
0
10
1116.98481000
20
949.84806000
30
0.0
0
VERTEX
8
0
10
1116.97666000
20
949.80121000
30
0.0
0
VERTEX
8
0
10
1116.96938000
20
949.75421000
30
0.0
0
VERTEX
8
0
10
1116.96297000
20
949.70710000
30
0.0
0
VERTEX
8
0
10
1116.95745000
20
949.65987000
30
0.0
0
VERTEX
8
0
10
1116.95280000
20
949.61254000
30
0.0
0
VERTEX
8
0
10
1116.94903000
20
949.56514000
30
0.0
0
VERTEX
8
0
10
1116.94614000
20
949.51767000
30
0.0
0
VERTEX
8
0
10
1116.94414000
20
949.47016000
30
0.0
0
SEQEND
8
0
0
POLYLINE
8
0
66
1
70
1
10
0.0
20
0.0
30
0.0
1001
CGISCE_GIS_2000
1000
1119879786
0
VERTEX
8
0
10
1121.08648000
20
977.60913000
30
0.0
0
VERTEX
8
0
10
1122.76528000
20
979.41306000
30
0.0
0
VERTEX
8
0
10
1123.13880000
20
979.13443000
30
0.0
0
VERTEX
8
0
10
1123.18424000
20
978.92407000
30
0.0
0
VERTEX
8
0
10
1121.31362000
20
976.78216000
30
0.0
0
VERTEX
8
0
10
1121.17401000
20
976.86685000
30
0.0
0
SEQEND
8
0
0
POLYLINE
8
0
66
1
70
1
10
0.0
20
0.0
30
0.0
1001
CGISCE_GIS_2000
1000
1119879787
0
VERTEX
8
0
10
1126.06607000
20
984.43607000
30
0.0
0
VERTEX
8
0
10
1126.85614000
20
985.00600000
30
0.0
0
VERTEX
8
0
10
1135.47143000
20
978.56230000
30
0.0
0
VERTEX
8
0
10
1134.93058000
20
977.81395000
30
0.0
0
VERTEX
8
0
10
1130.28820000
20
972.39481000
30
0.0
0
VERTEX
8
0
10
1129.77905000
20
972.44419000
30
0.0
0
VERTEX
8
0
10
1129.65302000
20
972.54180000
30
0.0
0
VERTEX
8
0
10
1134.38713000
20
978.19635000
30
0.0
0
VERTEX
8
0
10
1132.89923000
20
979.35889000
30
0.0
0
VERTEX
8
0
10
1132.58940000
20
978.97538000
30
0.0
0
VERTEX
8
0
10
1131.91255000
20
979.39507000
30
0.0
0
VERTEX
8
0
10
1132.24362000
20
979.79705000
30
0.0
0
VERTEX
8
0
10
1132.27087000
20
979.83020000
30
0.0
0
VERTEX
8
0
10
1129.40815000
20
981.96263000
30
0.0
0
VERTEX
8
0
10
1128.84418000
20
981.40420000
30
0.0
0
VERTEX
8
0
10
1128.24680000
20
981.84204000
30
0.0
0
VERTEX
8
0
10
1128.66622000
20
982.42747000
30
0.0
0
SEQEND
8
0
0
POINT
8
PNTS
10
1074.29300000
20
1017.99300000
30
21.49720000
0
POINT
8
PNTS
10
1082.54050000
20
989.91500000
30
21.52940000
0
ENDSEC
0
EOF
