0
SECTION
2
HEADER
9
$ACADVER
1
AC1009
9
$CLAYER
8
0
0
ENDSEC
0
SECTION
2
TABLES
0
TABLE
2
LTYPE
70
8
0
LTYPE
2
CONTINUOUS
70
0
3
Solid line
72
65
73
0
40
0.0
0
LTYPE
2
DASHED
70
0
3
__ __ __ __ __ __ __ __ __ __ __ __ __ __ __ __
72
65
73
2
40
0.75
49
0.5
49
-0.25
0
LTYPE
2
CENTER2
70
0
3
____ _ ____ _ ____ _ ____ _ ____ _ ____ _ ____ 
72
65
73
4
40
2.0
49
1.25
49
-0.25
49
0.25
49
-0.25
0
ENDTAB
0
TABLE
2
LAYER
70
11
0
LAYER
2
0
70
0
62
7
6
CONTINUOUS
0
LAYER
2
DISTXT
70
0
62
7
6
CONTINUOUS
0
LAYER
2
EXISTING
70
0
62
2
6
DASHED
0
LAYER
2
FINAL
70
0
62
1
6
CONTINUOUS
0
LAYER
2
PNTDESC
70
1
62
3
6
CONTINUOUS
0
LAYER
2
PNTELEV
70
1
62
5
6
CONTINUOUS
0
LAYER
2
PNTMARK
70
0
62
1
6
CONTINUOUS
0
LAYER
2
PNTNO
70
0
62
7
6
CONTINUOUS
0
LAYER
2
PNTS
70
0
62
1
6
CONTINUOUS
0
ENDTAB
0
TABLE
2
APPID
70
8
0
APPID
2
CGISCE_GIS_2000
70
0
0
APPID
2
CGISCE_F2F_2000
70
0
0
ENDTAB
0
ENDSEC
0
SECTION
2
ENTITIES
0
POLYLINE
8
0
66
1
70
1
10
0.0
20
0.0
30
0.0
1001
CGISCE_GIS_2000
1000
1119876345
0
VERTEX
8
0
10
1079.9998599999999000
20
983.1502799999998400
30
0.0
0
VERTEX
8
0
10
1082.7101700000003000
20
986.4804499999991100
30
0.0
0
VERTEX
8
0
10
1082.5529000000006000
20
986.6570699999992900
30
0.0
0
VERTEX
8
0
10
1082.9442400000007000
20
987.0268300000007000
30
0.0
0
VERTEX
8
0
10
1083.2622200000005000
20
986.7377799999994700
30
0.0
0
VERTEX
8
0
10
1083.9563300000009000
20
987.5266300000003000
30
0.0
0
VERTEX
8
0
10
1084.6520799999998000
20
987.9823699999997200
30
0.0
0
VERTEX
8
0
10
1084.9050200000001000
20
987.8974300000009000
30
0.0
0
VERTEX
8
0
10
1083.7011100000000000
20
986.5064099999999600
30
0.0
0
VERTEX
8
0
10
1083.5822200000002000
20
986.4467700000004700
30
0.0
0
VERTEX
8
0
10
1084.7896899999996000
20
985.3490600000004600
30
0.0
0
VERTEX
8
0
10
1086.9678999999996000
20
987.6599200000000600
30
0.0
0
VERTEX
8
0
10
1085.6818500000008000
20
988.6844099999998400
30
0.0
0
VERTEX
8
0
10
1085.4539600000007000
20
988.4393500000005600
30
0.0
0
VERTEX
8
0
10
1085.2117099999996000
20
988.5936000000001500
30
0.0
0
VERTEX
8
0
10
1085.3071899999995000
20
988.8630300000004400
30
0.0
0
VERTEX
8
0
10
1085.7395400000005000
20
989.2972100000006300
30
0.0
0
VERTEX
8
0
10
1086.2632099999992000
20
988.9214400000000800
30
0.0
0
VERTEX
8
0
10
1087.8584699999992000
20
987.6447000000007400
30
0.0
0
VERTEX
8
0
10
1089.0989699999991000
20
986.4955499999996400
30
0.0
0
VERTEX
8
0
10
1091.2155600000006000
20
984.7094600000000400
30
0.0
0
VERTEX
8
0
10
1093.4903500000000000
20
982.9046899999993900
30
0.0
0
VERTEX
8
0
10
1093.4851799999997000
20
982.8270699999993700
30
0.0
0
VERTEX
8
0
10
1095.6919799999996000
20
981.0766000000003300
30
0.0
0
VERTEX
8
0
10
1096.3739299999997000
20
981.9353100000007500
30
0.0
0
VERTEX
8
0
10
1096.7343500000006000
20
982.3241899999993600
30
0.0
0
VERTEX
8
0
10
1098.9071600000007000
20
984.7575500000002600
30
0.0
0
VERTEX
8
0
10
1099.1636099999996000
20
984.8691899999994300
30
0.0
0
VERTEX
8
0
10
1099.5415200000007000
20
984.6273700000001600
30
0.0
0
VERTEX
8
0
10
1097.0659199999991000
20
981.8314800000007400
30
0.0
0
VERTEX
8
0
10
1099.8211599999995000
20
979.6934999999994000
30
0.0
0
VERTEX
8
0
10
1099.3964799999994000
20
979.1544500000000000
30
0.0
0
VERTEX
8
0
10
1098.8427599999995000
20
978.3454199999996500
30
0.0
0
VERTEX
8
0
10
1097.4819000000007000
20
976.7341400000004800
30
0.0
0
VERTEX
8
0
10
1096.8510499999993000
20
977.2860000000000600
30
0.0
0
VERTEX
8
0
10
1097.7919600000005000
20
978.3048400000006900
30
0.0
0
VERTEX
8
0
10
1093.5421000000006000
20
981.8988599999993300
30
0.0
0
VERTEX
8
0
10
1092.7433500000006000
20
980.8438299999998000
30
0.0
0
VERTEX
8
0
10
1092.2302999999993000
20
981.2122899999994800
30
0.0
0
VERTEX
8
0
10
1093.1505400000005000
20
982.3964400000004400
30
0.0
0
VERTEX
8
0
10
1091.5640100000001000
20
983.6613899999993000
30
0.0
0
VERTEX
8
0
10
1089.2803199999998000
20
981.2664000000004300
30
0.0
0
VERTEX
8
0
10
1089.7355900000002000
20
980.8524600000000600
30
0.0
0
VERTEX
8
0
10
1087.7201800000003000
20
977.9691600000005600
30
0.0
0
VERTEX
8
0
10
1087.6110100000005000
20
977.9381699999994500
30
0.0
0
VERTEX
8
0
10
1088.8635300000005000
20
977.1341799999991100
30
0.0
0
VERTEX
8
0
10
1091.5783100000008000
20
980.3711399999992900
30
0.0
0
VERTEX
8
0
10
1092.0384699999995000
20
979.9163800000005700
30
0.0
0
VERTEX
8
0
10
1089.3405899999998000
20
976.6826999999993900
30
0.0
0
VERTEX
8
0
10
1093.6848300000001000
20
973.2232000000003600
30
0.0
0
VERTEX
8
0
10
1096.0193700000000000
20
976.2209800000000500
30
0.0
0
VERTEX
8
0
10
1096.5792600000004000
20
975.7095900000003900
30
0.0
0
VERTEX
8
0
10
1093.6947000000000000
20
972.1276400000006100
30
0.0
0
VERTEX
8
0
10
1092.6028900000001000
20
970.2880600000007700
30
0.0
0
VERTEX
8
0
10
1091.6887399999996000
20
970.9186499999996200
30
0.0
0
VERTEX
8
0
10
1093.0364300000001000
20
972.6859800000002000
30
0.0
0
VERTEX
8
0
10
1086.9253700000008000
20
977.5444100000004300
30
0.0
0
VERTEX
8
0
10
1085.3316099999993000
20
975.6067999999995700
30
0.0
0
VERTEX
8
0
10
1084.8031599999995000
20
975.9565000000002300
30
0.0
0
VERTEX
8
0
10
1085.9521399999994000
20
977.5568700000003400
30
0.0
0
VERTEX
8
0
10
1084.6912499999999000
20
978.7798600000005500
30
0.0
0
VERTEX
8
0
10
1085.1627499999995000
20
979.2742099999995800
30
0.0
0
VERTEX
8
0
10
1086.2678799999994000
20
978.2685099999998800
30
0.0
0
VERTEX
8
0
10
1086.4210500000008000
20
978.4373899999991400
30
0.0
0
VERTEX
8
0
10
1086.8213500000002000
20
978.1867099999999500
30
0.0
0
VERTEX
8
0
10
1087.0012499999993000
20
978.3295899999993700
30
0.0
0
VERTEX
8
0
10
1087.0774500000007000
20
978.2806999999993400
30
0.0
0
VERTEX
8
0
10
1088.8545599999998000
20
980.8039399999997800
30
0.0
0
VERTEX
8
0
10
1083.2113599999993000
20
985.8773500000006600
30
0.0
0
VERTEX
8
0
10
1080.7982300000003000
20
983.2211000000006600
30
0.0
0
VERTEX
8
0
10
1084.4691500000008000
20
979.7618299999994600
30
0.0
0
VERTEX
8
0
10
1084.1307899999993000
20
979.3400600000004500
30
0.0
0
SEQEND
8
0
0
POLYLINE
8
0
66
1
70
1
10
0.0
20
0.0
30
0.0
1001
CGISCE_GIS_2000
1000
1119876346
0
VERTEX
8
0
10
1087.4700099999991000
20
987.1716400000004800
30
0.0
0
VERTEX
8
0
10
1085.3391100000008000
20
984.8495199999997600
30
0.0
0
VERTEX
8
0
10
1088.8262900000009000
20
981.6791599999996800
30
0.0
0
VERTEX
8
0
10
1091.0942799999993000
20
984.0707399999992000
30
0.0
0
SEQEND
8
0
0
POLYLINE
8
0
66
1
70
1
10
0.0
20
0.0
30
0.0
1001
CGISCE_GIS_2000
1000
1119876347
0
VERTEX
8
0
10
1084.4250699999993000
20
995.7639500000004800
30
0.0
0
VERTEX
8
0
10
1084.7497199999998000
20
996.1799599999994800
30
0.0
0
VERTEX
8
0
10
1084.9564699999992000
20
996.0655200000001100
30
0.0
0
VERTEX
8
0
10
1086.7480699999996000
20
998.5814499999996800
30
0.0
0
VERTEX
8
0
10
1089.0442999999996000
20
996.9398700000001600
30
0.0
0
VERTEX
8
0
10
1090.4179499999991000
20
998.9414400000005100
30
0.0
0
VERTEX
8
0
10
1091.5274800000007000
20
997.9638099999992800
30
0.0
0
VERTEX
8
0
10
1091.5186799999992000
20
997.9494400000003200
30
0.0
0
VERTEX
8
0
10
1093.0332600000002000
20
996.8315099999999800
30
0.0
0
VERTEX
8
0
10
1094.1199600000000000
20
998.1731500000005300
30
0.0
0
VERTEX
8
0
10
1091.2963400000008000
20
1000.6214199999995000
30
0.0
0
VERTEX
8
0
10
1090.5150900000008000
20
999.8069599999998900
30
0.0
0
VERTEX
8
0
10
1088.7937099999999000
20
1001.4635799999996000
30
0.0
0
VERTEX
8
0
10
1089.4080400000003000
20
1002.2587399999993000
30
0.0
0
VERTEX
8
0
10
1089.7553800000005000
20
1002.7232899999999000
30
0.0
0
VERTEX
8
0
10
1094.6047699999999000
20
998.6142199999994800
30
0.0
0
VERTEX
8
0
10
1097.5060599999997000
20
1002.1182399999998000
30
0.0
0
VERTEX
8
0
10
1092.5489099999995000
20
1005.4212599999992000
30
0.0
0
VERTEX
8
0
10
1092.9066800000001000
20
1005.9460400000007000
30
0.0
0
VERTEX
8
0
10
1098.0990899999997000
20
1002.8344899999993000
30
0.0
0
VERTEX
8
0
10
1099.8673500000004000
20
1001.5865400000002000
30
0.0
0
VERTEX
8
0
10
1099.2872000000007000
20
1000.8227900000002000
30
0.0
0
VERTEX
8
0
10
1098.0017000000007000
20
1001.5915700000005000
30
0.0
0
VERTEX
8
0
10
1095.0656999999992000
20
998.2569000000003100
30
0.0
0
VERTEX
8
0
10
1096.2740099999992000
20
997.1775600000000800
30
0.0
0
VERTEX
8
0
10
1095.7827199999992000
20
996.6961800000008200
30
0.0
0
VERTEX
8
0
10
1094.5330900000008000
20
997.7105900000005900
30
0.0
0
VERTEX
8
0
10
1093.4421800000000000
20
996.5315300000002000
30
0.0
0
VERTEX
8
0
10
1094.4366599999994000
20
995.7486700000008600
30
0.0
0
VERTEX
8
0
10
1092.8308799999995000
20
993.8467799999998500
30
0.0
0
VERTEX
8
0
10
1092.3640200000009000
20
994.2547900000008700
30
0.0
0
VERTEX
8
0
10
1093.4668399999991000
20
995.6629799999991500
30
0.0
0
VERTEX
8
0
10
1091.1744199999994000
20
997.3924599999991200
30
0.0
0
VERTEX
8
0
10
1091.1833700000007000
20
997.4071700000004100
30
0.0
0
VERTEX
8
0
10
1090.6592999999993000
20
997.8832999999995100
30
0.0
0
VERTEX
8
0
10
1089.2328699999998000
20
995.8285799999994200
30
0.0
0
VERTEX
8
0
10
1086.6099300000005000
20
997.5699199999999100
30
0.0
0
VERTEX
8
0
10
1085.3378499999999000
20
995.7723499999992800
30
0.0
0
VERTEX
8
0
10
1087.1735300000000000
20
994.2174200000008600
30
0.0
0
VERTEX
8
0
10
1088.3570299999992000
20
995.8822500000005700
30
0.0
0
VERTEX
8
0
10
1088.9669699999995000
20
995.4380799999999000
30
0.0
0
VERTEX
8
0
10
1087.7676300000003000
20
993.7630599999993100
30
0.0
0
VERTEX
8
0
10
1090.2993399999996000
20
991.7651700000005800
30
0.0
0
VERTEX
8
0
10
1091.7074799999991000
20
993.5139999999992100
30
0.0
0
VERTEX
8
0
10
1092.3192199999994000
20
993.0514199999997800
30
0.0
0
VERTEX
8
0
10
1090.8795800000007000
20
991.2859300000000100
30
0.0
0
VERTEX
8
0
10
1092.1316399999996000
20
990.3101399999995900
30
0.0
0
VERTEX
8
0
10
1097.1306299999997000
20
996.5396199999995600
30
0.0
0
VERTEX
8
0
10
1097.3586500000001000
20
996.4343700000008500
30
0.0
0
VERTEX
8
0
10
1097.5063900000005000
20
996.3108499999998500
30
0.0
0
VERTEX
8
0
10
1099.2179400000005000
20
998.4687900000008100
30
0.0
0
VERTEX
8
0
10
1099.6044800000000000
20
998.0915499999991900
30
0.0
0
VERTEX
8
0
10
1097.9930899999999000
20
995.9039100000009100
30
0.0
0
VERTEX
8
0
10
1099.4829000000009000
20
994.6582600000001500
30
0.0
0
VERTEX
8
0
10
1102.4379200000003000
20
998.3703900000000400
30
0.0
0
VERTEX
8
0
10
1100.7469799999999000
20
999.6602899999998000
30
0.0
0
VERTEX
8
0
10
1100.0187900000001000
20
998.7050199999994200
30
0.0
0
VERTEX
8
0
10
1099.6028299999998000
20
998.9738600000000600
30
0.0
0
VERTEX
8
0
10
1100.4249500000005000
20
1000.0392200000006000
30
0.0
0
VERTEX
8
0
10
1099.8196800000005000
20
1000.5506299999997000
30
0.0
0
VERTEX
8
0
10
1100.2668599999997000
20
1001.1434000000008000
30
0.0
0
VERTEX
8
0
10
1105.2945500000005000
20
997.3585700000003300
30
0.0
0
VERTEX
8
0
10
1104.9653899999994000
20
996.7795999999998500
30
0.0
0
VERTEX
8
0
10
1103.1250199999995000
20
998.0225499999996800
30
0.0
0
VERTEX
8
0
10
1100.1038800000006000
20
994.1390200000005300
30
0.0
0
VERTEX
8
0
10
1100.6929799999998000
20
993.6464099999993800
30
0.0
0
VERTEX
8
0
10
1101.5774999999994000
20
993.0315900000005100
30
0.0
0
VERTEX
8
0
10
1103.4643300000007000
20
991.4793599999993600
30
0.0
0
VERTEX
8
0
10
1106.6804300000003000
20
995.5019699999993500
30
0.0
0
VERTEX
8
0
10
1105.9107299999996000
20
996.0965899999992000
30
0.0
0
VERTEX
8
0
10
1106.3275400000002000
20
996.5715899999995600
30
0.0
0
VERTEX
8
0
10
1110.7470200000007000
20
993.0564599999997900
30
0.0
0
VERTEX
8
0
10
1106.8465400000005000
20
987.8495700000003100
30
0.0
0
VERTEX
8
0
10
1105.4818799999994000
20
989.0728899999994600
30
0.0
0
VERTEX
8
0
10
1105.8538800000006000
20
989.5739099999991600
30
0.0
0
VERTEX
8
0
10
1106.6718899999996000
20
988.9607300000006900
30
0.0
0
VERTEX
8
0
10
1109.7835599999999000
20
993.0775799999992200
30
0.0
0
VERTEX
8
0
10
1107.3930799999998000
20
994.8709999999991900
30
0.0
0
VERTEX
8
0
10
1104.0066499999994000
20
991.0216199999995300
30
0.0
0
VERTEX
8
0
10
1105.0937200000008000
20
990.2128599999996400
30
0.0
0
VERTEX
8
0
10
1104.7089599999999000
20
989.6031600000005700
30
0.0
0
VERTEX
8
0
10
1103.5687199999993000
20
990.4671600000001500
30
0.0
0
VERTEX
8
0
10
1100.4339600000003000
20
986.4935999999997900
30
0.0
0
VERTEX
8
0
10
1103.2079799999992000
20
984.5014800000008100
30
0.0
0
VERTEX
8
0
10
1105.0680599999996000
20
986.9094900000000100
30
0.0
0
VERTEX
8
0
10
1105.5818299999992000
20
986.4181200000002700
30
0.0
0
VERTEX
8
0
10
1102.1925499999998000
20
982.4046799999996400
30
0.0
0
VERTEX
8
0
10
1101.5786000000007000
20
982.7557500000002600
30
0.0
0
VERTEX
8
0
10
1101.6485900000007000
20
982.8875499999994600
30
0.0
0
VERTEX
8
0
10
1101.3311599999997000
20
983.1391000000003300
30
0.0
0
VERTEX
8
0
10
1101.4910700000000000
20
983.2901399999991600
30
0.0
0
VERTEX
8
0
10
1101.7489600000008000
20
983.5594099999998400
30
0.0
0
VERTEX
8
0
10
1101.8663199999992000
20
983.7902099999992100
30
0.0
0
VERTEX
8
0
10
1101.8946099999994000
20
984.0376099999994000
30
0.0
0
VERTEX
8
0
10
1101.8408799999997000
20
984.2765899999994900
30
0.0
0
VERTEX
8
0
10
1101.7216499999995000
20
984.4789999999993600
30
0.0
0
VERTEX
8
0
10
1101.5524999999998000
20
984.6548800000000500
30
0.0
0
VERTEX
8
0
10
1101.4100799999997000
20
984.7776099999991900
30
0.0
0
VERTEX
8
0
10
1101.2774300000001000
20
984.8879899999992600
30
0.0
0
VERTEX
8
0
10
1101.1391800000001000
20
984.9729299999999100
30
0.0
0
VERTEX
8
0
10
1100.9640199999994000
20
985.0157899999994700
30
0.0
0
VERTEX
8
0
10
1100.7170000000006000
20
985.0250799999994300
30
0.0
0
VERTEX
8
0
10
1100.5400800000007000
20
985.0141000000003300
30
0.0
0
VERTEX
8
0
10
1100.3835700000000000
20
984.9499300000006800
30
0.0
0
VERTEX
8
0
10
1100.1849299999994000
20
984.8261000000002200
30
0.0
0
VERTEX
8
0
10
1099.9100899999994000
20
985.4375999999992900
30
0.0
0
VERTEX
8
0
10
1100.0729699999993000
20
985.4943000000002900
30
0.0
0
VERTEX
8
0
10
1100.2571700000008000
20
985.5376300000007200
30
0.0
0
VERTEX
8
0
10
1100.3927600000006000
20
985.5691499999993500
30
0.0
0
VERTEX
8
0
10
1100.5444399999997000
20
985.5843299999996800
30
0.0
0
VERTEX
8
0
10
1099.4362600000004000
20
986.3423500000008100
30
0.0
0
VERTEX
8
0
10
1100.4405700000007000
20
987.8187300000008700
30
0.0
0
VERTEX
8
0
10
1097.1210800000008000
20
990.1183899999996400
30
0.0
0
VERTEX
8
0
10
1097.5087299999996000
20
990.6950199999992000
30
0.0
0
VERTEX
8
0
10
1094.8841900000007000
20
992.7029099999999700
30
0.0
0
VERTEX
8
0
10
1092.2435100000002000
20
989.4644100000005000
30
0.0
0
VERTEX
8
0
10
1088.2868899999994000
20
992.5779299999994700
30
0.0
0
VERTEX
8
0
10
1085.7774800000007000
20
989.7824700000001000
30
0.0
0
VERTEX
8
0
10
1085.5789499999992000
20
989.9708399999999500
30
0.0
0
VERTEX
8
0
10
1087.7219800000003000
20
993.0224699999998800
30
0.0
0
VERTEX
8
0
10
1087.3894299999993000
20
993.2841499999995000
30
0.0
0
SEQEND
8
0
0
POLYLINE
8
0
66
1
70
1
10
0.0
20
0.0
30
0.0
1001
CGISCE_GIS_2000
1000
1119876348
0
VERTEX
8
0
10
1097.1242099999999000
20
995.7213200000005600
30
0.0
0
VERTEX
8
0
10
1095.3396699999994000
20
993.4666600000000500
30
0.0
0
VERTEX
8
0
10
1098.0626400000001000
20
991.2807599999996500
30
0.0
0
VERTEX
8
0
10
1098.2957200000001000
20
991.6026199999996600
30
0.0
0
VERTEX
8
0
10
1098.9226899999994000
20
991.2482899999995400
30
0.0
0
VERTEX
8
0
10
1098.7526699999999000
20
990.9788700000008200
30
0.0
0
VERTEX
8
0
10
1100.0836099999997000
20
989.9397800000006100
30
0.0
0
VERTEX
8
0
10
1100.6114199999993000
20
989.5435899999993100
30
0.0
0
VERTEX
8
0
10
1101.2791199999992000
20
988.9858199999998800
30
0.0
0
VERTEX
8
0
10
1101.5319500000005000
20
988.7739199999996300
30
0.0
0
VERTEX
8
0
10
1103.1280800000004000
20
990.9959400000007000
30
0.0
0
VERTEX
8
0
10
1101.1326100000006000
20
992.3764699999992400
30
0.0
0
VERTEX
8
0
10
1100.1814400000003000
20
993.0462200000001800
30
0.0
0
VERTEX
8
0
10
1099.2676599999995000
20
991.9739699999991000
30
0.0
0
VERTEX
8
0
10
1098.8446899999999000
20
992.3745600000002000
30
0.0
0
VERTEX
8
0
10
1099.7079799999992000
20
993.5061999999998100
30
0.0
0
SEQEND
8
0
0
POLYLINE
8
0
66
1
70
1
10
0.0
20
0.0
30
0.0
1001
CGISCE_GIS_2000
1000
1119876349
0
VERTEX
8
0
10
1098.9392900000003000
20
961.9344099999998400
30
0.0
0
VERTEX
8
0
10
1099.1724500000000000
20
962.3405299999994900
30
0.0
0
VERTEX
8
0
10
1100.5418100000006000
20
961.3729500000008600
30
0.0
0
VERTEX
8
0
10
1101.7846399999999000
20
963.1489999999994300
30
0.0
0
VERTEX
8
0
10
1102.0499700000000000
20
963.1559099999994900
30
0.0
0
VERTEX
8
0
10
1102.4259000000002000
20
963.6797999999998900
30
0.0
0
VERTEX
8
0
10
1106.2918200000004000
20
960.9176499999994100
30
0.0
0
VERTEX
8
0
10
1109.7301399999997000
20
958.2432700000008500
30
0.0
0
VERTEX
8
0
10
1111.9070100000008000
20
956.3577999999997700
30
0.0
0
VERTEX
8
0
10
1113.5572100000009000
20
958.6106700000000300
30
0.0
0
VERTEX
8
0
10
1105.0611399999998000
20
965.2495099999996500
30
0.0
0
VERTEX
8
0
10
1104.2149399999998000
20
964.2592000000004200
30
0.0
0
VERTEX
8
0
10
1103.1226900000001000
20
964.8616299999994200
30
0.0
0
VERTEX
8
0
10
1103.5980099999997000
20
965.4475999999995100
30
0.0
0
VERTEX
8
0
10
1107.2977800000008000
20
969.8255700000008800
30
0.0
0
VERTEX
8
0
10
1107.1529499999997000
20
969.8547500000004200
30
0.0
0
VERTEX
8
0
10
1103.3384399999995000
20
972.7639500000004800
30
0.0
0
VERTEX
8
0
10
1100.6088500000005000
20
969.5106599999999200
30
0.0
0
VERTEX
8
0
10
1100.0743199999997000
20
969.8945000000003300
30
0.0
0
VERTEX
8
0
10
1101.8747600000006000
20
972.1489700000001900
30
0.0
0
VERTEX
8
0
10
1103.3617699999995000
20
974.0093500000002700
30
0.0
0
VERTEX
8
0
10
1105.1654500000004000
20
976.3482199999998600
30
0.0
0
VERTEX
8
0
10
1107.5335099999993000
20
979.5231100000000900
30
0.0
0
VERTEX
8
0
10
1109.8005699999994000
20
982.5515599999998800
30
0.0
0
VERTEX
8
0
10
1110.3431099999998000
20
982.2119399999992300
30
0.0
0
VERTEX
8
0
10
1114.6344599999993000
20
979.2677999999996200
30
0.0
0
VERTEX
8
0
10
1114.4272500000006000
20
979.4099700000006100
30
0.0
0
VERTEX
8
0
10
1114.7888700000003000
20
979.8362300000008000
30
0.0
0
VERTEX
8
0
10
1117.9153200000001000
20
977.5429700000004200
30
0.0
0
VERTEX
8
0
10
1122.6056000000008000
20
973.9383400000006100
30
0.0
0
VERTEX
8
0
10
1123.2884900000008000
20
973.3970300000000900
30
0.0
0
VERTEX
8
0
10
1124.3760500000008000
20
974.8785900000002600
30
0.0
0
VERTEX
8
0
10
1124.6276400000006000
20
974.6846200000000000
30
0.0
0
VERTEX
8
0
10
1124.4146400000009000
20
974.1680599999999700
30
0.0
0
VERTEX
8
0
10
1126.1548500000008000
20
972.8382799999999400
30
0.0
0
VERTEX
8
0
10
1125.5098899999994000
20
971.7291299999997100
30
0.0
0
VERTEX
8
0
10
1132.1280900000002000
20
966.6523099999994900
30
0.0
0
VERTEX
8
0
10
1134.8868800000000000
20
964.5291699999997900
30
0.0
0
VERTEX
8
0
10
1136.3988900000004000
20
963.3653599999997800
30
0.0
0
VERTEX
8
0
10
1136.6219600000004000
20
963.6902900000004600
30
0.0
0
VERTEX
8
0
10
1143.1419399999995000
20
971.6860799999994900
30
0.0
0
VERTEX
8
0
10
1140.2055400000008000
20
973.8581900000008300
30
0.0
0
VERTEX
8
0
10
1139.8003399999998000
20
973.4028799999996400
30
0.0
0
VERTEX
8
0
10
1139.1471700000002000
20
973.9398899999996500
30
0.0
0
VERTEX
8
0
10
1139.4623200000005000
20
974.3805499999998600
30
0.0
0
VERTEX
8
0
10
1136.5507699999998000
20
976.5752699999993600
30
0.0
0
VERTEX
8
0
10
1136.2160600000007000
20
976.1433799999995200
30
0.0
0
VERTEX
8
0
10
1135.5784000000003000
20
976.6240099999995400
30
0.0
0
VERTEX
8
0
10
1135.5246700000007000
20
976.6550900000002000
30
0.0
0
VERTEX
8
0
10
1131.1740599999994000
20
971.5934899999992900
30
0.0
0
VERTEX
8
0
10
1130.7430299999996000
20
972.0039099999994500
30
0.0
0
VERTEX
8
0
10
1135.9651900000008000
20
978.1921800000000100
30
0.0
0
VERTEX
8
0
10
1141.0405200000005000
20
974.3754100000005600
30
0.0
0
VERTEX
8
0
10
1144.2654000000002000
20
978.1757099999995300
30
0.0
0
VERTEX
8
0
10
1143.6465300000000000
20
978.7247100000004100
30
0.0
0
VERTEX
8
0
10
1144.9734800000006000
20
980.3979600000002400
30
0.0
0
VERTEX
8
0
10
1146.0257999999994000
20
979.5567699999992300
30
0.0
0
VERTEX
8
0
10
1145.2546199999997000
20
978.5855800000008500
30
0.0
0
VERTEX
8
0
10
1145.7263999999996000
20
978.1874200000002000
30
0.0
0
VERTEX
8
0
10
1141.9950300000000000
20
973.6778400000002900
30
0.0
0
VERTEX
8
0
10
1144.3358200000002000
20
971.8406200000008500
30
0.0
0
VERTEX
8
0
10
1137.0407500000001000
20
962.8686199999992800
30
0.0
0
VERTEX
8
0
10
1138.1974100000007000
20
962.1924099999996500
30
0.0
0
VERTEX
8
0
10
1146.0796200000004000
20
971.8282999999992200
30
0.0
0
VERTEX
8
0
10
1146.2859499999995000
20
971.8212100000000600
30
0.0
0
VERTEX
8
0
10
1147.3857200000002000
20
973.3095900000007500
30
0.0
0
VERTEX
8
0
10
1147.9520900000007000
20
972.7719400000005400
30
0.0
0
VERTEX
8
0
10
1146.2936100000006000
20
970.6827799999991800
30
0.0
0
VERTEX
8
0
10
1147.0414700000001000
20
970.0730000000003200
30
0.0
0
VERTEX
8
0
10
1147.6894300000004000
20
969.6143800000008900
30
0.0
0
VERTEX
8
0
10
1147.8191599999991000
20
969.2906199999997600
30
0.0
0
VERTEX
8
0
10
1149.1144100000001000
20
967.8758799999996000
30
0.0
0
VERTEX
8
0
10
1151.0870099999993000
20
966.1374500000001700
30
0.0
0
VERTEX
8
0
10
1152.6262299999999000
20
967.6460000000006400
30
0.0
0
VERTEX
8
0
10
1153.6701900000007000
20
967.7366899999997300
30
0.0
0
VERTEX
8
0
10
1154.4589199999991000
20
966.9309099999991300
30
0.0
0
VERTEX
8
0
10
1151.7626000000000000
20
964.2203699999990900
30
0.0
0
VERTEX
8
0
10
1148.2115599999997000
20
966.6992900000004700
30
0.0
0
VERTEX
8
0
10
1146.9735400000009000
20
965.2100599999994300
30
0.0
0
VERTEX
8
0
10
1145.7043699999995000
20
963.5300399999996400
30
0.0
0
VERTEX
8
0
10
1145.0486700000001000
20
962.6239100000002500
30
0.0
0
VERTEX
8
0
10
1143.8171800000000000
20
960.9900400000005900
30
0.0
0
VERTEX
8
0
10
1143.1120699999992000
20
960.1290900000003600
30
0.0
0
VERTEX
8
0
10
1141.9495800000004000
20
958.5856999999996300
30
0.0
0
VERTEX
8
0
10
1140.7510199999997000
20
957.0452499999992100
30
0.0
0
VERTEX
8
0
10
1139.1739300000008000
20
955.0591499999991400
30
0.0
0
VERTEX
8
0
10
1137.9665999999997000
20
953.5655900000001600
30
0.0
0
VERTEX
8
0
10
1136.5764999999992000
20
951.7641100000000700
30
0.0
0
VERTEX
8
0
10
1134.8173900000002000
20
949.4580299999997800
30
0.0
0
VERTEX
8
0
10
1133.7488900000008000
20
948.1054600000006800
30
0.0
0
VERTEX
8
0
10
1132.3333800000000000
20
946.2963700000000200
30
0.0
0
VERTEX
8
0
10
1130.7469299999993000
20
944.2942999999995700
30
0.0
0
VERTEX
8
0
10
1128.7873000000000000
20
941.7574700000004700
30
0.0
0
VERTEX
8
0
10
1126.9885200000008000
20
939.4775399999998600
30
0.0
0
VERTEX
8
0
10
1123.4326999999994000
20
934.9454299999997600
30
0.0
0
VERTEX
8
0
10
1122.2031399999996000
20
935.7861099999991000
30
0.0
0
VERTEX
8
0
10
1122.1612200000000000
20
935.8248199999998200
30
0.0
0
VERTEX
8
0
10
1122.1007699999991000
20
936.0805999999993200
30
0.0
0
VERTEX
8
0
10
1121.8636299999998000
20
936.0321700000004100
30
0.0
0
VERTEX
8
0
10
1119.6449900000007000
20
937.8219100000005700
30
0.0
0
VERTEX
8
0
10
1117.7129499999992000
20
935.1843499999995400
30
0.0
0
VERTEX
8
0
10
1116.8130299999993000
20
935.0005000000001000
30
0.0
0
VERTEX
8
0
10
1117.3302600000006000
20
935.6897499999995500
30
0.0
0
VERTEX
8
0
10
1115.5307499999999000
20
936.9966199999998900
30
0.0
0
VERTEX
8
0
10
1115.4817600000006000
20
937.2900000000008700
30
0.0
0
VERTEX
8
0
10
1115.9479800000008000
20
937.9336199999997900
30
0.0
0
VERTEX
8
0
10
1116.8788000000004000
20
937.2921700000006200
30
0.0
0
VERTEX
8
0
10
1118.9688200000001000
20
940.0209699999995800
30
0.0
0
VERTEX
8
0
10
1121.1559600000001000
20
938.2929800000001700
30
0.0
0
VERTEX
8
0
10
1122.4579599999997000
20
940.0912800000005500
30
0.0
0
VERTEX
8
0
10
1123.1269499999999000
20
939.6838299999999400
30
0.0
0
VERTEX
8
0
10
1123.7414399999998000
20
940.5206099999995800
30
0.0
0
VERTEX
8
0
10
1123.1477099999993000
20
940.9878100000005400
30
0.0
0
VERTEX
8
0
10
1124.6205800000007000
20
942.9145000000007700
30
0.0
0
VERTEX
8
0
10
1122.6067700000003000
20
944.6129099999998300
30
0.0
0
VERTEX
8
0
10
1124.4715699999997000
20
947.0388500000008200
30
0.0
0
VERTEX
8
0
10
1125.8498999999993000
20
945.9082799999996500
30
0.0
0
VERTEX
8
0
10
1124.6727300000002000
20
944.3664200000002900
30
0.0
0
VERTEX
8
0
10
1127.2211900000002000
20
942.4234799999994700
30
0.0
0
VERTEX
8
0
10
1128.1371899999995000
20
943.7896299999993100
30
0.0
0
VERTEX
8
0
10
1129.7587999999996000
20
945.8107600000003000
30
0.0
0
VERTEX
8
0
10
1129.7434300000004000
20
945.8240600000008300
30
0.0
0
VERTEX
8
0
10
1129.1984200000006000
20
946.2304499999991100
30
0.0
0
VERTEX
8
0
10
1128.9666600000000000
20
946.3990599999997400
30
0.0
0
VERTEX
8
0
10
1128.6474699999999000
20
946.4782699999996100
30
0.0
0
VERTEX
8
0
10
1128.3984400000008000
20
946.6373100000000700
30
0.0
0
VERTEX
8
0
10
1128.2761499999997000
20
946.7317399999992600
30
0.0
0
VERTEX
8
0
10
1128.1594200000000000
20
946.9199599999992600
30
0.0
0
VERTEX
8
0
10
1127.9965200000006000
20
947.0761800000000200
30
0.0
0
VERTEX
8
0
10
1127.8319200000005000
20
947.3720400000002000
30
0.0
0
VERTEX
8
0
10
1127.1746700000003000
20
947.7835099999993000
30
0.0
0
VERTEX
8
0
10
1126.5172299999995000
20
946.8604099999993200
30
0.0
0
VERTEX
8
0
10
1125.0732000000007000
20
948.0244299999994800
30
0.0
0
VERTEX
8
0
10
1125.0297200000005000
20
948.1079300000001200
30
0.0
0
VERTEX
8
0
10
1125.7011100000000000
20
948.9530799999993200
30
0.0
0
VERTEX
8
0
10
1123.7825200000007000
20
950.4400399999995000
30
0.0
0
VERTEX
8
0
10
1122.1565200000005000
20
951.7436099999995300
30
0.0
0
VERTEX
8
0
10
1121.0206600000001000
20
952.6385699999991600
30
0.0
0
VERTEX
8
0
10
1120.6157399999993000
20
952.9548799999993200
30
0.0
0
VERTEX
8
0
10
1118.5758399999995000
20
954.4760100000003100
30
0.0
0
VERTEX
8
0
10
1114.7753499999999000
20
949.4626000000007500
30
0.0
0
VERTEX
8
0
10
1113.1542700000009000
20
947.8686199999992800
30
0.0
0
VERTEX
8
0
10
1112.4081800000004000
20
948.4254199999995800
30
0.0
0
VERTEX
8
0
10
1112.3910500000002000
20
948.4725400000006600
30
0.0
0
VERTEX
8
0
10
1115.6250400000008000
20
952.5415900000007200
30
0.0
0
VERTEX
8
0
10
1111.2221399999999000
20
955.8096299999997400
30
0.0
0
VERTEX
8
0
10
1109.4837700000007000
20
957.2106700000003900
30
0.0
0
VERTEX
8
0
10
1102.6291799999999000
20
948.3299499999993700
30
0.0
0
VERTEX
8
0
10
1102.4920999999995000
20
948.4341999999996900
30
0.0
0
VERTEX
8
0
10
1101.7066599999998000
20
949.2940299999991100
30
0.0
0
VERTEX
8
0
10
1108.4351200000001000
20
957.9975599999997900
30
0.0
0
VERTEX
8
0
10
1102.4217200000003000
20
962.7449099999994400
30
0.0
0
VERTEX
8
0
10
1101.9806300000000000
20
962.4770599999992600
30
0.0
0
VERTEX
8
0
10
1101.6142000000000000
20
961.0213600000006400
30
0.0
0
VERTEX
8
0
10
1099.9567800000004000
20
958.5674999999992000
30
0.0
0
VERTEX
8
0
10
1099.1494600000005000
20
959.2659899999998700
30
0.0
0
VERTEX
8
0
10
1100.2952700000005000
20
960.9063499999992900
30
0.0
0
SEQEND
8
0
0
POLYLINE
8
0
66
1
70
1
10
0.0
20
0.0
30
0.0
1001
CGISCE_GIS_2000
1000
1119876350
0
VERTEX
8
0
10
1106.4750199999999000
20
976.8592200000002800
30
0.0
0
VERTEX
8
0
10
1103.7949300000000000
20
973.2476399999995900
30
0.0
0
VERTEX
8
0
10
1107.7291399999995000
20
970.2390300000006400
30
0.0
0
VERTEX
8
0
10
1110.2618299999995000
20
973.9051700000000000
30
0.0
0
VERTEX
8
0
10
1109.1414100000002000
20
974.7445200000001900
30
0.0
0
VERTEX
8
0
10
1109.3747399999993000
20
975.2793600000004500
30
0.0
0
VERTEX
8
0
10
1110.5990399999991000
20
974.3189999999995100
30
0.0
0
VERTEX
8
0
10
1114.2838699999993000
20
978.7290699999994100
30
0.0
0
VERTEX
8
0
10
1110.1019600000000000
20
981.6421100000006800
30
0.0
0
VERTEX
8
0
10
1106.7978500000008000
20
977.2655200000008300
30
0.0
0
VERTEX
8
0
10
1108.9201200000007000
20
975.6749099999997300
30
0.0
0
VERTEX
8
0
10
1108.7480200000009000
20
975.5283600000002500
30
0.0
0
VERTEX
8
0
10
1108.3621500000008000
20
975.4517099999993700
30
0.0
0
SEQEND
8
0
0
POLYLINE
8
0
66
1
70
1
10
0.0
20
0.0
30
0.0
1001
CGISCE_GIS_2000
1000
1119876351
0
VERTEX
8
0
10
1107.5203000000001000
20
966.5559099999991300
30
0.0
0
VERTEX
8
0
10
1107.4483899999996000
20
965.6110499999995200
30
0.0
0
VERTEX
8
0
10
1129.3733200000006000
20
949.0765800000008300
30
0.0
0
VERTEX
8
0
10
1130.2270900000003000
20
949.2211499999994000
30
0.0
0
VERTEX
8
0
10
1137.7588500000002000
20
958.6020499999995100
30
0.0
0
VERTEX
8
0
10
1137.7866500000000000
20
959.5920600000008600
30
0.0
0
VERTEX
8
0
10
1116.1409299999996000
20
975.9977799999996900
30
0.0
0
VERTEX
8
0
10
1114.8953700000002000
20
975.9710799999993500
30
0.0
0
SEQEND
8
0
0
POLYLINE
8
0
66
1
70
1
10
0.0
20
0.0
30
0.0
1001
CGISCE_GIS_2000
1000
1119876352
0
VERTEX
8
0
10
1114.0982999999997000
20
957.8209399999996100
30
0.0
0
VERTEX
8
0
10
1112.5973699999995000
20
955.9122999999999600
30
0.0
0
VERTEX
8
0
10
1116.1422999999995000
20
953.2168600000004500
30
0.0
0
VERTEX
8
0
10
1117.5603800000008000
20
955.1196099999997400
30
0.0
0
VERTEX
8
0
10
1116.7743499999997000
20
955.7290900000007200
30
0.0
0
VERTEX
8
0
10
1116.7774000000009000
20
955.7334900000005300
30
0.0
0
SEQEND
8
0
0
POLYLINE
8
0
66
1
70
1
10
0.0
20
0.0
30
0.0
1001
CGISCE_GIS_2000
1000
1119876353
0
VERTEX
8
0
10
1125.2857199999999000
20
942.3088800000005000
30
0.0
0
VERTEX
8
0
10
1121.8917899999997000
20
937.6425899999994700
30
0.0
0
VERTEX
8
0
10
1122.9512400000003000
20
936.8690800000003900
30
0.0
0
VERTEX
8
0
10
1126.4152599999998000
20
941.3885200000004300
30
0.0
0
VERTEX
8
0
10
1126.4372600000006000
20
941.4094700000005100
30
0.0
0
SEQEND
8
0
0
POLYLINE
8
0
66
1
70
1
10
0.0
20
0.0
30
0.0
1001
CGISCE_GIS_2000
1000
1119876354
0
VERTEX
8
0
10
1145.3446399999993000
20
969.7111800000002400
30
0.0
0
VERTEX
8
0
10
1138.7939100000003000
20
961.4429600000003100
30
0.0
0
VERTEX
8
0
10
1140.2520299999996000
20
960.4203099999995200
30
0.0
0
VERTEX
8
0
10
1140.3853199999994000
20
960.4288300000007400
30
0.0
0
VERTEX
8
0
10
1146.8542699999998000
20
968.6359400000001200
30
0.0
0
SEQEND
8
0
0
POLYLINE
8
0
66
1
70
1
10
0.0
20
0.0
30
0.0
1001
CGISCE_GIS_2000
1000
1119876355
0
VERTEX
8
0
10
1099.8635200000008000
20
980.7800000000006500
30
0.0
0
VERTEX
8
0
10
1100.6266400000004000
20
981.5983500000002100
30
0.0
0
VERTEX
8
0
10
1101.4884700000002000
20
981.6418300000004800
30
0.0
0
VERTEX
8
0
10
1101.4696999999996000
20
981.5229500000004900
30
0.0
0
VERTEX
8
0
10
1100.3598800000000000
20
980.3130199999996000
30
0.0
0
SEQEND
8
0
0
POLYLINE
8
0
66
1
70
1
10
0.0
20
0.0
30
0.0
1001
CGISCE_GIS_2000
1000
1119876356
0
VERTEX
8
0
10
1107.0745700000007000
20
943.7114799999999400
30
0.0
0
VERTEX
8
0
10
1107.5432999999994000
20
944.5485300000000300
30
0.0
0
VERTEX
8
0
10
1108.7513999999992000
20
943.6456899999993800
30
0.0
0
VERTEX
8
0
10
1109.0064800000000000
20
943.9780699999992100
30
0.0
0
VERTEX
8
0
10
1109.9424700000000000
20
943.2913700000008200
30
0.0
0
VERTEX
8
0
10
1109.5697899999996000
20
942.8017999999992800
30
0.0
0
VERTEX
8
0
10
1110.3889600000002000
20
942.1052600000002700
30
0.0
0
VERTEX
8
0
10
1108.8518000000004000
20
940.0146999999997200
30
0.0
0
VERTEX
8
0
10
1108.9877199999992000
20
939.9895500000002400
30
0.0
0
VERTEX
8
0
10
1109.3413899999996000
20
939.6309899999996600
30
0.0
0
VERTEX
8
0
10
1108.9631399999998000
20
939.4033400000007500
30
0.0
0
VERTEX
8
0
10
1109.9517300000007000
20
937.6677999999992600
30
0.0
0
VERTEX
8
0
10
1109.9677100000008000
20
937.6309799999999100
30
0.0
0
VERTEX
8
0
10
1109.3985499999999000
20
937.2165199999999500
30
0.0
0
VERTEX
8
0
10
1109.0820199999998000
20
937.4294300000001400
30
0.0
0
VERTEX
8
0
10
1108.7332600000009000
20
937.8944900000005900
30
0.0
0
VERTEX
8
0
10
1108.2092699999994000
20
938.9833299999991100
30
0.0
0
VERTEX
8
0
10
1107.6705700000002000
20
939.1202300000004500
30
0.0
0
VERTEX
8
0
10
1107.5251300000000000
20
940.4459499999993600
30
0.0
0
VERTEX
8
0
10
1107.9284200000002000
20
940.6577699999998000
30
0.0
0
VERTEX
8
0
10
1108.4918899999993000
20
942.0151600000008300
30
0.0
0
VERTEX
8
0
10
1107.9324400000005000
20
942.6327799999999100
30
0.0
0
SEQEND
8
0
0
POLYLINE
8
0
66
1
70
1
10
0.0
20
0.0
30
0.0
1001
CGISCE_GIS_2000
1000
1119876357
0
VERTEX
8
0
10
1109.3368599999994000
20
983.1372900000005800
30
0.0
0
VERTEX
8
0
10
1110.3472199999997000
20
984.1604100000004100
30
0.0
0
VERTEX
8
0
10
1110.7353999999996000
20
983.8327900000003900
30
0.0
0
VERTEX
8
0
10
1111.7175999999999000
20
984.8244900000008800
30
0.0
0
VERTEX
8
0
10
1112.1267100000005000
20
984.0988899999993000
30
0.0
0
VERTEX
8
0
10
1110.7110799999991000
20
982.1489199999996300
30
0.0
0
SEQEND
8
0
0
POLYLINE
8
0
66
1
70
1
10
0.0
20
0.0
30
0.0
1001
CGISCE_GIS_2000
1000
1119876358
0
VERTEX
8
0
10
1109.5463000000000000
20
944.6617900000001100
30
0.0
0
VERTEX
8
0
10
1111.4425400000000000
20
947.0630999999993900
30
0.0
0
VERTEX
8
0
10
1111.5734499999999000
20
947.0936799999999500
30
0.0
0
VERTEX
8
0
10
1112.4351700000007000
20
946.4527600000001300
30
0.0
0
VERTEX
8
0
10
1110.4729000000007000
20
943.9271200000002900
30
0.0
0
SEQEND
8
0
0
POLYLINE
8
0
66
1
70
1
10
0.0
20
0.0
30
0.0
1001
CGISCE_GIS_2000
1000
1119876359
0
VERTEX
8
0
10
1110.5082700000003000
20
936.1067000000002700
30
0.0
0
VERTEX
8
0
10
1110.7913200000003000
20
936.5491399999991700
30
0.0
0
VERTEX
8
0
10
1111.4742600000009000
20
936.3884400000006300
30
0.0
0
VERTEX
8
0
10
1112.0752799999991000
20
936.1097200000003800
30
0.0
0
VERTEX
8
0
10
1112.6822100000009000
20
935.9341399999993900
30
0.0
0
VERTEX
8
0
10
1113.3761599999998000
20
935.9098200000007600
30
0.0
0
VERTEX
8
0
10
1113.7483900000007000
20
936.6869999999999000
30
0.0
0
VERTEX
8
0
10
1114.3796700000003000
20
936.1829400000006000
30
0.0
0
VERTEX
8
0
10
1114.5882399999991000
20
936.1488800000006400
30
0.0
0
VERTEX
8
0
10
1115.0064500000008000
20
935.8130999999993900
30
0.0
0
VERTEX
8
0
10
1115.6002599999993000
20
935.3283100000007800
30
0.0
0
VERTEX
8
0
10
1116.1636799999997000
20
934.8678500000005400
30
0.0
0
VERTEX
8
0
10
1115.7326699999994000
20
934.7798100000000000
30
0.0
0
VERTEX
8
0
10
1115.7977900000005000
20
934.5044400000006100
30
0.0
0
VERTEX
8
0
10
1115.1340799999998000
20
934.3857700000007800
30
0.0
0
VERTEX
8
0
10
1114.3261800000000000
20
935.0068100000007700
30
0.0
0
VERTEX
8
0
10
1113.8816399999996000
20
935.0059000000001100
30
0.0
0
VERTEX
8
0
10
1113.2907799999994000
20
934.9954600000000900
30
0.0
0
VERTEX
8
0
10
1112.6439699999992000
20
935.0926099999996900
30
0.0
0
VERTEX
8
0
10
1111.7550900000006000
20
935.3927700000003800
30
0.0
0
VERTEX
8
0
10
1111.0324099999998000
20
935.7815599999994400
30
0.0
0
SEQEND
8
0
0
POLYLINE
8
0
66
1
70
1
10
0.0
20
0.0
30
0.0
1001
CGISCE_GIS_2000
1000
1119876360
0
VERTEX
8
0
10
1113.2636199999997000
20
982.8645099999994300
30
0.0
0
VERTEX
8
0
10
1113.4754200000007000
20
983.1485699999993800
30
0.0
0
VERTEX
8
0
10
1116.0266100000008000
20
981.0015700000003600
30
0.0
0
VERTEX
8
0
10
1116.9439999999995000
20
982.9701900000000000
30
0.0
0
VERTEX
8
0
10
1115.8946099999994000
20
983.4707600000001500
30
0.0
0
VERTEX
8
0
10
1115.1484400000008000
20
984.8856099999993600
30
0.0
0
VERTEX
8
0
10
1115.7212400000008000
20
985.1366099999995600
30
0.0
0
VERTEX
8
0
10
1117.5869500000008000
20
983.9396600000000000
30
0.0
0
VERTEX
8
0
10
1118.2664000000004000
20
984.5669799999996000
30
0.0
0
VERTEX
8
0
10
1119.3173999999999000
20
984.1693899999991100
30
0.0
0
VERTEX
8
0
10
1119.3427499999998000
20
982.9085500000001000
30
0.0
0
VERTEX
8
0
10
1119.0126000000000000
20
982.5667799999992000
30
0.0
0
VERTEX
8
0
10
1118.2655699999996000
20
981.5661899999995500
30
0.0
0
VERTEX
8
0
10
1117.3977200000008000
20
980.6474500000003900
30
0.0
0
VERTEX
8
0
10
1116.8376300000000000
20
980.5987199999999600
30
0.0
0
VERTEX
8
0
10
1115.7647899999993000
20
979.3926599999995200
30
0.0
0
VERTEX
8
0
10
1115.2309800000003000
20
979.6969599999993100
30
0.0
0
VERTEX
8
0
10
1115.8080000000009000
20
980.3569200000001700
30
0.0
0
VERTEX
8
0
10
1115.2970299999997000
20
980.6900999999998000
30
0.0
0
VERTEX
8
0
10
1114.3119100000004000
20
981.4925899999998400
30
0.0
0
VERTEX
8
0
10
1113.3473500000000000
20
982.3877900000006800
30
0.0
0
SEQEND
8
0
0
POLYLINE
8
0
66
1
70
1
10
0.0
20
0.0
30
0.0
1001
CGISCE_GIS_2000
1000
1119876361
0
VERTEX
8
0
10
1116.0000400000008000
20
947.7425399999992800
30
0.0
0
VERTEX
8
0
10
1116.2643000000007000
20
948.1725800000003800
30
0.0
0
VERTEX
8
0
10
1116.2450900000003000
20
948.2243199999993500
30
0.0
0
VERTEX
8
0
10
1116.2267100000008000
20
948.2763599999998400
30
0.0
0
VERTEX
8
0
10
1116.2091700000001000
20
948.3286900000002800
30
0.0
0
VERTEX
8
0
10
1116.1924799999997000
20
948.3812999999991000
30
0.0
0
VERTEX
8
0
10
1116.1766299999999000
20
948.4341700000004500
30
0.0
0
VERTEX
8
0
10
1116.1616300000005000
20
948.4872799999993700
30
0.0
0
VERTEX
8
0
10
1116.1474899999994000
20
948.5406299999995100
30
0.0
0
VERTEX
8
0
10
1116.1342100000002000
20
948.5941999999995500
30
0.0
0
VERTEX
8
0
10
1116.1217899999992000
20
948.6479699999999900
30
0.0
0
VERTEX
8
0
10
1116.1102300000002000
20
948.7019400000008300
30
0.0
0
VERTEX
8
0
10
1116.0995500000008000
20
948.7560900000007700
30
0.0
0
VERTEX
8
0
10
1116.0897299999997000
20
948.8104000000003000
30
0.0
0
VERTEX
8
0
10
1116.0807900000000000
20
948.8648599999996800
30
0.0
0
VERTEX
8
0
10
1116.0727299999999000
20
948.9194599999991600
30
0.0
0
VERTEX
8
0
10
1116.0655399999996000
20
948.9741900000008200
30
0.0
0
VERTEX
8
0
10
1116.0592400000005000
20
949.0290199999999500
30
0.0
0
VERTEX
8
0
10
1116.0538099999994000
20
949.0839400000004400
30
0.0
0
VERTEX
8
0
10
1116.0492699999995000
20
949.1389400000007300
30
0.0
0
VERTEX
8
0
10
1116.0456200000008000
20
949.1940099999992500
30
0.0
0
VERTEX
8
0
10
1116.0428499999998000
20
949.2491399999999000
30
0.0
0
VERTEX
8
0
10
1116.0409600000003000
20
949.3042999999997800
30
0.0
0
VERTEX
8
0
10
1116.0399600000001000
20
949.3594799999991700
30
0.0
0
VERTEX
8
0
10
1116.0398499999992000
20
949.4146700000001100
30
0.0
0
VERTEX
8
0
10
1116.0406299999995000
20
949.4698499999995000
30
0.0
0
VERTEX
8
0
10
1116.0422899999994000
20
949.5250199999991300
30
0.0
0
VERTEX
8
0
10
1116.0448400000005000
20
949.5801499999997800
30
0.0
0
VERTEX
8
0
10
1116.0482699999993000
20
949.6352399999996100
30
0.0
0
VERTEX
8
0
10
1116.0525899999993000
20
949.6902599999994000
30
0.0
0
VERTEX
8
0
10
1116.0577900000008000
20
949.7452099999991300
30
0.0
0
VERTEX
8
0
10
1116.0638799999997000
20
949.8000599999995800
30
0.0
0
VERTEX
8
0
10
1116.0708400000003000
20
949.8548100000007300
30
0.0
0
VERTEX
8
0
10
1116.0786900000003000
20
949.9094399999994500
30
0.0
0
VERTEX
8
0
10
1116.0874100000001000
20
949.9639399999996400
30
0.0
0
VERTEX
8
0
10
1116.0969999999998000
20
950.0182899999999800
30
0.0
0
VERTEX
8
0
10
1116.1074700000008000
20
950.0724800000007200
30
0.0
0
VERTEX
8
0
10
1116.1188099999999000
20
950.1265000000003100
30
0.0
0
VERTEX
8
0
10
1116.1310099999992000
20
950.1803199999994800
30
0.0
0
VERTEX
8
0
10
1116.1440800000000000
20
950.2339400000000800
30
0.0
0
VERTEX
8
0
10
1116.1580099999992000
20
950.2873500000005200
30
0.0
0
VERTEX
8
0
10
1116.1727900000005000
20
950.3405199999997400
30
0.0
0
VERTEX
8
0
10
1116.1884200000004000
20
950.3934499999995800
30
0.0
0
VERTEX
8
0
10
1116.2049100000004000
20
950.4461300000002700
30
0.0
0
VERTEX
8
0
10
1116.2222399999991000
20
950.4985300000007600
30
0.0
0
VERTEX
8
0
10
1116.2404000000006000
20
950.5506399999994800
30
0.0
0
VERTEX
8
0
10
1116.2594100000006000
20
950.6024600000000600
30
0.0
0
VERTEX
8
0
10
1116.2792399999998000
20
950.6539599999996400
30
0.0
0
VERTEX
8
0
10
1116.2999000000000000
20
950.7051400000000300
30
0.0
0
VERTEX
8
0
10
1116.3213799999994000
20
950.7559799999999100
30
0.0
0
VERTEX
8
0
10
1116.3436700000002000
20
950.8064699999995400
30
0.0
0
VERTEX
8
0
10
1116.3667700000005000
20
950.8565999999991600
30
0.0
0
VERTEX
8
0
10
1116.3906700000007000
20
950.9063399999995500
30
0.0
0
VERTEX
8
0
10
1116.4153700000006000
20
950.9557000000004300
30
0.0
0
VERTEX
8
0
10
1116.4408600000006000
20
951.0046500000007700
30
0.0
0
VERTEX
8
0
10
1116.4671300000009000
20
951.0531900000005400
30
0.0
0
VERTEX
8
0
10
1116.4941799999997000
20
951.1013000000002600
30
0.0
0
VERTEX
8
0
10
1116.5220000000008000
20
951.1489700000001900
30
0.0
0
VERTEX
8
0
10
1116.5505799999992000
20
951.1961800000008200
30
0.0
0
VERTEX
8
0
10
1116.5799100000004000
20
951.2429300000003400
30
0.0
0
VERTEX
8
0
10
1116.6100000000006000
20
951.2891999999992500
30
0.0
0
VERTEX
8
0
10
1116.6408200000005000
20
951.3349899999993800
30
0.0
0
VERTEX
8
0
10
1116.6723700000002000
20
951.3802699999996500
30
0.0
0
VERTEX
8
0
10
1116.7046499999997000
20
951.4250400000000800
30
0.0
0
VERTEX
8
0
10
1116.7376399999994000
20
951.4692799999993400
30
0.0
0
VERTEX
8
0
10
1116.7713399999993000
20
951.5129899999992600
30
0.0
0
VERTEX
8
0
10
1116.8057399999998000
20
951.5561500000003400
30
0.0
0
VERTEX
8
0
10
1116.8408299999992000
20
951.5987499999992000
30
0.0
0
VERTEX
8
0
10
1116.8765999999996000
20
951.6407899999994700
30
0.0
0
VERTEX
8
0
10
1116.9130299999997000
20
951.6822400000000900
30
0.0
0
VERTEX
8
0
10
1116.9501299999993000
20
951.7230999999992500
30
0.0
0
VERTEX
8
0
10
1116.9878800000006000
20
951.7633700000005800
30
0.0
0
VERTEX
8
0
10
1117.0262800000000000
20
951.8030099999996300
30
0.0
0
VERTEX
8
0
10
1117.0653000000002000
20
951.8420399999995400
30
0.0
0
VERTEX
8
0
10
1117.1049500000008000
20
951.8804400000008200
30
0.0
0
VERTEX
8
0
10
1117.1452100000006000
20
951.9181900000003200
30
0.0
0
VERTEX
8
0
10
1117.1860699999997000
20
951.9552899999998800
30
0.0
0
VERTEX
8
0
10
1117.2275200000004000
20
951.9917299999997300
30
0.0
0
VERTEX
8
0
10
1117.2695500000009000
20
952.0275000000001500
30
0.0
0
VERTEX
8
0
10
1117.3121499999997000
20
952.0625899999995500
30
0.0
0
VERTEX
8
0
10
1117.3553100000008000
20
952.0969900000000100
30
0.0
0
VERTEX
8
0
10
1117.3990099999992000
20
952.1306999999997100
30
0.0
0
VERTEX
8
0
10
1117.4432600000000000
20
952.1636899999994100
30
0.0
0
VERTEX
8
0
10
1117.4880200000007000
20
952.1959700000006700
30
0.0
0
VERTEX
8
0
10
1117.5332999999991000
20
952.2275300000001200
30
0.0
0
VERTEX
8
0
10
1117.5790799999995000
20
952.2583500000000600
30
0.0
0
VERTEX
8
0
10
1117.6253500000003000
20
952.2884400000002600
30
0.0
0
VERTEX
8
0
10
1117.6720999999998000
20
952.3177799999994000
30
0.0
0
VERTEX
8
0
10
1117.7193100000004000
20
952.3463599999995500
30
0.0
0
VERTEX
8
0
10
1117.7669800000003000
20
952.3741800000007100
30
0.0
0
VERTEX
8
0
10
1117.8150900000001000
20
952.4012399999992300
30
0.0
0
VERTEX
8
0
10
1117.8636200000001000
20
952.4275099999995300
30
0.0
0
VERTEX
8
0
10
1117.9125700000004000
20
952.4529999999995200
30
0.0
0
VERTEX
8
0
10
1117.9619299999995000
20
952.4777099999992100
30
0.0
0
VERTEX
8
0
10
1118.0116699999999000
20
952.5016099999993500
30
0.0
0
VERTEX
8
0
10
1118.0617999999995000
20
952.5247199999994300
30
0.0
0
VERTEX
8
0
10
1118.1122799999994000
20
952.5470100000002300
30
0.0
0
VERTEX
8
0
10
1118.1631199999993000
20
952.5684899999996600
30
0.0
0
VERTEX
8
0
10
1118.2142999999996000
20
952.5891499999997900
30
0.0
0
VERTEX
8
0
10
1118.2658100000008000
20
952.6089900000006300
30
0.0
0
VERTEX
8
0
10
1118.3176199999998000
20
952.6280000000006100
30
0.0
0
VERTEX
8
0
10
1118.3697400000001000
20
952.6461699999999800
30
0.0
0
VERTEX
8
0
10
1118.4221400000006000
20
952.6635000000005700
30
0.0
0
VERTEX
8
0
10
1118.4748099999997000
20
952.6799900000005400
30
0.0
0
VERTEX
8
0
10
1118.5277399999995000
20
952.6956300000001600
30
0.0
0
VERTEX
8
0
10
1118.5809100000006000
20
952.7104099999996800
30
0.0
0
VERTEX
8
0
10
1118.6343099999995000
20
952.7243400000006700
30
0.0
0
VERTEX
8
0
10
1118.6879399999998000
20
952.7374099999997300
30
0.0
0
VERTEX
8
0
10
1118.7417600000008000
20
952.7496200000005000
30
0.0
0
VERTEX
8
0
10
1118.7957700000006000
20
952.7609599999996100
30
0.0
0
VERTEX
8
0
10
1118.8499599999996000
20
952.7714300000006900
30
0.0
0
VERTEX
8
0
10
1118.9043099999999000
20
952.7810300000001000
30
0.0
0
VERTEX
8
0
10
1118.9588100000001000
20
952.7897499999999100
30
0.0
0
VERTEX
8
0
10
1119.0134400000006000
20
952.7975999999998700
30
0.0
0
VERTEX
8
0
10
1119.0681900000000000
20
952.8045700000002400
30
0.0
0
VERTEX
8
0
10
1119.1230500000001000
20
952.8106599999991900
30
0.0
0
VERTEX
8
0
10
1119.1779900000001000
20
952.8158600000006100
30
0.0
0
VERTEX
8
0
10
1119.2330099999999000
20
952.8201900000003700
30
0.0
0
VERTEX
8
0
10
1119.2880999999998000
20
952.8236199999992100
30
0.0
0
VERTEX
8
0
10
1119.3432300000004000
20
952.8261800000000200
30
0.0
0
VERTEX
8
0
10
1119.3984000000000000
20
952.8278399999999200
30
0.0
0
VERTEX
8
0
10
1119.4535799999994000
20
952.8286200000002300
30
0.0
0
VERTEX
8
0
10
1119.5087700000004000
20
952.8285099999993700
30
0.0
0
VERTEX
8
0
10
1119.5639599999995000
20
952.8275200000007300
30
0.0
0
VERTEX
8
0
10
1119.6191099999996000
20
952.8256399999991100
30
0.0
0
VERTEX
8
0
10
1119.6742400000003000
20
952.8228699999999700
30
0.0
0
VERTEX
8
0
10
1119.7293100000006000
20
952.8192199999994000
30
0.0
0
VERTEX
8
0
10
1119.7843099999991000
20
952.8146799999995000
30
0.0
0
VERTEX
8
0
10
1119.8392399999993000
20
952.8092599999999900
30
0.0
0
VERTEX
8
0
10
1119.8940700000003000
20
952.8029600000008900
30
0.0
0
VERTEX
8
0
10
1119.9487900000004000
20
952.7957800000003800
30
0.0
0
VERTEX
8
0
10
1120.0033899999999000
20
952.7877200000002600
30
0.0
0
VERTEX
8
0
10
1120.0578499999992000
20
952.7787800000005500
30
0.0
0
VERTEX
8
0
10
1120.1121600000006000
20
952.7689699999991700
30
0.0
0
VERTEX
8
0
10
1120.1663100000005000
20
952.7582899999997600
30
0.0
0
VERTEX
8
0
10
1120.2202799999995000
20
952.7467400000005000
30
0.0
0
VERTEX
8
0
10
1120.2740599999997000
20
952.7343199999995700
30
0.0
0
VERTEX
8
0
10
1120.3276299999998000
20
952.7210400000003600
30
0.0
0
VERTEX
8
0
10
1120.3809799999999000
20
952.7069100000007900
30
0.0
0
VERTEX
8
0
10
1120.4340900000007000
20
952.6919099999995500
30
0.0
0
VERTEX
8
0
10
1120.4869600000002000
20
952.6760699999995300
30
0.0
0
VERTEX
8
0
10
1120.5395700000008000
20
952.6593699999994000
30
0.0
0
VERTEX
8
0
10
1120.5918999999994000
20
952.6418400000002300
30
0.0
0
VERTEX
8
0
10
1120.6439399999999000
20
952.6234600000007000
30
0.0
0
VERTEX
8
0
10
1120.6956800000007000
20
952.6042600000000700
30
0.0
0
VERTEX
8
0
10
1120.7471100000002000
20
952.5842200000006400
30
0.0
0
VERTEX
8
0
10
1120.7982100000008000
20
952.5633600000001000
30
0.0
0
VERTEX
8
0
10
1120.8489599999994000
20
952.5416800000002700
30
0.0
0
VERTEX
8
0
10
1120.8993599999994000
20
952.5191900000008900
30
0.0
0
VERTEX
8
0
10
1120.9493899999998000
20
952.4958900000001400
30
0.0
0
VERTEX
8
0
10
1120.9990500000004000
20
952.4717899999996000
30
0.0
0
VERTEX
8
0
10
1121.0483000000004000
20
952.4469000000008200
30
0.0
0
VERTEX
8
0
10
1121.0971599999993000
20
952.4212100000004300
30
0.0
0
VERTEX
8
0
10
1121.1455900000001000
20
952.3947499999994800
30
0.0
0
VERTEX
8
0
10
1121.1935900000008000
20
952.3675100000000400
30
0.0
0
VERTEX
8
0
10
1121.2411499999998000
20
952.3395000000000400
30
0.0
0
VERTEX
8
0
10
1121.2882499999996000
20
952.3107299999992400
30
0.0
0
VERTEX
8
0
10
1121.3348800000003000
20
952.2812099999991900
30
0.0
0
VERTEX
8
0
10
1121.3810300000005000
20
952.2509499999996500
30
0.0
0
VERTEX
8
0
10
1121.4266900000002000
20
952.2199400000008600
30
0.0
0
VERTEX
8
0
10
1121.4718499999999000
20
952.1882100000002500
30
0.0
0
VERTEX
8
0
10
1121.5164900000000000
20
952.1557599999996500
30
0.0
0
VERTEX
8
0
10
1121.5606000000007000
20
952.1225900000008600
30
0.0
0
VERTEX
8
0
10
1121.6041800000003000
20
952.0887199999997400
30
0.0
0
VERTEX
8
0
10
1121.6471999999994000
20
952.0541499999999400
30
0.0
0
VERTEX
8
0
10
1121.6896699999998000
20
952.0188899999993700
30
0.0
0
VERTEX
8
0
10
1121.7315600000002000
20
951.9829599999993700
30
0.0
0
VERTEX
8
0
10
1121.7728700000007000
20
951.9463599999999100
30
0.0
0
VERTEX
8
0
10
1121.8135800000000000
20
951.9091000000007600
30
0.0
0
VERTEX
8
0
10
1121.8536899999999000
20
951.8711899999998400
30
0.0
0
VERTEX
8
0
10
1121.8931900000007000
20
951.8326400000005400
30
0.0
0
VERTEX
8
0
10
1121.9320599999992000
20
951.7934600000007800
30
0.0
0
VERTEX
8
0
10
1121.9703000000009000
20
951.7536600000003100
30
0.0
0
VERTEX
8
0
10
1122.0079000000005000
20
951.7132500000007000
30
0.0
0
VERTEX
8
0
10
1122.0448400000005000
20
951.6722399999998700
30
0.0
0
VERTEX
8
0
10
1122.0811099999992000
20
951.6306499999991500
30
0.0
0
VERTEX
8
0
10
1122.1167100000002000
20
951.5884800000003500
30
0.0
0
VERTEX
8
0
10
1122.1516300000003000
20
951.5457399999995700
30
0.0
0
VERTEX
8
0
10
1122.1858599999996000
20
951.5024400000002100
30
0.0
0
VERTEX
8
0
10
1122.2193900000002000
20
951.4585999999999300
30
0.0
0
VERTEX
8
0
10
1122.2522100000006000
20
951.4142300000003200
30
0.0
0
VERTEX
8
0
10
1122.2843200000007000
20
951.3693399999992800
30
0.0
0
VERTEX
8
0
10
1122.3156899999994000
20
951.3239300000004700
30
0.0
0
VERTEX
8
0
10
1122.3463400000001000
20
951.2780299999994900
30
0.0
0
VERTEX
8
0
10
1122.3762399999996000
20
951.2316399999999700
30
0.0
0
VERTEX
8
0
10
1122.4053899999999000
20
951.1847799999995900
30
0.0
0
VERTEX
8
0
10
1122.4337899999991000
20
951.1374500000001700
30
0.0
0
VERTEX
8
0
10
1122.4614199999996000
20
951.0896699999993900
30
0.0
0
VERTEX
8
0
10
1122.4882799999996000
20
951.0414600000003700
30
0.0
0
VERTEX
8
0
10
1122.5143700000008000
20
950.9928199999994800
30
0.0
0
VERTEX
8
0
10
1122.5396600000004000
20
950.9437699999998600
30
0.0
0
VERTEX
8
0
10
1122.5641699999996000
20
950.8943199999994200
30
0.0
0
VERTEX
8
0
10
1122.5878799999991000
20
950.8444799999997500
30
0.0
0
VERTEX
8
0
10
1122.6107800000009000
20
950.7942600000005800
30
0.0
0
VERTEX
8
0
10
1122.6328799999992000
20
950.7436899999993300
30
0.0
0
VERTEX
8
0
10
1122.6541600000000000
20
950.6927599999999100
30
0.0
0
VERTEX
8
0
10
1122.6746199999998000
20
950.6414999999997200
30
0.0
0
VERTEX
8
0
10
1122.6942500000005000
20
950.5899200000003500
30
0.0
0
VERTEX
8
0
10
1122.7130500000003000
20
950.5380299999997100
30
0.0
0
VERTEX
8
0
10
1122.7310199999993000
20
950.4858499999991200
30
0.0
0
VERTEX
8
0
10
1122.7481399999997000
20
950.4333800000004000
30
0.0
0
VERTEX
8
0
10
1122.7644199999995000
20
950.3806399999994000
30
0.0
0
VERTEX
8
0
10
1122.7798500000008000
20
950.3276499999992700
30
0.0
0
VERTEX
8
0
10
1122.7944200000002000
20
950.2744199999997400
30
0.0
0
VERTEX
8
0
10
1122.8081399999992000
20
950.2209600000005600
30
0.0
0
VERTEX
8
0
10
1122.8209999999999000
20
950.1672899999994100
30
0.0
0
VERTEX
8
0
10
1122.8329900000008000
20
950.1134199999996800
30
0.0
0
VERTEX
8
0
10
1122.8441199999997000
20
950.0593599999992900
30
0.0
0
VERTEX
8
0
10
1122.8543699999991000
20
950.0051299999995500
30
0.0
0
VERTEX
8
0
10
1122.8637600000002000
20
949.9507400000002200
30
0.0
0
VERTEX
8
0
10
1122.8722699999998000
20
949.8962100000007900
30
0.0
0
VERTEX
8
0
10
1122.8798999999999000
20
949.8415499999991900
30
0.0
0
VERTEX
8
0
10
1122.8866500000004000
20
949.7867700000006200
30
0.0
0
VERTEX
8
0
10
1122.8925199999994000
20
949.7318899999991100
30
0.0
0
VERTEX
8
0
10
1122.8975100000007000
20
949.6769299999996300
30
0.0
0
VERTEX
8
0
10
1122.9016100000008000
20
949.6218900000003500
30
0.0
0
VERTEX
8
0
10
1122.9048299999995000
20
949.5667900000007600
30
0.0
0
VERTEX
8
0
10
1122.9071700000004000
20
949.5116500000003700
30
0.0
0
VERTEX
8
0
10
1122.9086100000004000
20
949.4564699999991700
30
0.0
0
VERTEX
8
0
10
1122.9091700000008000
20
949.4012899999997900
30
0.0
0
VERTEX
8
0
10
1122.9088499999998000
20
949.3461000000006600
30
0.0
0
VERTEX
8
0
10
1122.9076299999997000
20
949.2909199999994600
30
0.0
0
VERTEX
8
0
10
1122.9055300000000000
20
949.2357699999993200
30
0.0
0
VERTEX
8
0
10
1122.9025500000007000
20
949.1806599999999900
30
0.0
0
VERTEX
8
0
10
1122.8986800000002000
20
949.1255999999993900
30
0.0
0
VERTEX
8
0
10
1122.8939200000004000
20
949.0706100000006700
30
0.0
0
VERTEX
8
0
10
1122.8882900000008000
20
949.0157099999996700
30
0.0
0
VERTEX
8
0
10
1122.8817700000000000
20
948.9609099999997900
30
0.0
0
VERTEX
8
0
10
1122.8743699999995000
20
948.9062099999991900
30
0.0
0
VERTEX
8
0
10
1122.8660899999995000
20
948.8516500000005200
30
0.0
0
VERTEX
8
0
10
1122.8569399999997000
20
948.7972200000003800
30
0.0
0
VERTEX
8
0
10
1122.8469100000002000
20
948.7429499999998400
30
0.0
0
VERTEX
8
0
10
1122.8360200000006000
20
948.6888400000007100
30
0.0
0
VERTEX
8
0
10
1122.8242499999997000
20
948.6349200000004200
30
0.0
0
VERTEX
8
0
10
1122.8116200000004000
20
948.5811900000007900
30
0.0
0
VERTEX
8
0
10
1122.7981299999992000
20
948.5276699999994900
30
0.0
0
VERTEX
8
0
10
1122.7837799999998000
20
948.4743799999996600
30
0.0
0
VERTEX
8
0
10
1122.7685799999999000
20
948.4213199999994700
30
0.0
0
VERTEX
8
0
10
1122.7525200000000000
20
948.3685199999999900
30
0.0
0
VERTEX
8
0
10
1122.7356199999995000
20
948.3159799999994000
30
0.0
0
VERTEX
8
0
10
1122.7178800000002000
20
948.2637200000008300
30
0.0
0
VERTEX
8
0
10
1122.6993000000002000
20
948.2117500000003900
30
0.0
0
VERTEX
8
0
10
1122.6798899999994000
20
948.1600799999996500
30
0.0
0
VERTEX
8
0
10
1122.6596499999996000
20
948.1087399999996700
30
0.0
0
VERTEX
8
0
10
1122.6385800000007000
20
948.0577200000007000
30
0.0
0
VERTEX
8
0
10
1122.6167000000005000
20
948.0070500000001600
30
0.0
0
VERTEX
8
0
10
1122.5940100000007000
20
947.9567399999996300
30
0.0
0
VERTEX
8
0
10
1122.5705199999993000
20
947.9068000000006600
30
0.0
0
VERTEX
8
0
10
1122.5462200000002000
20
947.8572499999991100
30
0.0
0
VERTEX
8
0
10
1122.5211299999992000
20
947.8080900000004500
30
0.0
0
VERTEX
8
0
10
1122.4952499999999000
20
947.7593400000005200
30
0.0
0
VERTEX
8
0
10
1122.4686000000002000
20
947.7110100000009000
30
0.0
0
VERTEX
8
0
10
1122.4411700000001000
20
947.6631199999992500
30
0.0
0
VERTEX
8
0
10
1122.4129699999994000
20
947.6156699999992300
30
0.0
0
VERTEX
8
0
10
1122.3840199999995000
20
947.5686900000000600
30
0.0
0
VERTEX
8
0
10
1122.3543200000004000
20
947.5221700000001900
30
0.0
0
VERTEX
8
0
10
1122.3238700000002000
20
947.4761400000006700
30
0.0
0
VERTEX
8
0
10
1122.2926800000005000
20
947.4305999999996900
30
0.0
0
VERTEX
8
0
10
1122.2607700000008000
20
947.3855700000003700
30
0.0
0
VERTEX
8
0
10
1122.2281399999993000
20
947.3410600000006500
30
0.0
0
VERTEX
8
0
10
1122.1947999999993000
20
947.2970800000002800
30
0.0
0
VERTEX
8
0
10
1122.1607499999991000
20
947.2536400000008100
30
0.0
0
VERTEX
8
0
10
1122.1260100000000000
20
947.2107500000001900
30
0.0
0
VERTEX
8
0
10
1122.0905899999998000
20
947.1684299999997200
30
0.0
0
VERTEX
8
0
10
1122.0544900000004000
20
947.1266799999994000
30
0.0
0
VERTEX
8
0
10
1122.0177299999996000
20
947.0855100000008000
30
0.0
0
VERTEX
8
0
10
1121.9802999999993000
20
947.0449499999995200
30
0.0
0
VERTEX
8
0
10
1121.9422400000003000
20
947.0049899999994500
30
0.0
0
VERTEX
8
0
10
1121.9035299999996000
20
946.9656400000003500
30
0.0
0
VERTEX
8
0
10
1121.8642000000000000
20
946.9269199999998800
30
0.0
0
VERTEX
8
0
10
1121.8242499999997000
20
946.8888399999996200
30
0.0
0
VERTEX
8
0
10
1121.7836900000002000
20
946.8514099999993100
30
0.0
0
VERTEX
8
0
10
1121.7425399999993000
20
946.8146400000005100
30
0.0
0
VERTEX
8
0
10
1121.7008000000005000
20
946.7785199999998400
30
0.0
0
VERTEX
8
0
10
1121.6584800000001000
20
946.7430899999999400
30
0.0
0
VERTEX
8
0
10
1121.6156100000007000
20
946.7083399999992300
30
0.0
0
VERTEX
8
0
10
1121.5721799999992000
20
946.6742799999992700
30
0.0
0
VERTEX
8
0
10
1121.5282100000004000
20
946.6409299999995700
30
0.0
0
VERTEX
8
0
10
1121.4837000000007000
20
946.6082800000003800
30
0.0
0
VERTEX
8
0
10
1121.4386799999993000
20
946.5763599999991100
30
0.0
0
VERTEX
8
0
10
1121.3931499999999000
20
946.5451599999996700
30
0.0
0
VERTEX
8
0
10
1121.3471300000001000
20
946.5146999999997200
30
0.0
0
VERTEX
8
0
10
1121.3006200000000000
20
946.4849799999992700
30
0.0
0
VERTEX
8
0
10
1121.2536400000008000
20
946.4560099999998800
30
0.0
0
VERTEX
8
0
10
1121.2062100000003000
20
946.4277999999994800
30
0.0
0
VERTEX
8
0
10
1121.1583200000005000
20
946.4003599999996400
30
0.0
0
VERTEX
8
0
10
1121.1100000000006000
20
946.3736900000003500
30
0.0
0
VERTEX
8
0
10
1121.0612600000004000
20
946.3477999999995500
30
0.0
0
VERTEX
8
0
10
1121.0121099999997000
20
946.3227000000006200
30
0.0
0
VERTEX
8
0
10
1120.9625599999999000
20
946.2983899999999300
30
0.0
0
VERTEX
8
0
10
1120.9126300000007000
20
946.2748699999992800
30
0.0
0
VERTEX
8
0
10
1120.8623200000002000
20
946.2521699999997500
30
0.0
0
VERTEX
8
0
10
1120.8116599999994000
20
946.2302700000000200
30
0.0
0
VERTEX
8
0
10
1120.7606500000002000
20
946.2091999999993300
30
0.0
0
VERTEX
8
0
10
1120.7093100000002000
20
946.1889400000000000
30
0.0
0
VERTEX
8
0
10
1120.6576499999992000
20
946.1695099999997200
30
0.0
0
VERTEX
8
0
10
1120.6056900000003000
20
946.1509200000000400
30
0.0
0
VERTEX
8
0
10
1120.5534299999999000
20
946.1331599999994100
30
0.0
0
VERTEX
8
0
10
1120.5008899999993000
20
946.1162499999991300
30
0.0
0
VERTEX
8
0
10
1120.4480899999999000
20
946.1001799999994500
30
0.0
0
VERTEX
8
0
10
1120.3950399999994000
20
946.0849600000001400
30
0.0
0
VERTEX
8
0
10
1120.3417499999996000
20
946.0705899999993600
30
0.0
0
VERTEX
8
0
10
1120.2882399999999000
20
946.0570900000002400
30
0.0
0
VERTEX
8
0
10
1120.2345200000000000
20
946.0444399999996700
30
0.0
0
VERTEX
8
0
10
1120.1805999999997000
20
946.0326600000007600
30
0.0
0
VERTEX
8
0
10
1120.1265000000003000
20
946.0217499999998800
30
0.0
0
VERTEX
8
0
10
1120.0722299999998000
20
946.0117100000006800
30
0.0
0
VERTEX
8
0
10
1120.0177999999996000
20
946.0025399999995000
30
0.0
0
VERTEX
8
0
10
1120.1686399999999000
20
945.3405500000008000
30
0.0
0
VERTEX
8
0
10
1121.9689299999991000
20
943.8941200000008400
30
0.0
0
VERTEX
8
0
10
1120.2867399999996000
20
941.7448700000004500
30
0.0
0
VERTEX
8
0
10
1119.7702900000004000
20
942.1491200000000400
30
0.0
0
VERTEX
8
0
10
1121.0045300000002000
20
943.7825799999991400
30
0.0
0
SEQEND
8
0
0
POLYLINE
8
0
66
1
70
1
10
0.0
20
0.0
30
0.0
1001
CGISCE_GIS_2000
1000
1119876362
0
VERTEX
8
0
10
1116.9430200000006000
20
949.4226199999993700
30
0.0
0
VERTEX
8
0
10
1116.9427899999991000
20
949.3750700000000500
30
0.0
0
VERTEX
8
0
10
1116.9434399999991000
20
949.3275300000004800
30
0.0
0
VERTEX
8
0
10
1116.9449700000005000
20
949.2800000000006500
30
0.0
0
VERTEX
8
0
10
1116.9473799999996000
20
949.2325099999998200
30
0.0
0
VERTEX
8
0
10
1116.9506799999999000
20
949.1850699999995400
30
0.0
0
VERTEX
8
0
10
1116.9545799999996000
20
949.1406100000003800
30
0.0
0
VERTEX
8
0
10
1116.9595900000004000
20
949.0933199999999500
30
0.0
0
VERTEX
8
0
10
1116.9654699999992000
20
949.0461400000003800
30
0.0
0
VERTEX
8
0
10
1116.9722299999994000
20
948.9990699999998500
30
0.0
0
VERTEX
8
0
10
1116.9798699999992000
20
948.9521299999996700
30
0.0
0
VERTEX
8
0
10
1116.9883699999991000
20
948.9053500000009100
30
0.0
0
VERTEX
8
0
10
1116.9977400000007000
20
948.8587299999999200
30
0.0
0
VERTEX
8
0
10
1117.0079800000003000
20
948.8122899999998500
30
0.0
0
VERTEX
8
0
10
1117.0190800000000000
20
948.7660500000001800
30
0.0
0
VERTEX
8
0
10
1117.0310399999998000
20
948.7200300000004100
30
0.0
0
VERTEX
8
0
10
1117.0438500000000000
20
948.6742300000005300
30
0.0
0
VERTEX
8
0
10
1117.0575200000003000
20
948.6286899999995500
30
0.0
0
VERTEX
8
0
10
1117.0720199999996000
20
948.5833999999995300
30
0.0
0
VERTEX
8
0
10
1117.0873699999993000
20
948.5383899999997100
30
0.0
0
VERTEX
8
0
10
1117.1035499999998000
20
948.4936799999995900
30
0.0
0
VERTEX
8
0
10
1117.1205499999996000
20
948.4492699999991600
30
0.0
0
VERTEX
8
0
10
1117.1383800000003000
20
948.4051899999994900
30
0.0
0
VERTEX
8
0
10
1117.1570300000003000
20
948.3614400000005800
30
0.0
0
VERTEX
8
0
10
1117.1764899999998000
20
948.3180499999998600
30
0.0
0
VERTEX
8
0
10
1117.1967499999992000
20
948.2750300000007000
30
0.0
0
VERTEX
8
0
10
1117.2178000000004000
20
948.2324000000007800
30
0.0
0
VERTEX
8
0
10
1117.2396499999995000
20
948.1901600000001100
30
0.0
0
VERTEX
8
0
10
1117.2622800000008000
20
948.1483399999997300
30
0.0
0
VERTEX
8
0
10
1117.2856800000009000
20
948.1069399999996700
30
0.0
0
VERTEX
8
0
10
1117.3098399999999000
20
948.0659899999991500
30
0.0
0
VERTEX
8
0
10
1117.3347699999995000
20
948.0254899999999900
30
0.0
0
VERTEX
8
0
10
1117.3604400000004000
20
947.9854599999998800
30
0.0
0
VERTEX
8
0
10
1117.3868500000008000
20
947.9459200000001100
30
0.0
0
VERTEX
8
0
10
1117.4139899999991000
20
947.9068700000007100
30
0.0
0
VERTEX
8
0
10
1117.4418600000008000
20
947.8683400000009000
30
0.0
0
VERTEX
8
0
10
1117.4704299999994000
20
947.8303300000006900
30
0.0
0
VERTEX
8
0
10
1117.4997100000001000
20
947.7928599999995600
30
0.0
0
VERTEX
8
0
10
1117.5296799999996000
20
947.7559399999991000
30
0.0
0
VERTEX
8
0
10
1117.5603300000002000
20
947.7195800000008600
30
0.0
0
VERTEX
8
0
10
1117.5916500000003000
20
947.6838000000007000
30
0.0
0
VERTEX
8
0
10
1117.6236300000000000
20
947.6486100000001900
30
0.0
0
VERTEX
8
0
10
1117.6562599999997000
20
947.6140200000008900
30
0.0
0
VERTEX
8
0
10
1117.6895199999999000
20
947.5800400000007400
30
0.0
0
VERTEX
8
0
10
1117.7234200000003000
20
947.5466799999994700
30
0.0
0
VERTEX
8
0
10
1117.7579200000000000
20
947.5139699999999700
30
0.0
0
VERTEX
8
0
10
1117.7930300000007000
20
947.4818899999991100
30
0.0
0
VERTEX
8
0
10
1117.8287299999993000
20
947.4504799999995200
30
0.0
0
VERTEX
8
0
10
1117.8650099999995000
20
947.4197399999993600
30
0.0
0
VERTEX
8
0
10
1117.9018500000002000
20
947.3896700000004800
30
0.0
0
VERTEX
8
0
10
1117.9392499999994000
20
947.3603000000002800
30
0.0
0
VERTEX
8
0
10
1117.9771799999999000
20
947.3316200000008400
30
0.0
0
VERTEX
8
0
10
1118.0156399999996000
20
947.3036599999995800
30
0.0
0
VERTEX
8
0
10
1118.0546200000008000
20
947.2764200000001400
30
0.0
0
VERTEX
8
0
10
1118.0940900000005000
20
947.2499000000007100
30
0.0
0
VERTEX
8
0
10
1118.1340500000006000
20
947.2241300000005100
30
0.0
0
VERTEX
8
0
10
1118.1744799999997000
20
947.1990999999998200
30
0.0
0
VERTEX
8
0
10
1118.2153699999999000
20
947.1748299999999300
30
0.0
0
VERTEX
8
0
10
1118.2567099999997000
20
947.1513200000008500
30
0.0
0
VERTEX
8
0
10
1118.2984699999997000
20
947.1285800000005100
30
0.0
0
VERTEX
8
0
10
1118.3406500000001000
20
947.1066300000002200
30
0.0
0
VERTEX
8
0
10
1118.3832299999995000
20
947.0854600000002400
30
0.0
0
VERTEX
8
0
10
1118.4261999999999000
20
947.0650900000000500
30
0.0
0
VERTEX
8
0
10
1118.4695400000001000
20
947.0455199999996700
30
0.0
0
VERTEX
8
0
10
1118.5132400000002000
20
947.0267600000006500
30
0.0
0
VERTEX
8
0
10
1118.5572699999993000
20
947.0088099999993600
30
0.0
0
VERTEX
8
0
10
1118.6016400000008000
20
946.9916900000007400
30
0.0
0
VERTEX
8
0
10
1118.6463100000001000
20
946.9753899999996100
30
0.0
0
VERTEX
8
0
10
1118.6912799999991000
20
946.9599300000009000
30
0.0
0
VERTEX
8
0
10
1118.7365200000004000
20
946.9453099999991500
30
0.0
0
VERTEX
8
0
10
1118.7820400000001000
20
946.9315299999998400
30
0.0
0
VERTEX
8
0
10
1118.8277999999991000
20
946.9186000000008800
30
0.0
0
VERTEX
8
0
10
1118.8737899999996000
20
946.9065200000004600
30
0.0
0
VERTEX
8
0
10
1118.9200000000001000
20
946.8953000000001300
30
0.0
0
VERTEX
8
0
10
1118.9664100000009000
20
946.8849399999999200
30
0.0
0
VERTEX
8
0
10
1119.0130000000008000
20
946.8754499999995500
30
0.0
0
VERTEX
8
0
10
1119.0597699999998000
20
946.8668199999992800
30
0.0
0
VERTEX
8
0
10
1119.1066800000008000
20
946.8590600000006800
30
0.0
0
VERTEX
8
0
10
1119.1537300000000000
20
946.8521799999998600
30
0.0
0
VERTEX
8
0
10
1119.2009099999996000
20
946.8461700000007100
30
0.0
0
VERTEX
8
0
10
1119.2481800000005000
20
946.8410399999993400
30
0.0
0
VERTEX
8
0
10
1119.2955399999992000
20
946.8367999999991300
30
0.0
0
VERTEX
8
0
10
1119.3429799999994000
20
946.8334300000005900
30
0.0
0
VERTEX
8
0
10
1119.3904600000005000
20
946.8309399999998300
30
0.0
0
VERTEX
8
0
10
1119.4379900000004000
20
946.8293400000002300
30
0.0
0
VERTEX
8
0
10
1119.4855399999997000
20
946.8286200000002300
30
0.0
0
VERTEX
8
0
10
1119.5330900000008000
20
946.8287899999995700
30
0.0
0
VERTEX
8
0
10
1119.5806300000004000
20
946.8298400000003300
30
0.0
0
VERTEX
8
0
10
1119.6281400000007000
20
946.8317700000006900
30
0.0
0
VERTEX
8
0
10
1119.6756100000002000
20
946.8345900000003900
30
0.0
0
VERTEX
8
0
10
1119.7230199999995000
20
946.8382899999996900
30
0.0
0
VERTEX
8
0
10
1119.7703500000007000
20
946.8428700000004000
30
0.0
0
VERTEX
8
0
10
1119.8175900000006000
20
946.8483300000007100
30
0.0
0
VERTEX
8
0
10
1119.8647199999996000
20
946.8546600000008800
30
0.0
0
VERTEX
8
0
10
1119.9117200000001000
20
946.8618700000006400
30
0.0
0
VERTEX
8
0
10
1119.9585800000004000
20
946.8699599999999900
30
0.0
0
VERTEX
8
0
10
1120.0052799999994000
20
946.8789099999994500
30
0.0
0
VERTEX
8
0
10
1120.0518100000008000
20
946.8887300000005800
30
0.0
0
VERTEX
8
0
10
1120.0981400000001000
20
946.8994099999999900
30
0.0
0
VERTEX
8
0
10
1120.1442700000007000
20
946.9109599999992500
30
0.0
0
VERTEX
8
0
10
1120.1901799999996000
20
946.9233600000006800
30
0.0
0
VERTEX
8
0
10
1120.2358499999991000
20
946.9366100000006600
30
0.0
0
VERTEX
8
0
10
1120.2812699999995000
20
946.9506999999994200
30
0.0
0
VERTEX
8
0
10
1120.3264099999997000
20
946.9656400000003500
30
0.0
0
VERTEX
8
0
10
1120.3712699999996000
20
946.9814200000000700
30
0.0
0
VERTEX
8
0
10
1120.4158299999999000
20
946.9980300000006500
30
0.0
0
VERTEX
8
0
10
1120.4600699999992000
20
947.0154600000005300
30
0.0
0
VERTEX
8
0
10
1120.5039799999995000
20
947.0337099999997000
30
0.0
0
VERTEX
8
0
10
1120.5475399999996000
20
947.0527700000002400
30
0.0
0
VERTEX
8
0
10
1120.5907399999996000
20
947.0726500000000700
30
0.0
0
VERTEX
8
0
10
1120.6335700000000000
20
947.0933199999999500
30
0.0
0
VERTEX
8
0
10
1120.6759999999995000
20
947.1147799999998800
30
0.0
0
VERTEX
8
0
10
1120.7180300000000000
20
947.1370299999998700
30
0.0
0
VERTEX
8
0
10
1120.7596300000005000
20
947.1600600000001600
30
0.0
0
VERTEX
8
0
10
1120.8008000000009000
20
947.1838499999994400
30
0.0
0
VERTEX
8
0
10
1120.8415199999999000
20
947.2084099999992800
30
0.0
0
VERTEX
8
0
10
1120.8817799999997000
20
947.2337200000001800
30
0.0
0
VERTEX
8
0
10
1120.9215600000007000
20
947.2597800000003200
30
0.0
0
VERTEX
8
0
10
1120.9608499999995000
20
947.2865700000002100
30
0.0
0
VERTEX
8
0
10
1120.9996300000003000
20
947.3140800000001000
30
0.0
0
VERTEX
8
0
10
1121.0378899999996000
20
947.3423100000000000
30
0.0
0
VERTEX
8
0
10
1121.0756299999994000
20
947.3712500000001500
30
0.0
0
VERTEX
8
0
10
1121.1128200000003000
20
947.4008900000008000
30
0.0
0
VERTEX
8
0
10
1121.1494500000008000
20
947.4312100000006500
30
0.0
0
VERTEX
8
0
10
1121.1855099999993000
20
947.4621999999999400
30
0.0
0
VERTEX
8
0
10
1121.2209899999998000
20
947.4938700000002400
30
0.0
0
VERTEX
8
0
10
1121.2558700000009000
20
947.5261800000007500
30
0.0
0
VERTEX
8
0
10
1121.2901500000007000
20
947.5591399999993900
30
0.0
0
VERTEX
8
0
10
1121.3238099999999000
20
947.5927300000003000
30
0.0
0
VERTEX
8
0
10
1121.3568400000004000
20
947.6269400000001000
30
0.0
0
VERTEX
8
0
10
1121.3892199999991000
20
947.6617600000008700
30
0.0
0
VERTEX
8
0
10
1121.4209599999995000
20
947.6971699999994600
30
0.0
0
VERTEX
8
0
10
1121.4520300000004000
20
947.7331699999995200
30
0.0
0
VERTEX
8
0
10
1121.4824200000003000
20
947.7697399999997300
30
0.0
0
VERTEX
8
0
10
1121.5121299999992000
20
947.8068700000003400
30
0.0
0
VERTEX
8
0
10
1121.5411499999991000
20
947.8445499999998000
30
0.0
0
VERTEX
8
0
10
1121.5694500000009000
20
947.8827500000006700
30
0.0
0
VERTEX
8
0
10
1121.5970500000003000
20
947.9214800000008800
30
0.0
0
VERTEX
8
0
10
1121.6239200000000000
20
947.9607099999993800
30
0.0
0
VERTEX
8
0
10
1121.6500500000002000
20
948.0004399999998000
30
0.0
0
VERTEX
8
0
10
1121.6754400000009000
20
948.0406500000008200
30
0.0
0
VERTEX
8
0
10
1121.7000800000005000
20
948.0813199999993200
30
0.0
0
VERTEX
8
0
10
1121.7239599999994000
20
948.1224399999991900
30
0.0
0
VERTEX
8
0
10
1121.7470699999994000
20
948.1640000000006700
30
0.0
0
VERTEX
8
0
10
1121.7694100000008000
20
948.2059800000006400
30
0.0
0
VERTEX
8
0
10
1121.7909600000003000
20
948.2483699999993400
30
0.0
0
VERTEX
8
0
10
1121.8117199999997000
20
948.2911499999991100
30
0.0
0
VERTEX
8
0
10
1121.8316799999993000
20
948.3343100000001900
30
0.0
0
VERTEX
8
0
10
1121.8508299999994000
20
948.3778299999994500
30
0.0
0
VERTEX
8
0
10
1121.8691699999999000
20
948.4217100000005300
30
0.0
0
VERTEX
8
0
10
1121.8866899999994000
20
948.4659100000008000
30
0.0
0
VERTEX
8
0
10
1121.9033899999995000
20
948.5104400000000200
30
0.0
0
VERTEX
8
0
10
1121.9192600000006000
20
948.5552700000007500
30
0.0
0
VERTEX
8
0
10
1121.9342899999992000
20
948.6003799999998600
30
0.0
0
VERTEX
8
0
10
1121.9484799999991000
20
948.6457699999991700
30
0.0
0
VERTEX
8
0
10
1121.9618200000004000
20
948.6914099999994500
30
0.0
0
VERTEX
8
0
10
1121.9743099999996000
20
948.7372899999991200
30
0.0
0
VERTEX
8
0
10
1121.9859500000002000
20
948.7834000000002600
30
0.0
0
VERTEX
8
0
10
1121.9967199999992000
20
948.8297099999999800
30
0.0
0
VERTEX
8
0
10
1122.0066399999996000
20
948.8762200000001000
30
0.0
0
VERTEX
8
0
10
1122.0156900000002000
20
948.9228999999995700
30
0.0
0
VERTEX
8
0
10
1122.0238700000009000
20
948.9697500000002000
30
0.0
0
VERTEX
8
0
10
1122.0311700000002000
20
949.0167299999993700
30
0.0
0
VERTEX
8
0
10
1122.0375999999997000
20
949.0638500000004600
30
0.0
0
VERTEX
8
0
10
1122.0431599999993000
20
949.1110800000005800
30
0.0
0
VERTEX
8
0
10
1122.0478299999995000
20
949.1584000000002600
30
0.0
0
VERTEX
8
0
10
1122.0516299999999000
20
949.2057999999997300
30
0.0
0
VERTEX
8
0
10
1122.0545399999992000
20
949.2532599999995000
30
0.0
0
VERTEX
8
0
10
1122.0565700000006000
20
949.3007699999998300
30
0.0
0
VERTEX
8
0
10
1122.0577200000007000
20
949.3483099999994000
30
0.0
0
VERTEX
8
0
10
1122.0579799999996000
20
949.3958600000005400
30
0.0
0
VERTEX
8
0
10
1122.0573600000007000
20
949.4434099999998600
30
0.0
0
VERTEX
8
0
10
1122.0558500000006000
20
949.4909399999996800
30
0.0
0
VERTEX
8
0
10
1122.0534599999992000
20
949.5384300000005200
30
0.0
0
VERTEX
8
0
10
1122.0501899999999000
20
949.5858700000008000
30
0.0
0
VERTEX
8
0
10
1122.0460399999993000
20
949.6332399999992000
30
0.0
0
VERTEX
8
0
10
1122.0410100000008000
20
949.6805199999998900
30
0.0
0
VERTEX
8
0
10
1122.0350999999991000
20
949.7277099999992100
30
0.0
0
VERTEX
8
0
10
1122.0283099999997000
20
949.7747699999999900
30
0.0
0
VERTEX
8
0
10
1122.0206500000004000
20
949.8217000000004200
30
0.0
0
VERTEX
8
0
10
1122.0121099999997000
20
949.8684900000007500
30
0.0
0
VERTEX
8
0
10
1122.0027100000007000
20
949.9151000000001700
30
0.0
0
VERTEX
8
0
10
1121.9924499999997000
20
949.9615300000004900
30
0.0
0
VERTEX
8
0
10
1121.9813200000008000
20
950.0077600000004200
30
0.0
0
VERTEX
8
0
10
1121.9693399999996000
20
950.0537800000001900
30
0.0
0
VERTEX
8
0
10
1121.9565000000002000
20
950.0995700000003100
30
0.0
0
VERTEX
8
0
10
1121.9428100000005000
20
950.1451099999994800
30
0.0
0
VERTEX
8
0
10
1121.9282800000001000
20
950.1903800000000000
30
0.0
0
VERTEX
8
0
10
1121.9129099999991000
20
950.2353800000000800
30
0.0
0
VERTEX
8
0
10
1121.8966999999993000
20
950.2800900000002000
30
0.0
0
VERTEX
8
0
10
1121.8796700000003000
20
950.3244900000008800
30
0.0
0
VERTEX
8
0
10
1121.8618200000001000
20
950.3685600000008000
30
0.0
0
VERTEX
8
0
10
1121.8431400000009000
20
950.4122900000002100
30
0.0
0
VERTEX
8
0
10
1121.8236600000000000
20
950.4556699999993700
30
0.0
0
VERTEX
8
0
10
1121.8033799999994000
20
950.4986800000006000
30
0.0
0
VERTEX
8
0
10
1121.7823000000008000
20
950.5413000000007700
30
0.0
0
VERTEX
8
0
10
1121.7604300000003000
20
950.5835299999998800
30
0.0
0
VERTEX
8
0
10
1121.7377799999995000
20
950.6253400000005100
30
0.0
0
VERTEX
8
0
10
1121.7143500000002000
20
950.6667199999992600
30
0.0
0
VERTEX
8
0
10
1121.6901600000001000
20
950.7076600000000300
30
0.0
0
VERTEX
8
0
10
1121.6652099999992000
20
950.7481499999994400
30
0.0
0
VERTEX
8
0
10
1121.6395200000006000
20
950.7881600000000600
30
0.0
0
VERTEX
8
0
10
1121.6130900000007000
20
950.8276900000000800
30
0.0
0
VERTEX
8
0
10
1121.5859199999995000
20
950.8667100000002400
30
0.0
0
VERTEX
8
0
10
1121.5580399999999000
20
950.9052300000003000
30
0.0
0
VERTEX
8
0
10
1121.5294400000002000
20
950.9432199999992000
30
0.0
0
VERTEX
8
0
10
1121.5001400000001000
20
950.9806800000005800
30
0.0
0
VERTEX
8
0
10
1121.4701499999992000
20
951.0175799999997300
30
0.0
0
VERTEX
8
0
10
1121.4394799999991000
20
951.0539200000002900
30
0.0
0
VERTEX
8
0
10
1121.4081399999995000
20
951.0896799999991300
30
0.0
0
VERTEX
8
0
10
1121.3761400000003000
20
951.1248599999999000
30
0.0
0
VERTEX
8
0
10
1121.3434899999993000
20
951.1594299999997000
30
0.0
0
VERTEX
8
0
10
1121.3101999999999000
20
951.1933900000003600
30
0.0
0
VERTEX
8
0
10
1121.2762899999998000
20
951.2267300000003200
30
0.0
0
VERTEX
8
0
10
1121.2417700000005000
20
951.2594300000000700
30
0.0
0
VERTEX
8
0
10
1121.2066400000003000
20
951.2914799999998600
30
0.0
0
VERTEX
8
0
10
1121.1709200000005000
20
951.3228699999999700
30
0.0
0
VERTEX
8
0
10
1121.1346300000005000
20
951.3535900000006200
30
0.0
0
VERTEX
8
0
10
1121.0977700000003000
20
951.3836400000000100
30
0.0
0
VERTEX
8
0
10
1121.0603599999995000
20
951.4129900000007200
30
0.0
0
VERTEX
8
0
10
1121.0224099999996000
20
951.4416399999991000
30
0.0
0
VERTEX
8
0
10
1120.9839300000003000
20
951.4695800000008600
30
0.0
0
VERTEX
8
0
10
1120.9449399999994000
20
951.4968000000008000
30
0.0
0
VERTEX
8
0
10
1120.9054500000002000
20
951.5233000000007500
30
0.0
0
VERTEX
8
0
10
1120.8654700000006000
20
951.5490499999996200
30
0.0
0
VERTEX
8
0
10
1120.8250300000000000
20
951.5740499999992600
30
0.0
0
VERTEX
8
0
10
1120.7841200000003000
20
951.5982999999996500
30
0.0
0
VERTEX
8
0
10
1120.7427700000007000
20
951.6217899999992400
30
0.0
0
VERTEX
8
0
10
1120.7009999999991000
20
951.6445000000003300
30
0.0
0
VERTEX
8
0
10
1120.6587999999992000
20
951.6664299999993100
30
0.0
0
VERTEX
8
0
10
1120.6162100000001000
20
951.6875700000000500
30
0.0
0
VERTEX
8
0
10
1120.5732300000000000
20
951.7079200000007400
30
0.0
0
VERTEX
8
0
10
1120.5298800000000000
20
951.7274699999998100
30
0.0
0
VERTEX
8
0
10
1120.4861799999999000
20
951.7461999999995900
30
0.0
0
VERTEX
8
0
10
1120.4421299999995000
20
951.7641199999998200
30
0.0
0
VERTEX
8
0
10
1120.3977599999998000
20
951.7812200000007600
30
0.0
0
VERTEX
8
0
10
1120.3530699999992000
20
951.7974900000008300
30
0.0
0
VERTEX
8
0
10
1120.3081000000002000
20
951.8129200000003000
30
0.0
0
VERTEX
8
0
10
1120.2628399999994000
20
951.8275200000007300
30
0.0
0
VERTEX
8
0
10
1120.2173199999997000
20
951.8412800000005500
30
0.0
0
VERTEX
8
0
10
1120.1715499999991000
20
951.8541800000002700
30
0.0
0
VERTEX
8
0
10
1120.1255500000007000
20
951.8662299999996300
30
0.0
0
VERTEX
8
0
10
1120.0793400000002000
20
951.8774300000004600
30
0.0
0
VERTEX
8
0
10
1120.0329199999996000
20
951.8877599999996200
30
0.0
0
VERTEX
8
0
10
1119.9863200000000000
20
951.8972300000004900
30
0.0
0
VERTEX
8
0
10
1119.9395499999991000
20
951.9058299999997000
30
0.0
0
VERTEX
8
0
10
1119.8926300000003000
20
951.9135600000008700
30
0.0
0
VERTEX
8
0
10
1119.8455799999992000
20
951.9204100000006300
30
0.0
0
VERTEX
8
0
10
1119.7983999999997000
20
951.9263900000005400
30
0.0
0
VERTEX
8
0
10
1119.7511200000008000
20
951.9314900000008500
30
0.0
0
VERTEX
8
0
10
1119.7037600000003000
20
951.9357199999994900
30
0.0
0
VERTEX
8
0
10
1119.6563299999998000
20
951.9390600000006100
30
0.0
0
VERTEX
8
0
10
1119.6088400000008000
20
951.9415200000003100
30
0.0
0
VERTEX
8
0
10
1119.5613099999991000
20
951.9430900000006700
30
0.0
0
VERTEX
8
0
10
1119.5137599999998000
20
951.9437799999996100
30
0.0
0
VERTEX
8
0
10
1119.4662100000005000
20
951.9435900000007700
30
0.0
0
VERTEX
8
0
10
1119.4186699999991000
20
951.9425100000007700
30
0.0
0
VERTEX
8
0
10
1119.3711600000006000
20
951.9405499999993500
30
0.0
0
VERTEX
8
0
10
1119.3236899999993000
20
951.9377100000001500
30
0.0
0
VERTEX
8
0
10
1119.2762899999998000
20
951.9339799999997900
30
0.0
0
VERTEX
8
0
10
1119.2289600000004000
20
951.9293699999998400
30
0.0
0
VERTEX
8
0
10
1119.1817200000005000
20
951.9238900000000300
30
0.0
0
VERTEX
8
0
10
1119.1345999999994000
20
951.9175200000008800
30
0.0
0
VERTEX
8
0
10
1119.0876000000007000
20
951.9102899999998000
30
0.0
0
VERTEX
8
0
10
1119.0407400000004000
20
951.9021799999991300
30
0.0
0
VERTEX
8
0
10
1118.9940499999993000
20
951.8932000000004300
30
0.0
0
VERTEX
8
0
10
1118.9475299999995000
20
951.8833500000000600
30
0.0
0
VERTEX
8
0
10
1118.9011900000005000
20
951.8726399999995900
30
0.0
0
VERTEX
8
0
10
1118.8550699999996000
20
951.8610700000008400
30
0.0
0
VERTEX
8
0
10
1118.8091700000004000
20
951.8486400000001600
30
0.0
0
VERTEX
8
0
10
1118.7635100000007000
20
951.8353700000006900
30
0.0
0
VERTEX
8
0
10
1118.7181000000000000
20
951.8212399999993100
30
0.0
0
VERTEX
8
0
10
1118.6729699999996000
20
951.8062800000007000
30
0.0
0
VERTEX
8
0
10
1118.6281199999994000
20
951.7904799999996600
30
0.0
0
VERTEX
8
0
10
1118.5835700000007000
20
951.7738499999995800
30
0.0
0
VERTEX
8
0
10
1118.5393399999994000
20
951.7563900000004700
30
0.0
0
VERTEX
8
0
10
1118.4954400000006000
20
951.7381100000002300
30
0.0
0
VERTEX
8
0
10
1118.4518800000005000
20
951.7190200000004600
30
0.0
0
VERTEX
8
0
10
1118.4086900000002000
20
951.6991300000008800
30
0.0
0
VERTEX
8
0
10
1118.3658799999994000
20
951.6784299999999300
30
0.0
0
VERTEX
8
0
10
1118.3234599999996000
20
951.6569400000007600
30
0.0
0
VERTEX
8
0
10
1118.2814500000004000
20
951.6346699999994600
30
0.0
0
VERTEX
8
0
10
1118.2398599999997000
20
951.6116199999996800
30
0.0
0
VERTEX
8
0
10
1118.1987000000008000
20
951.5877999999993300
30
0.0
0
VERTEX
8
0
10
1118.1579899999997000
20
951.5632200000000000
30
0.0
0
VERTEX
8
0
10
1118.1177499999994000
20
951.5378799999998600
30
0.0
0
VERTEX
8
0
10
1118.0779899999998000
20
951.5118099999999700
30
0.0
0
VERTEX
8
0
10
1118.0387100000007000
20
951.4849900000008300
30
0.0
0
VERTEX
8
0
10
1117.9999499999994000
20
951.4574599999996300
30
0.0
0
VERTEX
8
0
10
1117.9616999999998000
20
951.4292000000004900
30
0.0
0
VERTEX
8
0
10
1117.9239799999996000
20
951.4002400000008500
30
0.0
0
VERTEX
8
0
10
1117.8868100000000000
20
951.3705900000004500
30
0.0
0
VERTEX
8
0
10
1117.8502000000008000
20
951.3402499999992900
30
0.0
0
VERTEX
8
0
10
1117.8141500000002000
20
951.3092300000007500
30
0.0
0
VERTEX
8
0
10
1117.7786899999992000
20
951.2775500000007000
30
0.0
0
VERTEX
8
0
10
1117.7438299999994000
20
951.2452099999991300
30
0.0
0
VERTEX
8
0
10
1117.7095700000009000
20
951.2122299999991800
30
0.0
0
VERTEX
8
0
10
1117.6759299999994000
20
951.1786200000005900
30
0.0
0
VERTEX
8
0
10
1117.6429200000002000
20
951.1443899999994800
30
0.0
0
VERTEX
8
0
10
1117.6105499999994000
20
951.1095600000007800
30
0.0
0
VERTEX
8
0
10
1117.5788400000001000
20
951.0741199999993100
30
0.0
0
VERTEX
8
0
10
1117.5477900000005000
20
951.0381099999995100
30
0.0
0
VERTEX
8
0
10
1117.5174200000001000
20
951.0015199999998000
30
0.0
0
VERTEX
8
0
10
1117.4877300000007000
20
950.9643699999996900
30
0.0
0
VERTEX
8
0
10
1117.4587300000003000
20
950.9266800000004900
30
0.0
0
VERTEX
8
0
10
1117.4304499999998000
20
950.8884600000001200
30
0.0
0
VERTEX
8
0
10
1117.4028799999996000
20
950.8497200000001600
30
0.0
0
VERTEX
8
0
10
1117.3760299999994000
20
950.8104700000003500
30
0.0
0
VERTEX
8
0
10
1117.3499200000006000
20
950.7707300000001900
30
0.0
0
VERTEX
8
0
10
1117.3245499999994000
20
950.7305099999994100
30
0.0
0
VERTEX
8
0
10
1117.2999299999992000
20
950.6898199999996000
30
0.0
0
VERTEX
8
0
10
1117.2760699999999000
20
950.6486899999999900
30
0.0
0
VERTEX
8
0
10
1117.2529900000009000
20
950.6071100000008300
30
0.0
0
VERTEX
8
0
10
1117.2306800000006000
20
950.5651199999993000
30
0.0
0
VERTEX
8
0
10
1117.2091500000006000
20
950.5227200000008500
30
0.0
0
VERTEX
8
0
10
1117.1884200000004000
20
950.4799199999997700
30
0.0
0
VERTEX
8
0
10
1117.1684800000003000
20
950.4367500000007600
30
0.0
0
VERTEX
8
0
10
1117.1493499999997000
20
950.3932199999999300
30
0.0
0
VERTEX
8
0
10
1117.1310400000002000
20
950.3493299999991000
30
0.0
0
VERTEX
8
0
10
1117.1135400000003000
20
950.3051200000009000
30
0.0
0
VERTEX
8
0
10
1117.0968699999994000
20
950.2605800000001200
30
0.0
0
VERTEX
8
0
10
1117.0810299999994000
20
950.2157499999993900
30
0.0
0
VERTEX
8
0
10
1117.0660200000002000
20
950.1706200000007800
30
0.0
0
VERTEX
8
0
10
1117.0518599999996000
20
950.1252299999996500
30
0.0
0
VERTEX
8
0
10
1117.0385499999993000
20
950.0795799999996200
30
0.0
0
VERTEX
8
0
10
1117.0260799999996000
20
950.0336900000002100
30
0.0
0
VERTEX
8
0
10
1117.0144700000001000
20
949.9875800000008900
30
0.0
0
VERTEX
8
0
10
1117.0037200000006000
20
949.9412599999996000
30
0.0
0
VERTEX
8
0
10
1116.9938299999994000
20
949.8947399999997300
30
0.0
0
VERTEX
8
0
10
1116.9848099999999000
20
949.8480600000002600
30
0.0
0
VERTEX
8
0
10
1116.9766600000003000
20
949.8012099999996300
30
0.0
0
VERTEX
8
0
10
1116.9693800000005000
20
949.7542099999991500
30
0.0
0
VERTEX
8
0
10
1116.9629700000005000
20
949.7070999999996300
30
0.0
0
VERTEX
8
0
10
1116.9574499999999000
20
949.6598699999995000
30
0.0
0
VERTEX
8
0
10
1116.9527999999991000
20
949.6125400000000800
30
0.0
0
VERTEX
8
0
10
1116.9490299999998000
20
949.5651400000006100
30
0.0
0
VERTEX
8
0
10
1116.9461400000000000
20
949.5176699999992700
30
0.0
0
VERTEX
8
0
10
1116.9441399999996000
20
949.4701600000007600
30
0.0
0
SEQEND
8
0
0
POLYLINE
8
0
66
1
70
1
10
0.0
20
0.0
30
0.0
1001
CGISCE_GIS_2000
1000
1119876363
0
VERTEX
8
0
10
1121.0864799999999000
20
977.6091300000007300
30
0.0
0
VERTEX
8
0
10
1122.7652799999996000
20
979.4130600000007700
30
0.0
0
VERTEX
8
0
10
1123.1388000000006000
20
979.1344300000000700
30
0.0
0
VERTEX
8
0
10
1123.1842400000005000
20
978.9240699999991200
30
0.0
0
VERTEX
8
0
10
1121.3136200000008000
20
976.7821600000006600
30
0.0
0
VERTEX
8
0
10
1121.1740100000006000
20
976.8668500000003400
30
0.0
0
SEQEND
8
0
0
POLYLINE
8
0
66
1
70
1
10
0.0
20
0.0
30
0.0
1001
CGISCE_GIS_2000
1000
1119876364
0
VERTEX
8
0
10
1126.0660700000008000
20
984.4360699999997500
30
0.0
0
VERTEX
8
0
10
1126.8561399999999000
20
985.0059999999994000
30
0.0
0
VERTEX
8
0
10
1135.4714299999996000
20
978.5622999999996000
30
0.0
0
VERTEX
8
0
10
1134.9305800000002000
20
977.8139499999997500
30
0.0
0
VERTEX
8
0
10
1130.2882000000009000
20
972.3948099999997800
30
0.0
0
VERTEX
8
0
10
1129.7790499999992000
20
972.4441900000001600
30
0.0
0
VERTEX
8
0
10
1129.6530199999997000
20
972.5418000000008800
30
0.0
0
VERTEX
8
0
10
1134.3871299999992000
20
978.1963500000001700
30
0.0
0
VERTEX
8
0
10
1132.8992300000009000
20
979.3588899999995200
30
0.0
0
VERTEX
8
0
10
1132.5894000000008000
20
978.9753799999998600
30
0.0
0
VERTEX
8
0
10
1131.9125499999991000
20
979.3950700000004900
30
0.0
0
VERTEX
8
0
10
1132.2436199999993000
20
979.7970499999992200
30
0.0
0
VERTEX
8
0
10
1132.2708700000003000
20
979.8302000000003300
30
0.0
0
VERTEX
8
0
10
1129.4081499999993000
20
981.9626299999999900
30
0.0
0
VERTEX
8
0
10
1128.8441800000001000
20
981.4042000000008600
30
0.0
0
VERTEX
8
0
10
1128.2468000000008000
20
981.8420399999995400
30
0.0
0
VERTEX
8
0
10
1128.6662199999992000
20
982.4274700000005400
30
0.0
0
SEQEND
8
0
0
POINT
8
PNTS
10
1095.1126128859441000
20
991.9682082176402700
30
19.9992142343485320
0
POINT
8
PNTS
10
1094.0048016747699000
20
990.1596499147176500
30
20.0070354828547220
0
POINT
8
PNTS
10
1093.4226891351768000
20
989.4137052191841800
30
20.0774929797988020
0
POINT
8
PNTS
10
1095.9261592551422000
20
991.3573817254490500
30
20.0370458964312770
0
POINT
8
PNTS
10
1095.3670895911062000
20
990.5073558952154800
30
20.0252498049424470
0
POINT
8
PNTS
10
1094.7721483965167000
20
989.7043199565404200
30
20.0401937785772120
0
POINT
8
PNTS
10
1094.3015757840981000
20
988.9041294901597900
30
20.0981133526003220
0
POINT
8
PNTS
10
1096.8368583205254000
20
990.6555541432666100
30
20.0211138463047860
0
POINT
8
PNTS
10
1096.1972840671438000
20
989.9112061171603000
30
20.0117175096307850
0
POINT
8
PNTS
10
1095.7322324823208000
20
989.1633767797757200
30
19.9474509295673490
0
POINT
8
PNTS
10
1095.0601331476682000
20
988.3182787377431900
30
19.9769133399298720
0
POINT
8
PNTS
10
1096.9779418668581000
20
989.3789439255938300
30
20.0066572642668030
0
POINT
8
PNTS
10
1096.5492434246792000
20
988.6555525157094700
30
19.9790689411798470
0
POINT
8
PNTS
10
1095.9166873632905000
20
987.7768169927775300
30
20.0213141650612880
0
POINT
8
PNTS
10
1097.8947573828336000
20
988.7846925409161300
30
19.9726398574738120
0
POINT
8
PNTS
10
1097.3158398799337000
20
987.9541216287526600
30
19.9854395477881400
0
POINT
8
PNTS
10
1096.5677930072616000
20
987.1942052102583600
30
19.9769521083113370
0
POINT
8
PNTS
10
1098.6019765820758000
20
988.1725905695653900
30
19.9747317762954890
0
POINT
8
PNTS
10
1098.0842312965840000
20
987.3975413173379800
30
19.9869210267704600
0
POINT
8
PNTS
10
1097.4199663346078000
20
986.5368745292083800
30
19.9563767010125730
0
POINT
8
PNTS
10
1095.8003234923256000
20
1002.6905171302130000
30
19.5311278720191200
0
POINT
8
PNTS
10
1092.2231393094960000
20
1002.7297919191312000
30
19.4354205614308810
0
POINT
8
PNTS
10
1092.2262552751374000
20
1002.7396504748016000
30
19.4362793355272460
0
POINT
8
PNTS
10
1095.5707386742374000
20
1003.0555974250526000
30
19.4335356539771810
0
POINT
8
PNTS
10
1105.3364610430167000
20
990.2887128136088700
30
18.7422832956710150
0
POINT
8
PNTS
10
1105.4813597602138000
20
990.8048005007299300
30
18.4796750280559120
0
POINT
8
PNTS
10
1111.4703557219484000
20
985.8607297160434700
30
18.7504440542640860
0
POINT
8
PNTS
10
1114.9061328979219000
20
991.6385874281201000
30
18.5855071563386540
0
POINT
8
PNTS
10
1105.1095925020650000
20
989.8694976162618100
30
18.8884216541828420
0
POINT
8
PNTS
10
1095.9987256434861000
20
1001.6638348708825000
30
19.5430139087274920
0
POINT
8
PNTS
10
1113.6694422525757000
20
989.5319366841373500
30
18.5906141742453210
0
POINT
8
PNTS
10
1124.7693999999999000
20
988.8636000000000200
30
50.0774000000000040
0
POINT
8
PNTS
10
1094.0832412368320000
20
989.1952795294329200
30
20.0027316432060260
0
POINT
8
PNTS
10
1094.6514813258996000
20
990.3057862839557400
30
19.9730873835456530
0
POINT
8
PNTS
10
1095.2718994507059000
20
989.9508636989854700
30
19.9615971429560590
0
POINT
8
PNTS
10
1094.2315391548414000
20
988.2334588933193800
30
20.0302502079823020
0
POINT
8
PNTS
10
1109.6564033986783000
20
985.0713238517714700
30
18.8220512938473770
0
POINT
8
PNTS
10
1091.6470568432030000
20
1003.5220759246823000
30
19.4109604356555500
0
POINT
8
PNTS
10
1095.6639442839244000
20
989.7492337605623300
30
19.9369774109664920
0
POINT
8
PNTS
10
1105.9860853158150000
20
990.2900634002668300
30
18.6775140854980680
0
POINT
8
PNTS
10
1104.4410599209291000
20
988.1072767592514800
30
18.8019900024941040
0
POINT
8
PNTS
10
1105.9774405399207000
20
993.3654561162985600
30
18.4642782862917730
0
POINT
8
PNTS
10
1106.3429846073795000
20
993.8023201294468000
30
18.5595629286245620
0
POINT
8
PNTS
10
1106.6762020085382000
20
994.1015573763402200
30
18.5961560188936910
0
POINT
8
PNTS
10
1106.9379450961601000
20
994.4420880339470200
30
18.6620373899078980
0
POINT
8
PNTS
10
1106.4058850709057000
20
992.9696762525239800
30
18.4826979315985370
0
POINT
8
PNTS
10
1106.7198809628208000
20
993.3819218183683700
30
18.4571679389354730
0
POINT
8
PNTS
10
1107.0466097153771000
20
993.7632433302301300
30
18.5932595349487250
0
POINT
8
PNTS
10
1107.3172979693484000
20
994.1548083606736600
30
18.6432314884886030
0
POINT
8
PNTS
10
1106.7596967578706000
20
992.6460184296652200
30
18.5268961319376150
0
POINT
8
PNTS
10
1107.1050582342546000
20
993.0545926805579000
30
18.5562104548839560
0
POINT
8
PNTS
10
1107.4257796500494000
20
993.4409793950503600
30
18.6006478126464470
0
POINT
8
PNTS
10
1107.7191159912479000
20
993.8395276480881600
30
18.6519903548706480
0
POINT
8
PNTS
10
1107.1667657552468000
20
992.3316700872616100
30
18.5255281688603330
0
POINT
8
PNTS
10
1107.4411800364599000
20
992.7315694218306100
30
18.5647375554809850
0
POINT
8
PNTS
10
1092.3058830866753000
20
1002.9827661300515000
30
19.3891092777292680
0
POINT
8
PNTS
10
1107.8199827111885000
20
993.1559053781984400
30
18.5667295033513650
0
POINT
8
PNTS
10
1108.1159947449739000
20
993.5437360503704000
30
18.6860182346865780
0
POINT
8
PNTS
10
1107.5578519986107000
20
992.0194380011687400
30
18.5456601187572150
0
POINT
8
PNTS
10
1107.8697534876342000
20
992.4017635753738200
30
18.6059977705245140
0
POINT
8
PNTS
10
1108.1819463115371000
20
992.7833817071002600
30
18.6165245262027700
0
POINT
8
PNTS
10
1108.5208229359368000
20
993.2393003576929700
30
18.6934330201428550
0
POINT
8
PNTS
10
1107.9654240057775000
20
991.7245860990041100
30
18.5630354253092200
0
POINT
8
PNTS
10
1108.2730834290862000
20
992.0779932939567500
30
18.6277686631488880
0
POINT
8
PNTS
10
1108.5976613043065000
20
992.5339678294440100
30
18.6653419289698480
0
POINT
8
PNTS
10
1108.9131446580266000
20
992.9372020375710700
30
18.6507850461764200
0
POINT
8
PNTS
10
1108.3541178905034000
20
991.4642906045025900
30
18.6201176160721960
0
POINT
8
PNTS
10
1108.6183643626159000
20
991.8007128397048300
30
18.6228339698699690
0
POINT
8
PNTS
10
1109.0062012485600000
20
992.2404895910710800
30
18.6496084886760940
0
POINT
8
PNTS
10
1109.3248945005666000
20
992.6551004815438500
30
18.6384066381554590
0
POINT
8
PNTS
10
1104.2946903953366000
20
987.9964442559140700
30
18.7881632527657660
0
POINT
8
PNTS
10
1096.1790614259685000
20
988.7422298800845500
30
19.9493006352182360
0
POINT
8
PNTS
10
1097.2205942452720000
20
989.1413323693685700
30
19.9584683315036950
0
POINT
8
PNTS
10
1096.7211638203939000
20
989.3462985053826100
30
19.9544823165505850
0
POINT
8
PNTS
10
1092.1333199679937000
20
1003.4366798117680000
30
19.4401861552324390
0
POINT
8
PNTS
10
1092.1380716728729000
20
1003.2972078212163000
30
19.3596676629611970
0
POINT
8
PNTS
10
1092.4200181454116000
20
1003.6391043712936000
30
19.4011588611281920
0
POINT
8
PNTS
10
1092.6362651437169000
20
1003.2410694994841000
30
19.3584128689268980
0
POINT
8
PNTS
10
1101.6261627489459000
20
991.5862164945311900
30
18.9527437108819400
0
POINT
8
PNTS
10
1102.0339393948389000
20
991.2648263131499100
30
18.9610815245645700
0
POINT
8
PNTS
10
1102.5911418201379000
20
990.9605379515860500
30
18.9294610658923900
0
POINT
8
PNTS
10
1100.4690681468505000
20
990.1677704557741900
30
18.9692157839979780
0
POINT
8
PNTS
10
1100.8068842904540000
20
990.5292273588602300
30
18.9199537293582090
0
POINT
8
PNTS
10
1100.8394569932659000
20
989.8327882104176800
30
18.9875540843436430
0
POINT
8
PNTS
10
1101.1646689786221000
20
990.2326067083715800
30
18.8786242810383020
0
POINT
8
PNTS
10
1101.2665491337848000
20
989.5451117393797600
30
19.0012279592521230
0
POINT
8
PNTS
10
1101.5273826948969000
20
989.9697598506070300
30
18.8794759061901410
0
POINT
8
PNTS
10
1099.4974580122523000
20
985.9481507435366400
30
20.0089589337410380
0
POINT
8
PNTS
10
1098.9919759873674000
20
986.4986902898842800
30
20.0090803845792740
0
POINT
8
PNTS
10
1098.0222120046958000
20
985.7792757999583300
30
19.9880760234765520
0
POINT
8
PNTS
10
1098.6462610903634000
20
985.0228121765741200
30
19.9573702148729060
0
POINT
8
PNTS
10
1098.5256605496616000
20
985.3165226435245400
30
19.7670400539746820
0
POINT
8
PNTS
10
1098.2273425232618000
20
985.6215435548357400
30
19.7713138895255900
0
POINT
8
PNTS
10
1097.3771653975753000
20
984.8138332404262200
30
19.8022051843878510
0
POINT
8
PNTS
10
1097.6678410998870000
20
984.4403054873485000
30
19.9093417002575140
0
POINT
8
PNTS
10
1134.4700000000000000
20
953.4180999999999800
30
20.8500000000000010
0
POINT
8
PNTS
10
1124.7693999999999000
20
988.8636000000000200
30
19.8734000000000000
0
ENDSEC
0
EOF
