  0
SECTION
  2
HEADER
  9
$PDMODE
 70
   34
  9
$PDSIZE
 40
   -3.0
  0
ENDSEC
  0
SECTION
  2
TABLES
  0
TABLE
  2
LTYPE
 70
 1
  0
LTYPE
  2
CONTINUOUS
  70
 64
  3
Solid line
  72
 65
 73
 0
  40
 0.0
  0
ENDTAB
  0
TABLE
  2
LAYER
 70
 1
 0
LAYER
  2
Default
  70
 0
 62
 7
  6
CONTINUOUS
  0
ENDTAB
  0 
ENDSEC
  0
SECTION
  2
ENTITIES
  0
POINT
  8
Default
 62
255
 10
     1091.839745
 20
      988.948613
 30
       19.656791
  0
POINT
  8
Default
 62
255
 10
     1091.145526
 20
      988.161420
 30
       19.993518
  0
POINT
  8
Default
 62
255
 10
     1090.438233
 20
      988.662724
 30
       19.926200
  0
POINT
  8
Default
 62
255
 10
     1090.971496
 20
      989.449243
 30
       19.756491
  0
POINT
  8
Default
 62
255
 10
     1091.683278
 20
      989.142194
 30
       19.643656
  0
POINT
  8
Default
 62
255
 10
     1091.501126
 20
      989.250157
 30
       19.637290
  0
POINT
  8
Default
 62
255
 10
     1091.230372
 20
      989.404114
 30
       19.635334
  0
POINT
  8
Default
 62
255
 10
     1090.977661
 20
      989.332379
 30
       19.755229
  0
POINT
  8
Default
 62
255
 10
     1090.864586
 20
      989.263573
 30
       19.759204
  0
POINT
  8
Default
 62
255
 10
     1090.780782
 20
      989.171271
 30
       19.800412
  0
POINT
  8
Default
 62
255
 10
     1090.693456
 20
      989.106658
 30
       19.901827
  0
POINT
  8
Default
 62
255
 10
     1090.614044
 20
      988.943928
 30
       19.901812
  0
POINT
  8
Default
 62
255
 10
     1090.490798
 20
      988.724183
 30
       19.912906
  0
POINT
  8
Default
 62
255
 10
     1091.794897
 20
      988.834065
 30
       19.643950
  0
POINT
  8
Default
 62
255
 10
     1091.742441
 20
      988.746169
 30
       19.586089
  0
POINT
  8
Default
 62
255
 10
     1091.373463
 20
      988.324114
 30
       19.473570
  0
POINT
  8
Default
 62
255
 10
     1091.449186
 20
      988.401106
 30
       19.479979
  0
POINT
  8
Default
 62
255
 10
     1091.546285
 20
      988.527622
 30
       19.486768
  0
POINT
  8
Default
 62
255
 10
     1091.581936
 20
      988.642984
 30
       19.479281
  0
POINT
  8
Default
 62
255
 10
     1091.661572
 20
      988.678910
 30
       19.508074
  0
POINT
  8
Default
 62
255
 10
     1091.611328
 20
      988.719651
 30
       19.487193
  0
POINT
  8
Default
 62
255
 10
     1091.595205
 20
      988.888314
 30
       19.513205
  0
POINT
  8
Default
 62
255
 10
     1091.570657
 20
      988.993278
 30
       19.545541
  0
POINT
  8
Default
 62
255
 10
     1091.513208
 20
      989.073038
 30
       19.536589
  0
POINT
  8
Default
 62
255
 10
     1091.419440
 20
      989.173418
 30
       19.499610
  0
POINT
  8
Default
 62
255
 10
     1091.245813
 20
      989.211035
 30
       19.466341
  0
POINT
  8
Default
 62
255
 10
     1091.034118
 20
      989.194545
 30
       19.480600
  0
POINT
  8
Default
 62
255
 10
     1090.930174
 20
      989.133375
 30
       19.437760
  0
POINT
  8
Default
 62
255
 10
     1090.804348
 20
      988.991575
 30
       19.378704
  0
POINT
  8
Default
 62
255
 10
     1090.753064
 20
      988.850840
 30
       19.275453
  0
POINT
  8
Default
 62
255
 10
     1090.701779
 20
      988.787914
 30
       19.411344
  0
POINT
  8
Default
 62
255
 10
     1090.668579
 20
      988.906545
 30
       19.701231
  0
POINT
  8
Default
 62
255
 10
     1090.595902
 20
      988.740740
 30
       19.761915
  0
POINT
  8
Default
 62
255
 10
     1090.651708
 20
      988.768402
 30
       19.638454
  0
POINT
  8
Default
 62
255
 10
     1090.548389
 20
      988.525670
 30
       19.881260
  0
POINT
  8
Default
 62
255
 10
     1090.604332
 20
      988.513021
 30
       19.763908
  0
POINT
  8
Default
 62
255
 10
     1090.667423
 20
      988.515596
 30
       19.556678
  0
POINT
  8
Default
 62
255
 10
     1091.180565
 20
      988.465788
 30
       19.176662
  0
POINT
  8
Default
 62
255
 10
     1091.288137
 20
      988.529914
 30
       19.174805
  0
POINT
  8
Default
 62
255
 10
     1091.338501
 20
      988.616631
 30
       19.172279
  0
POINT
  8
Default
 62
255
 10
     1091.318491
 20
      988.759365
 30
       19.134989
  0
POINT
  8
Default
 62
255
 10
     1091.243494
 20
      988.889021
 30
       19.138876
  0
POINT
  8
Default
 62
255
 10
     1091.047583
 20
      988.931788
 30
       19.132736
  0
POINT
  8
Default
 62
255
 10
     1090.929798
 20
      988.859056
 30
       19.146492
  0
POINT
  8
Default
 62
255
 10
     1090.852672
 20
      988.682490
 30
       19.161373
  0
POINT
  8
Default
 62
255
 10
     1090.782517
 20
      988.803604
 30
       19.211261
  0
POINT
  8
Default
 62
255
 10
     1090.830743
 20
      988.568746
 30
       19.189701
  0
POINT
  8
Default
 62
255
 10
     1090.950361
 20
      988.563468
 30
       19.169214
  0
POINT
  8
Default
 62
255
 10
     1091.379660
 20
      988.455675
 30
       19.248900
  0
POINT
  8
Default
 62
255
 10
     1091.478682
 20
      988.576926
 30
       19.252749
  0
POINT
  8
Default
 62
255
 10
     1091.530416
 20
      988.676193
 30
       19.223345
  0
POINT
  8
Default
 62
255
 10
     1091.442065
 20
      988.698181
 30
       19.194856
  0
POINT
  8
Default
 62
255
 10
     1091.549196
 20
      988.734292
 30
       19.300123
  0
POINT
  8
Default
 62
255
 10
     1091.515658
 20
      988.885191
 30
       19.275740
  0
POINT
  8
Default
 62
255
 10
     1091.447306
 20
      989.004792
 30
       19.280806
  0
POINT
  8
Default
 62
255
 10
     1091.329226
 20
      989.072565
 30
       19.238925
  0
POINT
  8
Default
 62
255
 10
     1091.294180
 20
      988.968806
 30
       19.174920
  0
POINT
  8
Default
 62
255
 10
     1091.200247
 20
      989.132613
 30
       19.257604
  0
POINT
  8
Default
 62
255
 10
     1091.050365
 20
      989.089225
 30
       19.226527
  0
POINT
  8
Default
 62
255
 10
     1090.996232
 20
      989.041401
 30
       19.197952
  0
POINT
  8
Default
 62
255
 10
     1090.861518
 20
      988.977733
 30
       19.211399
  0
POINT
  8
Default
 62
255
 10
     1090.846053
 20
      988.858797
 30
       19.159255
  0
POINT
  8
Default
 62
255
 10
     1091.082261
 20
      988.560098
 30
       19.074916
  0
POINT
  8
Default
 62
255
 10
     1091.167624
 20
      988.560223
 30
       19.061100
  0
POINT
  8
Default
 62
255
 10
     1091.247714
 20
      988.586318
 30
       19.070177
  0
POINT
  8
Default
 62
255
 10
     1091.273546
 20
      988.657093
 30
       19.059588
  0
POINT
  8
Default
 62
255
 10
     1091.176804
 20
      988.865808
 30
       19.083472
  0
POINT
  8
Default
 62
255
 10
     1091.047949
 20
      988.863254
 30
       19.081135
  0
POINT
  8
Default
 62
255
 10
     1090.923550
 20
      988.741791
 30
       19.104194
  0
POINT
  8
Default
 62
255
 10
     1090.975328
 20
      988.657163
 30
       19.059045
  0
POINT
  8
Default
 62
255
 10
     1091.074842
 20
      988.661226
 30
       19.040487
  0
POINT
  8
Default
 62
255
 10
     1091.221045
 20
      988.730600
 30
       19.044041
  0
POINT
  8
Default
 62
255
 10
     1091.827743
 20
      988.680711
 30
       20.019735
  0
POINT
  8
Default
 62
255
 10
     1091.753224
 20
      988.587571
 30
       20.018663
  0
POINT
  8
Default
 62
255
 10
     1091.891704
 20
      988.642340
 30
       20.014207
  0
POINT
  8
Default
 62
255
 10
     1091.852399
 20
      988.586555
 30
       20.016003
  0
POINT
  8
Default
 62
255
 10
     1091.713585
 20
      988.535556
 30
       20.030654
  0
POINT
  8
Default
 62
255
 10
     1091.796539
 20
      988.522382
 30
       20.033403
  0
POINT
  8
Default
 62
255
 10
     1091.579738
 20
      988.393021
 30
       19.959754
  0
POINT
  8
Default
 62
255
 10
     1091.714894
 20
      988.443132
 30
       20.009582
  0
POINT
  8
Default
 62
255
 10
     1091.643820
 20
      988.371196
 30
       19.993827
  0
POINT
  8
Default
 62
255
 10
     1091.510257
 20
      988.328419
 30
       20.027868
  0
POINT
  8
Default
 62
255
 10
     1091.546896
 20
      988.239898
 30
       20.048647
  0
POINT
  8
Default
 62
255
 10
     1091.446505
 20
      988.248523
 30
       20.048395
  0
POINT
  8
Default
 62
255
 10
     1091.504746
 20
      988.187012
 30
       20.081872
  0
POINT
  8
Default
 62
255
 10
     1091.437083
 20
      988.194907
 30
       20.071621
  0
POINT
  8
Default
 62
255
 10
     1091.387045
 20
      988.141868
 30
       19.944153
  0
POINT
  8
Default
 62
255
 10
     1091.270907
 20
      988.260574
 30
       19.974260
  0
POINT
  8
Default
 62
255
 10
     1091.186329
 20
      988.337143
 30
       19.974837
  0
POINT
  8
Default
 62
255
 10
     1091.102185
 20
      988.403637
 30
       19.955752
  0
POINT
  8
Default
 62
255
 10
     1090.969277
 20
      988.493646
 30
       19.960208
  0
POINT
  8
Default
 62
255
 10
     1090.914644
 20
      988.455376
 30
       19.977531
  0
POINT
  8
Default
 62
255
 10
     1090.867894
 20
      988.399680
 30
       19.987393
  0
POINT
  8
Default
 62
255
 10
     1090.995416
 20
      988.325253
 30
       19.991499
  0
POINT
  8
Default
 62
255
 10
     1091.031855
 20
      988.223429
 30
       19.984218
  0
POINT
  8
Default
 62
255
 10
     1091.203098
 20
      988.077409
 30
       19.986078
  0
POINT
  8
Default
 62
255
 10
     1091.123205
 20
      988.039578
 30
       19.987506
  0
POINT
  8
Default
 62
255
 10
     1090.977240
 20
      988.179610
 30
       19.995611
  0
POINT
  8
Default
 62
255
 10
     1090.816159
 20
      988.306586
 30
       19.998359
  0
POINT
  8
Default
 62
255
 10
     1090.890858
 20
      988.278689
 30
       19.999075
  0
POINT
  8
Default
 62
255
 10
     1090.464409
 20
      988.604405
 30
       19.956925
  0
POINT
  8
Default
 62
255
 10
     1090.507565
 20
      988.609924
 30
       19.958512
  0
POINT
  8
Default
 62
255
 10
     1090.541586
 20
      988.619235
 30
       19.936284
  0
POINT
  8
Default
 62
255
 10
     1090.552628
 20
      988.624741
 30
       19.887139
  0
POINT
  8
Default
 62
255
 10
     1090.568126
 20
      988.630319
 30
       19.834724
  0
POINT
  8
Default
 62
255
 10
     1090.584945
 20
      988.633424
 30
       19.797972
  0
POINT
  8
Default
 62
255
 10
     1090.603027
 20
      988.639803
 30
       19.749751
  0
POINT
  8
Default
 62
255
 10
     1090.618162
 20
      988.645730
 30
       19.704457
  0
POINT
  8
Default
 62
255
 10
     1090.632954
 20
      988.654031
 30
       19.654211
  0
POINT
  8
Default
 62
255
 10
     1090.644082
 20
      988.660791
 30
       19.604499
  0
POINT
  8
Default
 62
255
 10
     1090.650371
 20
      988.664112
 30
       19.556493
  0
POINT
  8
Default
 62
255
 10
     1090.663118
 20
      988.668966
 30
       19.513804
  0
POINT
  8
Default
 62
255
 10
     1090.675139
 20
      988.672591
 30
       19.475834
  0
POINT
  8
Default
 62
255
 10
     1090.682430
 20
      988.672329
 30
       19.424088
  0
POINT
  8
Default
 62
255
 10
     1090.685766
 20
      988.671446
 30
       19.357510
  0
POINT
  8
Default
 62
255
 10
     1090.691560
 20
      988.676093
 30
       19.304357
  0
POINT
  8
Default
 62
255
 10
     1090.707769
 20
      988.686597
 30
       19.265222
  0
POINT
  8
Default
 62
255
 10
     1090.733881
 20
      988.700057
 30
       19.234673
  0
POINT
  8
Default
 62
255
 10
     1090.771350
 20
      988.720975
 30
       19.221303
  0
POINT
  8
Default
 62
255
 10
     1090.801788
 20
      988.752332
 30
       19.189508
  0
POINT
  8
Default
 62
255
 10
     1090.844762
 20
      988.764342
 30
       19.165720
  0
POINT
  8
Default
 62
255
 10
     1090.883393
 20
      988.774304
 30
       19.149112
  0
POINT
  8
Default
 62
255
 10
     1090.926637
 20
      988.772195
 30
       19.115359
  0
POINT
  8
Default
 62
255
 10
     1090.961189
 20
      988.764651
 30
       19.087073
  0
POINT
  8
Default
 62
255
 10
     1090.995793
 20
      988.749507
 30
       19.058485
  0
POINT
  8
Default
 62
255
 10
     1091.042919
 20
      988.747880
 30
       19.048255
  0
POINT
  8
Default
 62
255
 10
     1091.073319
 20
      988.777352
 30
       19.050196
  0
POINT
  8
Default
 62
255
 10
     1091.116067
 20
      988.802297
 30
       19.050211
  0
POINT
  8
Default
 62
255
 10
     1091.032033
 20
      989.470078
 30
       19.747892
  0
POINT
  8
Default
 62
255
 10
     1091.073933
 20
      989.404493
 30
       19.690219
  0
POINT
  8
Default
 62
255
 10
     1091.092219
 20
      989.325567
 30
       19.648349
  0
POINT
  8
Default
 62
255
 10
     1091.103276
 20
      989.265966
 30
       19.574906
  0
POINT
  8
Default
 62
255
 10
     1091.111844
 20
      989.220454
 30
       19.490397
  0
POINT
  8
Default
 62
255
 10
     1091.095070
 20
      989.183190
 30
       19.403354
  0
POINT
  8
Default
 62
255
 10
     1091.088323
 20
      989.153495
 30
       19.319305
  0
POINT
  8
Default
 62
255
 10
     1091.108411
 20
      989.114703
 30
       19.244508
  0
POINT
  8
Default
 62
255
 10
     1091.112182
 20
      989.031927
 30
       19.189806
  0
POINT
  8
Default
 62
255
 10
     1091.114323
 20
      988.951690
 30
       19.140440
  0
POINT
  8
Default
 62
255
 10
     1091.106724
 20
      988.880890
 30
       19.084269
  0
POINT
  8
Default
 62
255
 10
     1091.129862
 20
      988.804445
 30
       19.050478
  0
POINT
  8
Default
 62
255
 10
     1091.806714
 20
      988.927395
 30
       19.659876
  0
POINT
  8
Default
 62
255
 10
     1091.773466
 20
      988.916493
 30
       19.645077
  0
POINT
  8
Default
 62
255
 10
     1091.738824
 20
      988.904722
 30
       19.616637
  0
POINT
  8
Default
 62
255
 10
     1091.710364
 20
      988.895314
 30
       19.579481
  0
POINT
  8
Default
 62
255
 10
     1091.677128
 20
      988.885564
 30
       19.545697
  0
POINT
  8
Default
 62
255
 10
     1091.646153
 20
      988.864871
 30
       19.513246
  0
POINT
  8
Default
 62
255
 10
     1091.610611
 20
      988.837209
 30
       19.508344
  0
POINT
  8
Default
 62
255
 10
     1091.583519
 20
      988.829370
 30
       19.471190
  0
POINT
  8
Default
 62
255
 10
     1091.573157
 20
      988.827313
 30
       19.423746
  0
POINT
  8
Default
 62
255
 10
     1091.563240
 20
      988.824076
 30
       19.375804
  0
POINT
  8
Default
 62
255
 10
     1091.552630
 20
      988.813015
 30
       19.328812
  0
POINT
  8
Default
 62
255
 10
     1091.539635
 20
      988.797603
 30
       19.290092
  0
POINT
  8
Default
 62
255
 10
     1091.510934
 20
      988.792311
 30
       19.251247
  0
POINT
  8
Default
 62
255
 10
     1091.485517
 20
      988.803018
 30
       19.208802
  0
POINT
  8
Default
 62
255
 10
     1091.468032
 20
      988.831278
 30
       19.185965
  0
POINT
  8
Default
 62
255
 10
     1091.417984
 20
      988.822730
 30
       19.176496
  0
POINT
  8
Default
 62
255
 10
     1091.374742
 20
      988.812868
 30
       19.164902
  0
POINT
  8
Default
 62
255
 10
     1091.332347
 20
      988.801027
 30
       19.149063
  0
POINT
  8
Default
 62
255
 10
     1091.296713
 20
      988.781870
 30
       19.116504
  0
POINT
  8
Default
 62
255
 10
     1091.281354
 20
      988.766190
 30
       19.077711
  0
POINT
  8
Default
 62
255
 10
     1091.244517
 20
      988.784311
 30
       19.054403
  0
POINT
  8
Default
 62
255
 10
     1091.200481
 20
      988.805693
 30
       19.048796
  0
POINT
  8
Default
 62
255
 10
     1091.159318
 20
      988.809002
 30
       19.048325
  0
POINT
  8
Default
 62
255
 10
     1091.303622
 20
      987.935082
 30
       19.961902
  0
POINT
  8
Default
 62
255
 10
     1091.318863
 20
      988.028784
 30
       19.973444
  0
POINT
  8
Default
 62
255
 10
     1091.330140
 20
      988.114054
 30
       19.970107
  0
POINT
  8
Default
 62
255
 10
     1091.348078
 20
      988.209664
 30
       19.957559
  0
POINT
  8
Default
 62
255
 10
     1091.366482
 20
      988.247894
 30
       19.879539
  0
POINT
  8
Default
 62
255
 10
     1091.365662
 20
      988.261612
 30
       19.784875
  0
POINT
  8
Default
 62
255
 10
     1091.359737
 20
      988.278884
 30
       19.689489
  0
POINT
  8
Default
 62
255
 10
     1091.336919
 20
      988.323309
 30
       19.505670
  0
POINT
  8
Default
 62
255
 10
     1091.323454
 20
      988.354365
 30
       19.415001
  0
POINT
  8
Default
 62
255
 10
     1091.315200
 20
      988.381902
 30
       19.325715
  0
POINT
  8
Default
 62
255
 10
     1091.293260
 20
      988.410729
 30
       19.237103
  0
POINT
  8
Default
 62
255
 10
     1091.248447
 20
      988.470150
 30
       19.183235
  0
POINT
  8
Default
 62
255
 10
     1091.188631
 20
      988.517376
 30
       19.147954
  0
POINT
  8
Default
 62
255
 10
     1091.194099
 20
      988.552900
 30
       19.075538
  0
POINT
  8
Default
 62
255
 10
     1091.184697
 20
      988.637084
 30
       19.042266
  0
POINT
  8
Default
 62
255
 10
     1091.136069
 20
      988.722711
 30
       19.036354
  0
POINT
  8
Default
 62
255
 10
     1091.351567
 20
      988.298403
 30
       19.599532
  0
POINT
  8
Default
 62
255
 10
     1091.749823
 20
      988.819596
 30
       19.617735
  0
POINT
  8
Default
 62
255
 10
     1091.826439
 20
      988.867607
 30
       19.660604
  0
POINT
  8
Default
 62
255
 10
     1091.880605
 20
      988.869624
 30
       19.658043
  0
POINT
  8
Default
 62
255
 10
     1091.917487
 20
      988.900341
 30
       19.649905
  0
POINT
  8
Default
 62
255
 10
     1091.882531
 20
      988.965575
 30
       19.650174
  0
POINT
  8
Default
 62
255
 10
     1091.771305
 20
      989.015302
 30
       19.643996
  0
POINT
  8
Default
 62
255
 10
     1091.831986
 20
      989.035261
 30
       19.640629
  0
POINT
  8
Default
 62
255
 10
     1091.752803
 20
      988.951043
 30
       19.640749
  0
POINT
  8
Default
 62
255
 10
     1091.768366
 20
      989.086180
 30
       19.637394
  0
POINT
  8
Default
 62
255
 10
     1091.670970
 20
      989.066005
 30
       19.639910
  0
POINT
  8
Default
 62
255
 10
     1091.608683
 20
      989.152734
 30
       19.642746
  0
POINT
  8
Default
 62
255
 10
     1091.635849
 20
      989.252211
 30
       19.625465
  0
POINT
  8
Default
 62
255
 10
     1091.624986
 20
      989.198441
 30
       19.638305
  0
POINT
  8
Default
 62
255
 10
     1091.556468
 20
      989.212507
 30
       19.636282
  0
POINT
  8
Default
 62
255
 10
     1091.530721
 20
      989.331402
 30
       19.624793
  0
POINT
  8
Default
 62
255
 10
     1091.574772
 20
      989.257322
 30
       19.627886
  0
POINT
  8
Default
 62
255
 10
     1091.446448
 20
      989.295592
 30
       19.635790
  0
POINT
  8
Default
 62
255
 10
     1091.389249
 20
      989.287073
 30
       19.630126
  0
POINT
  8
Default
 62
255
 10
     1091.461916
 20
      989.421674
 30
       19.620806
  0
POINT
  8
Default
 62
255
 10
     1091.471555
 20
      989.329552
 30
       19.634126
  0
POINT
  8
Default
 62
255
 10
     1091.416754
 20
      989.373258
 30
       19.625989
  0
POINT
  8
Default
 62
255
 10
     1091.309893
 20
      989.308073
 30
       19.631671
  0
POINT
  8
Default
 62
255
 10
     1091.345075
 20
      989.345600
 30
       19.630143
  0
POINT
  8
Default
 62
255
 10
     1091.375014
 20
      989.445898
 30
       19.621235
  0
POINT
  8
Default
 62
255
 10
     1091.370199
 20
      989.529974
 30
       19.621503
  0
POINT
  8
Default
 62
255
 10
     1091.301524
 20
      989.472542
 30
       19.630266
  0
POINT
  8
Default
 62
255
 10
     1091.276430
 20
      989.620205
 30
       19.624261
  0
POINT
  8
Default
 62
255
 10
     1091.207103
 20
      989.538530
 30
       19.643186
  0
POINT
  8
Default
 62
255
 10
     1091.135538
 20
      989.494293
 30
       19.659896
  0
POINT
  8
Default
 62
255
 10
     1091.145189
 20
      989.336009
 30
       19.660580
  0
POINT
  8
Default
 62
255
 10
     1091.216320
 20
      989.329390
 30
       19.646572
  0
POINT
  8
Default
 62
255
 10
     1091.186887
 20
      989.439568
 30
       19.638793
  0
POINT
  8
Default
 62
255
 10
     1091.115135
 20
      989.447285
 30
       19.671658
  0
POINT
  8
Default
 62
255
 10
     1091.225034
 20
      989.649395
 30
       19.630068
  0
POINT
  8
Default
 62
255
 10
     1091.161659
 20
      989.667257
 30
       19.627517
  0
POINT
  8
Default
 62
255
 10
     1091.089901
 20
      989.623383
 30
       19.653620
  0
POINT
  8
Default
 62
255
 10
     1091.155610
 20
      989.589481
 30
       19.642166
  0
POINT
  8
Default
 62
255
 10
     1091.075183
 20
      989.517119
 30
       19.694498
  0
POINT
  8
Default
 62
255
 10
     1091.015901
 20
      989.567631
 30
       19.699902
  0
POINT
  8
Default
 62
255
 10
     1090.946908
 20
      989.507222
 30
       19.769274
  0
POINT
  8
Default
 62
255
 10
     1090.870195
 20
      989.458122
 30
       19.769035
  0
POINT
  8
Default
 62
255
 10
     1090.946340
 20
      989.415678
 30
       19.757415
  0
POINT
  8
Default
 62
255
 10
     1091.009944
 20
      989.400321
 30
       19.744050
  0
POINT
  8
Default
 62
255
 10
     1091.042641
 20
      989.343206
 30
       19.685114
  0
POINT
  8
Default
 62
255
 10
     1090.917873
 20
      989.311474
 30
       19.763023
  0
POINT
  8
Default
 62
255
 10
     1090.884039
 20
      989.374942
 30
       19.763736
  0
POINT
  8
Default
 62
255
 10
     1090.824187
 20
      989.394176
 30
       19.789224
  0
POINT
  8
Default
 62
255
 10
     1090.819797
 20
      989.271415
 30
       19.788894
  0
POINT
  8
Default
 62
255
 10
     1090.756584
 20
      989.217678
 30
       19.814489
  0
POINT
  8
Default
 62
255
 10
     1090.794077
 20
      989.318961
 30
       19.793006
  0
POINT
  8
Default
 62
255
 10
     1090.761615
 20
      989.328251
 30
       19.801194
  0
POINT
  8
Default
 62
255
 10
     1090.730518
 20
      989.283118
 30
       19.803500
  0
POINT
  8
Default
 62
255
 10
     1090.794096
 20
      989.232713
 30
       19.788084
  0
POINT
  8
Default
 62
255
 10
     1090.683236
 20
      989.238189
 30
       19.793802
  0
POINT
  8
Default
 62
255
 10
     1090.740631
 20
      989.174300
 30
       19.839853
  0
POINT
  8
Default
 62
255
 10
     1090.748459
 20
      989.108558
 30
       19.825294
  0
POINT
  8
Default
 62
255
 10
     1091.800400
 20
      988.632927
 30
       20.029606
  0
POINT
  8
Default
 62
255
 10
     1091.834118
 20
      988.642905
 30
       20.027963
  0
POINT
  8
Default
 62
255
 10
     1091.774534
 20
      988.617122
 30
       20.013895
  0
POINT
  8
Default
 62
255
 10
     1091.796488
 20
      988.556054
 30
       20.035638
  0
POINT
  8
Default
 62
255
 10
     1091.689803
 20
      988.489715
 30
       20.010771
  0
POINT
  8
Default
 62
255
 10
     1091.769524
 20
      988.493871
 30
       20.035532
  0
POINT
  8
Default
 62
255
 10
     1091.735765
 20
      988.471224
 30
       20.033591
  0
POINT
  8
Default
 62
255
 10
     1091.741441
 20
      988.544645
 30
       20.035616
  0
POINT
  8
Default
 62
255
 10
     1091.777980
 20
      988.781716
 30
       19.612593
  0
POINT
  8
Default
 62
255
 10
     1091.769090
 20
      988.876981
 30
       19.639639
  0
POINT
  8
Default
 62
255
 10
     1091.713239
 20
      988.787904
 30
       19.562025
  0
POINT
  8
Default
 62
255
 10
     1091.721560
 20
      988.863266
 30
       19.594256
  0
POINT
  8
Default
 62
255
 10
     1091.685410
 20
      988.775271
 30
       19.508788
  0
POINT
  8
Default
 62
255
 10
     1091.606537
 20
      988.790093
 30
       19.494396
  0
POINT
  8
Default
 62
255
 10
     1091.655948
 20
      988.811605
 30
       19.496323
  0
POINT
  8
Default
 62
255
 10
     1091.653428
 20
      988.732075
 30
       19.489070
  0
POINT
  8
Default
 62
255
 10
     1091.699266
 20
      988.702784
 30
       19.532660
  0
POINT
  8
Default
 62
255
 10
     1091.713850
 20
      988.724632
 30
       19.551974
  0
POINT
  8
Default
 62
255
 10
     1091.601708
 20
      988.684299
 30
       19.483368
  0
POINT
  8
Default
 62
255
 10
     1091.641643
 20
      988.637499
 30
       19.479511
  0
POINT
  8
Default
 62
255
 10
     1091.607307
 20
      988.577068
 30
       19.464869
  0
POINT
  8
Default
 62
255
 10
     1091.554003
 20
      988.575029
 30
       19.457387
  0
POINT
  8
Default
 62
255
 10
     1091.580267
 20
      988.539302
 30
       19.473181
  0
POINT
  8
Default
 62
255
 10
     1091.498571
 20
      988.469962
 30
       19.487370
  0
POINT
  8
Default
 62
255
 10
     1091.536853
 20
      988.488432
 30
       19.489820
  0
POINT
  8
Default
 62
255
 10
     1091.499555
 20
      988.446273
 30
       19.487794
  0
POINT
  8
Default
 62
255
 10
     1091.417541
 20
      988.359197
 30
       19.474051
  0
POINT
  8
Default
 62
255
 10
     1091.375991
 20
      988.358815
 30
       19.459931
  0
POINT
  8
Default
 62
255
 10
     1091.342501
 20
      988.296197
 30
       19.491518
  0
POINT
  8
Default
 62
255
 10
     1091.323900
 20
      988.322363
 30
       19.483218
  0
POINT
  8
Default
 62
255
 10
     1091.637880
 20
      988.922961
 30
       19.516832
  0
POINT
  8
Default
 62
255
 10
     1091.639893
 20
      988.971934
 30
       19.535844
  0
POINT
  8
Default
 62
255
 10
     1091.686706
 20
      988.939720
 30
       19.573567
  0
POINT
  8
Default
 62
255
 10
     1091.651584
 20
      989.008466
 30
       19.569174
  0
POINT
  8
Default
 62
255
 10
     1091.717546
 20
      988.960937
 30
       19.617987
  0
POINT
  8
Default
 62
255
 10
     1091.678972
 20
      989.022521
 30
       19.613327
  0
POINT
  8
Default
 62
255
 10
     1091.591083
 20
      988.942301
 30
       19.530724
  0
POINT
  8
Default
 62
255
 10
     1091.610664
 20
      989.021509
 30
       19.544007
  0
POINT
  8
Default
 62
255
 10
     1091.603967
 20
      989.086557
 30
       19.589304
  0
POINT
  8
Default
 62
255
 10
     1091.636158
 20
      989.113850
 30
       19.635800
  0
POINT
  8
Default
 62
255
 10
     1091.555352
 20
      989.052258
 30
       19.572111
  0
POINT
  8
Default
 62
255
 10
     1091.580745
 20
      989.130221
 30
       19.608054
  0
POINT
  8
Default
 62
255
 10
     1091.557340
 20
      989.167285
 30
       19.627387
  0
POINT
  8
Default
 62
255
 10
     1091.534769
 20
      989.110662
 30
       19.564166
  0
POINT
  8
Default
 62
255
 10
     1091.481717
 20
      989.164847
 30
       19.537228
  0
POINT
  8
Default
 62
255
 10
     1091.476775
 20
      989.119803
 30
       19.519100
  0
POINT
  8
Default
 62
255
 10
     1091.451670
 20
      989.252486
 30
       19.631758
  0
POINT
  8
Default
 62
255
 10
     1091.456378
 20
      989.217241
 30
       19.618618
  0
POINT
  8
Default
 62
255
 10
     1091.496360
 20
      989.199637
 30
       19.609698
  0
POINT
  8
Default
 62
255
 10
     1091.365823
 20
      989.165303
 30
       19.444334
  0
POINT
  8
Default
 62
255
 10
     1091.371204
 20
      989.200204
 30
       19.493183
  0
POINT
  8
Default
 62
255
 10
     1091.353833
 20
      989.232211
 30
       19.573719
  0
POINT
  8
Default
 62
255
 10
     1091.414191
 20
      989.221201
 30
       19.573117
  0
POINT
  8
Default
 62
255
 10
     1091.255204
 20
      988.370987
 30
       19.251516
  0
POINT
  8
Default
 62
255
 10
     1091.228289
 20
      988.404081
 30
       19.205468
  0
POINT
  8
Default
 62
255
 10
     1091.260477
 20
      988.315593
 30
       19.272035
  0
POINT
  8
Default
 62
255
 10
     1091.331806
 20
      988.412071
 30
       19.247914
  0
POINT
  8
Default
 62
255
 10
     1091.272719
 20
      988.439606
 30
       19.196610
  0
POINT
  8
Default
 62
255
 10
     1091.360451
 20
      988.515332
 30
       19.190124
  0
POINT
  8
Default
 62
255
 10
     1091.300087
 20
      988.582263
 30
       19.168524
  0
POINT
  8
Default
 62
255
 10
     1091.363537
 20
      988.680058
 30
       19.159967
  0
POINT
  8
Default
 62
255
 10
     1091.424681
 20
      988.567360
 30
       19.207651
  0
POINT
  8
Default
 62
255
 10
     1091.502775
 20
      988.626798
 30
       19.227863
  0
POINT
  8
Default
 62
255
 10
     1091.426437
 20
      988.645213
 30
       19.198126
  0
POINT
  8
Default
 62
255
 10
     1091.368349
 20
      988.743269
 30
       19.154937
  0
POINT
  8
Default
 62
255
 10
     1091.416462
 20
      988.754082
 30
       19.176366
  0
POINT
  8
Default
 62
255
 10
     1091.502072
 20
      988.745976
 30
       19.228227
  0
POINT
  8
Default
 62
255
 10
     1091.457967
 20
      988.523762
 30
       19.265678
  0
POINT
  8
Default
 62
255
 10
     1091.407226
 20
      988.501131
 30
       19.232137
  0
POINT
  8
Default
 62
255
 10
     1091.305710
 20
      988.837712
 30
       19.138898
  0
POINT
  8
Default
 62
255
 10
     1091.367573
 20
      988.876894
 30
       19.166106
  0
POINT
  8
Default
 62
255
 10
     1091.451626
 20
      988.898430
 30
       19.221464
  0
POINT
  8
Default
 62
255
 10
     1091.335351
 20
      988.932371
 30
       19.167458
  0
POINT
  8
Default
 62
255
 10
     1091.381889
 20
      988.993137
 30
       19.210288
  0
POINT
  8
Default
 62
255
 10
     1091.392585
 20
      988.940504
 30
       19.198069
  0
POINT
  8
Default
 62
255
 10
     1091.442405
 20
      988.963782
 30
       19.243976
  0
POINT
  8
Default
 62
255
 10
     1091.483778
 20
      988.932360
 30
       19.270074
  0
POINT
  8
Default
 62
255
 10
     1091.508296
 20
      988.845200
 30
       19.253497
  0
POINT
  8
Default
 62
255
 10
     1091.151203
 20
      988.912851
 30
       19.124227
  0
POINT
  8
Default
 62
255
 10
     1091.224446
 20
      988.940265
 30
       19.145900
  0
POINT
  8
Default
 62
255
 10
     1091.187510
 20
      988.991726
 30
       19.164729
  0
POINT
  8
Default
 62
255
 10
     1091.183746
 20
      989.053281
 30
       19.190575
  0
POINT
  8
Default
 62
255
 10
     1091.248519
 20
      989.030083
 30
       19.187903
  0
POINT
  8
Default
 62
255
 10
     1091.292146
 20
      989.119502
 30
       19.261624
  0
POINT
  8
Default
 62
255
 10
     1091.232855
 20
      989.092895
 30
       19.220773
  0
POINT
  8
Default
 62
255
 10
     1091.152523
 20
      989.125238
 30
       19.251657
  0
POINT
  8
Default
 62
255
 10
     1091.061529
 20
      989.002951
 30
       19.172897
  0
POINT
  8
Default
 62
255
 10
     1091.090633
 20
      988.943851
 30
       19.137484
  0
POINT
  8
Default
 62
255
 10
     1091.001517
 20
      988.912477
 30
       19.132289
  0
POINT
  8
Default
 62
255
 10
     1090.955033
 20
      988.811209
 30
       19.113659
  0
POINT
  8
Default
 62
255
 10
     1090.999132
 20
      988.868787
 30
       19.129008
  0
POINT
  8
Default
 62
255
 10
     1090.914755
 20
      989.022427
 30
       19.208209
  0
POINT
  8
Default
 62
255
 10
     1090.981694
 20
      988.972602
 30
       19.158059
  0
POINT
  8
Default
 62
255
 10
     1090.898276
 20
      988.946717
 30
       19.159453
  0
POINT
  8
Default
 62
255
 10
     1090.885019
 20
      988.898391
 30
       19.141707
  0
POINT
  8
Default
 62
255
 10
     1090.937216
 20
      988.903610
 30
       19.136432
  0
POINT
  8
Default
 62
255
 10
     1090.803071
 20
      988.717427
 30
       19.180592
  0
POINT
  8
Default
 62
255
 10
     1090.866948
 20
      988.729271
 30
       19.142756
  0
POINT
  8
Default
 62
255
 10
     1091.323388
 20
      988.704035
 30
       19.127668
  0
POINT
  8
Default
 62
255
 10
     1091.324993
 20
      988.660719
 30
       19.144371
  0
POINT
  8
Default
 62
255
 10
     1091.310803
 20
      988.637607
 30
       19.133237
  0
POINT
  8
Default
 62
255
 10
     1091.224658
 20
      988.651985
 30
       19.041453
  0
POINT
  8
Default
 62
255
 10
     1091.282857
 20
      988.719349
 30
       19.061886
  0
POINT
  8
Default
 62
255
 10
     1091.121994
 20
      988.615920
 30
       19.041506
  0
POINT
  8
Default
 62
255
 10
     1091.034921
 20
      988.595619
 30
       19.058253
  0
POINT
  8
Default
 62
255
 10
     1091.085439
 20
      988.730298
 30
       19.038797
  0
POINT
  8
Default
 62
255
 10
     1091.024692
 20
      988.705265
 30
       19.043241
  0
POINT
  8
Default
 62
255
 10
     1090.981164
 20
      988.827114
 30
       19.093837
  0
POINT
  8
Default
 62
255
 10
     1091.078179
 20
      988.828859
 30
       19.054253
  0
POINT
  8
Default
 62
255
 10
     1090.877349
 20
      988.543046
 30
       19.183144
  0
POINT
  8
Default
 62
255
 10
     1090.918486
 20
      988.632444
 30
       19.160032
  0
POINT
  8
Default
 62
255
 10
     1090.868006
 20
      988.611510
 30
       19.170282
  0
POINT
  8
Default
 62
255
 10
     1090.901497
 20
      988.687486
 30
       19.146842
  0
POINT
  8
Default
 62
255
 10
     1090.799054
 20
      988.662325
 30
       19.183158
  0
POINT
  8
Default
 62
255
 10
     1090.834202
 20
      988.503895
 30
       19.212687
  0
POINT
  8
Default
 62
255
 10
     1090.787359
 20
      988.526776
 30
       19.232473
  0
POINT
  8
Default
 62
255
 10
     1090.760520
 20
      988.619153
 30
       19.218760
  0
POINT
  8
Default
 62
255
 10
     1090.711279
 20
      988.623410
 30
       19.279502
  0
POINT
  8
Default
 62
255
 10
     1090.729381
 20
      988.661885
 30
       19.241158
  0
POINT
  8
Default
 62
255
 10
     1090.696303
 20
      988.625477
 30
       19.375403
  0
POINT
  8
Default
 62
255
 10
     1090.534643
 20
      988.678082
 30
       19.900553
  0
POINT
  8
Default
 62
255
 10
     1090.362402
 20
      988.628580
 30
       19.923350
  0
POINT
  8
Default
 62
255
 10
     1090.398347
 20
      988.634238
 30
       19.923314
  0
POINT
  8
Default
 62
255
 10
     1090.392607
 20
      988.697378
 30
       19.909423
  0
POINT
  8
Default
 62
255
 10
     1090.444802
 20
      988.741955
 30
       19.913931
  0
POINT
  8
Default
 62
255
 10
     1090.492776
 20
      988.651030
 30
       19.928620
  0
POINT
  8
Default
 62
255
 10
     1090.386034
 20
      988.749372
 30
       19.895291
  0
POINT
  8
Default
 62
255
 10
     1090.431284
 20
      988.821943
 30
       19.886511
  0
POINT
  8
Default
 62
255
 10
     1090.564534
 20
      988.818549
 30
       19.872913
  0
POINT
  8
Default
 62
255
 10
     1090.539700
 20
      988.761418
 30
       19.887657
  0
POINT
  8
Default
 62
255
 10
     1090.509646
 20
      988.857803
 30
       19.881257
  0
POINT
  8
Default
 62
255
 10
     1090.489239
 20
      988.821473
 30
       19.889183
  0
POINT
  8
Default
 62
255
 10
     1090.521336
 20
      988.904240
 30
       19.873347
  0
POINT
  8
Default
 62
255
 10
     1090.586189
 20
      988.870904
 30
       19.869466
  0
POINT
  8
Default
 62
255
 10
     1090.586880
 20
      988.992884
 30
       19.895116
  0
POINT
  8
Default
 62
255
 10
     1090.528092
 20
      988.956001
 30
       19.880237
  0
POINT
  8
Default
 62
255
 10
     1090.695332
 20
      988.999115
 30
       19.854238
  0
POINT
  8
Default
 62
255
 10
     1090.673181
 20
      989.073883
 30
       19.897336
  0
POINT
  8
Default
 62
255
 10
     1090.631092
 20
      989.018096
 30
       19.899162
  0
POINT
  8
Default
 62
255
 10
     1090.658888
 20
      988.960600
 30
       19.870481
  0
POINT
  8
Default
 62
255
 10
     1090.713335
 20
      989.133253
 30
       19.876151
  0
POINT
  8
Default
 62
255
 10
     1090.684335
 20
      989.157590
 30
       19.849226
  0
POINT
  8
Default
 62
255
 10
     1090.702758
 20
      989.201554
 30
       19.822943
  0
POINT
  8
Default
 62
255
 10
     1090.473224
 20
      988.569086
 30
       19.944245
  0
POINT
  8
Default
 62
255
 10
     1090.516952
 20
      988.557897
 30
       19.946207
  0
POINT
  8
Default
 62
255
 10
     1090.472319
 20
      988.540078
 30
       19.953302
  0
POINT
  8
Default
 62
255
 10
     1090.413306
 20
      988.545114
 30
       19.942459
  0
POINT
  8
Default
 62
255
 10
     1090.426201
 20
      988.498550
 30
       19.925717
  0
POINT
  8
Default
 62
255
 10
     1090.517363
 20
      988.485137
 30
       19.934110
  0
POINT
  8
Default
 62
255
 10
     1090.551442
 20
      988.456149
 30
       19.905018
  0
POINT
  8
Default
 62
255
 10
     1090.691201
 20
      988.293353
 30
       19.814879
  0
POINT
  8
Default
 62
255
 10
     1090.690672
 20
      988.333945
 30
       19.821283
  0
POINT
  8
Default
 62
255
 10
     1090.641090
 20
      988.316891
 30
       19.823163
  0
POINT
  8
Default
 62
255
 10
     1090.594409
 20
      988.367289
 30
       19.821959
  0
POINT
  8
Default
 62
255
 10
     1090.644080
 20
      988.385918
 30
       19.825038
  0
POINT
  8
Default
 62
255
 10
     1090.612574
 20
      988.424213
 30
       19.828187
  0
POINT
  8
Default
 62
255
 10
     1090.588374
 20
      988.441944
 30
       19.840133
  0
POINT
  8
Default
 62
255
 10
     1090.551731
 20
      988.414083
 30
       19.824489
  0
POINT
  8
Default
 62
255
 10
     1090.557344
 20
      988.490713
 30
       19.896997
  0
POINT
  8
Default
 62
255
 10
     1090.460703
 20
      988.446088
 30
       19.896755
  0
POINT
  8
Default
 62
255
 10
     1090.530191
 20
      988.373457
 30
       19.807561
  0
POINT
  8
Default
 62
255
 10
     1090.479837
 20
      988.380459
 30
       19.797991
  0
POINT
  8
Default
 62
255
 10
     1090.540345
 20
      988.329430
 30
       19.807519
  0
POINT
  8
Default
 62
255
 10
     1090.608843
 20
      988.270955
 30
       19.806539
  0
POINT
  8
Default
 62
255
 10
     1090.673448
 20
      988.242502
 30
       19.797766
  0
POINT
  8
Default
 62
255
 10
     1091.256112
 20
      988.190608
 30
       19.978003
  0
POINT
  8
Default
 62
255
 10
     1091.308209
 20
      988.209804
 30
       19.964034
  0
POINT
  8
Default
 62
255
 10
     1091.196720
 20
      988.225850
 30
       19.984356
  0
POINT
  8
Default
 62
255
 10
     1091.231392
 20
      988.293698
 30
       19.974841
  0
POINT
  8
Default
 62
255
 10
     1091.196483
 20
      988.276393
 30
       19.975723
  0
POINT
  8
Default
 62
255
 10
     1091.144177
 20
      988.271284
 30
       19.984383
  0
POINT
  8
Default
 62
255
 10
     1091.131660
 20
      988.350962
 30
       19.976802
  0
POINT
  8
Default
 62
255
 10
     1091.094220
 20
      988.334496
 30
       19.982121
  0
POINT
  8
Default
 62
255
 10
     1091.147445
 20
      988.314983
 30
       19.979700
  0
POINT
  8
Default
 62
255
 10
     1091.092803
 20
      988.390767
 30
       19.970803
  0
POINT
  8
Default
 62
255
 10
     1091.030510
 20
      988.453599
 30
       19.970512
  0
POINT
  8
Default
 62
255
 10
     1091.048519
 20
      988.400717
 30
       19.973709
  0
POINT
  8
Default
 62
255
 10
     1090.975540
 20
      988.455662
 30
       19.973051
  0
POINT
  8
Default
 62
255
 10
     1090.931477
 20
      988.368235
 30
       19.992975
  0
POINT
  8
Default
 62
255
 10
     1090.971682
 20
      988.396600
 30
       19.988896
  0
POINT
  8
Default
 62
255
 10
     1090.941522
 20
      988.300781
 30
       19.993208
  0
POINT
  8
Default
 62
255
 10
     1090.855621
 20
      988.364424
 30
       19.997248
  0
POINT
  8
Default
 62
255
 10
     1090.831641
 20
      988.340177
 30
       19.988343
  0
POINT
  8
Default
 62
255
 10
     1090.831646
 20
      988.267581
 30
       19.996429
  0
POINT
  8
Default
 62
255
 10
     1090.927434
 20
      988.214928
 30
       19.994053
  0
POINT
  8
Default
 62
255
 10
     1090.970824
 20
      988.242382
 30
       19.996501
  0
POINT
  8
Default
 62
255
 10
     1091.039290
 20
      988.287594
 30
       19.990008
  0
POINT
  8
Default
 62
255
 10
     1091.111368
 20
      988.243600
 30
       19.984218
  0
POINT
  8
Default
 62
255
 10
     1091.032936
 20
      988.141857
 30
       19.994121
  0
POINT
  8
Default
 62
255
 10
     1091.081396
 20
      988.157801
 30
       19.996856
  0
POINT
  8
Default
 62
255
 10
     1091.097860
 20
      988.197414
 30
       19.991213
  0
POINT
  8
Default
 62
255
 10
     1091.152505
 20
      988.204951
 30
       19.989775
  0
POINT
  8
Default
 62
255
 10
     1091.091357
 20
      988.104824
 30
       19.996884
  0
POINT
  8
Default
 62
255
 10
     1091.180501
 20
      988.144499
 30
       19.986203
  0
POINT
  8
Default
 62
255
 10
     1091.135438
 20
      988.114838
 30
       19.993302
  0
POINT
  8
Default
 62
255
 10
     1091.221713
 20
      988.126895
 30
       19.978791
  0
POINT
  8
Default
 62
255
 10
     1091.229771
 20
      989.267825
 30
       19.574749
  0
POINT
  8
Default
 62
255
 10
     1091.285959
 20
      989.265871
 30
       19.597459
  0
POINT
  8
Default
 62
255
 10
     1091.161626
 20
      989.279163
 30
       19.578335
  0
POINT
  8
Default
 62
255
 10
     1091.167678
 20
      989.214857
 30
       19.457252
  0
POINT
  8
Default
 62
255
 10
     1091.298260
 20
      989.184651
 30
       19.441774
  0
POINT
  8
Default
 62
255
 10
     1091.288896
 20
      989.218505
 30
       19.504195
  0
POINT
  8
Default
 62
255
 10
     1091.007459
 20
      989.287944
 30
       19.656893
  0
POINT
  8
Default
 62
255
 10
     1090.928071
 20
      989.240319
 30
       19.653358
  0
POINT
  8
Default
 62
255
 10
     1090.887210
 20
      989.160743
 30
       19.544035
  0
POINT
  8
Default
 62
255
 10
     1090.994559
 20
      989.248765
 30
       19.600757
  0
POINT
  8
Default
 62
255
 10
     1091.066742
 20
      989.248617
 30
       19.567583
  0
POINT
  8
Default
 62
255
 10
     1091.058530
 20
      989.176578
 30
       19.397771
  0
POINT
  8
Default
 62
255
 10
     1091.015215
 20
      989.171230
 30
       19.416423
  0
POINT
  8
Default
 62
255
 10
     1090.955729
 20
      989.164426
 30
       19.481339
  0
POINT
  8
Default
 62
255
 10
     1090.989197
 20
      989.219420
 30
       19.545293
  0
POINT
  8
Default
 62
255
 10
     1090.928523
 20
      989.209993
 30
       19.588900
  0
POINT
  8
Default
 62
255
 10
     1090.945649
 20
      989.286640
 30
       19.705677
  0
POINT
  8
Default
 62
255
 10
     1090.870549
 20
      989.216214
 30
       19.703796
  0
POINT
  8
Default
 62
255
 10
     1090.828622
 20
      989.173083
 30
       19.650586
  0
POINT
  8
Default
 62
255
 10
     1090.776986
 20
      989.079745
 30
       19.601073
  0
POINT
  8
Default
 62
255
 10
     1090.829686
 20
      989.072749
 30
       19.506683
  0
POINT
  8
Default
 62
255
 10
     1090.892656
 20
      989.112440
 30
       19.463269
  0
POINT
  8
Default
 62
255
 10
     1090.922317
 20
      989.091044
 30
       19.365404
  0
POINT
  8
Default
 62
255
 10
     1090.877244
 20
      989.061489
 30
       19.365334
  0
POINT
  8
Default
 62
255
 10
     1090.978302
 20
      989.127576
 30
       19.344005
  0
POINT
  8
Default
 62
255
 10
     1090.960691
 20
      989.085416
 30
       19.267216
  0
POINT
  8
Default
 62
255
 10
     1090.853192
 20
      989.064035
 30
       19.443009
  0
POINT
  8
Default
 62
255
 10
     1090.785424
 20
      989.150633
 30
       19.726380
  0
POINT
  8
Default
 62
255
 10
     1090.650737
 20
      988.924637
 30
       19.787166
  0
POINT
  8
Default
 62
255
 10
     1090.697651
 20
      989.005960
 30
       19.768257
  0
POINT
  8
Default
 62
255
 10
     1090.731562
 20
      989.058273
 30
       19.722576
  0
POINT
  8
Default
 62
255
 10
     1090.693809
 20
      988.917624
 30
       19.610718
  0
POINT
  8
Default
 62
255
 10
     1090.697191
 20
      988.952742
 30
       19.642489
  0
POINT
  8
Default
 62
255
 10
     1090.766677
 20
      989.024955
 30
       19.554563
  0
POINT
  8
Default
 62
255
 10
     1090.733685
 20
      988.940662
 30
       19.528947
  0
POINT
  8
Default
 62
255
 10
     1090.749117
 20
      988.933911
 30
       19.455377
  0
POINT
  8
Default
 62
255
 10
     1090.783613
 20
      988.948093
 30
       19.325235
  0
POINT
  8
Default
 62
255
 10
     1090.721760
 20
      989.007837
 30
       19.661109
  0
POINT
  8
Default
 62
255
 10
     1090.759467
 20
      988.913984
 30
       19.392984
  0
POINT
  8
Default
 62
255
 10
     1090.774478
 20
      988.893081
 30
       19.267108
  0
POINT
  8
Default
 62
255
 10
     1090.835020
 20
      988.926343
 30
       19.205091
  0
POINT
  8
Default
 62
255
 10
     1090.803773
 20
      988.876918
 30
       19.221318
  0
POINT
  8
Default
 62
255
 10
     1090.822946
 20
      988.982565
 30
       19.283907
  0
POINT
  8
Default
 62
255
 10
     1090.752612
 20
      988.768430
 30
       19.241926
  0
POINT
  8
Default
 62
255
 10
     1090.732253
 20
      988.800495
 30
       19.310961
  0
POINT
  8
Default
 62
255
 10
     1090.709383
 20
      988.745796
 30
       19.345484
  0
POINT
  8
Default
 62
255
 10
     1090.658772
 20
      988.714052
 30
       19.574656
  0
POINT
  8
Default
 62
255
 10
     1090.689866
 20
      988.811349
 30
       19.525901
  0
POINT
  8
Default
 62
255
 10
     1090.596856
 20
      988.679628
 30
       19.751578
  0
POINT
  8
Default
 62
255
 10
     1090.620077
 20
      988.729556
 30
       19.704798
  0
POINT
  8
Default
 62
255
 10
     1090.556827
 20
      988.697553
 30
       19.809968
  0
POINT
  8
Default
 62
255
 10
     1090.578861
 20
      988.760506
 30
       19.812861
  0
POINT
  8
Default
 62
255
 10
     1090.612158
 20
      988.838296
 30
       19.773174
  0
POINT
  8
Default
 62
255
 10
     1090.606021
 20
      988.860717
 30
       19.847810
  0
POINT
  8
Default
 62
255
 10
     1090.596253
 20
      988.803709
 30
       19.807177
  0
POINT
  8
Default
 62
255
 10
     1090.717878
 20
      988.871908
 30
       19.449361
  0
POINT
  8
Default
 62
255
 10
     1090.717055
 20
      988.846935
 30
       19.416236
  0
POINT
  8
Default
 62
255
 10
     1090.628015
 20
      988.796620
 30
       19.724719
  0
POINT
  8
Default
 62
255
 10
     1090.645635
 20
      988.844551
 30
       19.707859
  0
POINT
  8
Default
 62
255
 10
     1090.667441
 20
      988.862585
 30
       19.655213
  0
POINT
  8
Default
 62
255
 10
     1090.797015
 20
      988.441361
 30
       19.299860
  0
POINT
  8
Default
 62
255
 10
     1090.744516
 20
      988.473751
 30
       19.371028
  0
POINT
  8
Default
 62
255
 10
     1090.747538
 20
      988.519033
 30
       19.308254
  0
POINT
  8
Default
 62
255
 10
     1090.830478
 20
      988.456496
 30
       19.248507
  0
POINT
  8
Default
 62
255
 10
     1090.774612
 20
      988.402183
 30
       19.448856
  0
POINT
  8
Default
 62
255
 10
     1090.777657
 20
      988.378416
 30
       19.537085
  0
POINT
  8
Default
 62
255
 10
     1090.771164
 20
      988.379168
 30
       19.686464
  0
POINT
  8
Default
 62
255
 10
     1090.741995
 20
      988.338354
 30
       19.740198
  0
POINT
  8
Default
 62
255
 10
     1090.735609
 20
      988.320787
 30
       19.799557
  0
POINT
  8
Default
 62
255
 10
     1090.758843
 20
      988.306821
 30
       19.843322
  0
POINT
  8
Default
 62
255
 10
     1090.660306
 20
      988.398903
 30
       19.801318
  0
POINT
  8
Default
 62
255
 10
     1090.687618
 20
      988.430182
 30
       19.690883
  0
POINT
  8
Default
 62
255
 10
     1090.704625
 20
      988.380878
 30
       19.738341
  0
POINT
  8
Default
 62
255
 10
     1090.737896
 20
      988.404432
 30
       19.632900
  0
POINT
  8
Default
 62
255
 10
     1090.722454
 20
      988.384728
 30
       19.682898
  0
POINT
  8
Default
 62
255
 10
     1090.593587
 20
      988.485696
 30
       19.804364
  0
POINT
  8
Default
 62
255
 10
     1090.638561
 20
      988.436235
 30
       19.760961
  0
POINT
  8
Default
 62
255
 10
     1090.622305
 20
      988.436005
 30
       19.804593
  0
POINT
  8
Default
 62
255
 10
     1090.646778
 20
      988.472515
 30
       19.719997
  0
POINT
  8
Default
 62
255
 10
     1090.640944
 20
      988.524059
 30
       19.680863
  0
POINT
  8
Default
 62
255
 10
     1090.603421
 20
      988.568726
 30
       19.731775
  0
POINT
  8
Default
 62
255
 10
     1090.697290
 20
      988.460251
 30
       19.614491
  0
POINT
  8
Default
 62
255
 10
     1090.725407
 20
      988.454292
 30
       19.482392
  0
POINT
  8
Default
 62
255
 10
     1090.673360
 20
      988.535419
 30
       19.499994
  0
POINT
  8
Default
 62
255
 10
     1090.766442
 20
      988.425087
 30
       19.384175
  0
POINT
  8
Default
 62
255
 10
     1090.701324
 20
      988.521082
 30
       19.432518
  0
POINT
  8
Default
 62
255
 10
     1090.626548
 20
      988.581238
 30
       19.670581
  0
POINT
  8
Default
 62
255
 10
     1091.182219
 20
      988.445905
 30
       19.186035
  0
POINT
  8
Default
 62
255
 10
     1091.117183
 20
      988.468835
 30
       19.154802
  0
POINT
  8
Default
 62
255
 10
     1091.052396
 20
      988.499476
 30
       19.143498
  0
POINT
  8
Default
 62
255
 10
     1091.140446
 20
      988.523355
 30
       19.126809
  0
POINT
  8
Default
 62
255
 10
     1091.062680
 20
      988.543904
 30
       19.126976
  0
POINT
  8
Default
 62
255
 10
     1091.025157
 20
      988.553722
 30
       19.143140
  0
POINT
  8
Default
 62
255
 10
     1090.990216
 20
      988.545305
 30
       19.170798
  0
POINT
  8
Default
 62
255
 10
     1091.026256
 20
      988.515430
 30
       19.153836
  0
POINT
  8
Default
 62
255
 10
     1090.970560
 20
      988.577909
 30
       19.163276
  0
POINT
  8
Default
 62
255
 10
     1090.997851
 20
      988.599055
 30
       19.091656
  0
POINT
  8
Default
 62
255
 10
     1090.969106
 20
      988.622948
 30
       19.135689
  0
POINT
  8
Default
 62
255
 10
     1090.922506
 20
      988.537060
 30
       19.177227
  0
LINE
  8
Default
 62
255
 10
     1090.816159
 20
      988.306586
 30
       19.998359
 11
     1090.831641
 21
      988.340177
 31
       19.988343
  0
LINE
  8
Default
 62
255
 10
     1090.831641
 20
      988.340177
 30
       19.988343
 11
     1090.855621
 21
      988.364424
 31
       19.997248
  0
LINE
  8
Default
 62
255
 10
     1090.855621
 20
      988.364424
 30
       19.997248
 11
     1090.867894
 21
      988.399680
 31
       19.987393
  0
LINE
  8
Default
 62
255
 10
     1090.867894
 20
      988.399680
 30
       19.987393
 11
     1090.914644
 21
      988.455376
 31
       19.977531
  0
LINE
  8
Default
 62
255
 10
     1090.914644
 20
      988.455376
 30
       19.977531
 11
     1090.969277
 21
      988.493646
 31
       19.960208
  0
LINE
  8
Default
 62
255
 10
     1090.969277
 20
      988.493646
 30
       19.960208
 11
     1091.030510
 21
      988.453599
 31
       19.970512
  0
LINE
  8
Default
 62
255
 10
     1091.030510
 20
      988.453599
 30
       19.970512
 11
     1091.102185
 21
      988.403637
 31
       19.955752
  0
LINE
  8
Default
 62
255
 10
     1091.102185
 20
      988.403637
 30
       19.955752
 11
     1091.186329
 21
      988.337143
 31
       19.974837
  0
LINE
  8
Default
 62
255
 10
     1091.186329
 20
      988.337143
 30
       19.974837
 11
     1091.231392
 21
      988.293698
 31
       19.974841
  0
LINE
  8
Default
 62
255
 10
     1091.231392
 20
      988.293698
 30
       19.974841
 11
     1091.348078
 21
      988.209664
 31
       19.957559
  0
LINE
  8
Default
 62
255
 10
     1091.348078
 20
      988.209664
 30
       19.957559
 11
     1091.387045
 21
      988.141868
 31
       19.944153
  0
LINE
  8
Default
 62
255
 10
     1091.323900
 20
      988.322363
 30
       19.483218
 11
     1091.375991
 21
      988.358815
 31
       19.459931
  0
LINE
  8
Default
 62
255
 10
     1091.375991
 20
      988.358815
 30
       19.459931
 11
     1091.449186
 21
      988.401106
 31
       19.479979
  0
LINE
  8
Default
 62
255
 10
     1091.449186
 20
      988.401106
 30
       19.479979
 11
     1091.498571
 21
      988.469962
 31
       19.487370
  0
LINE
  8
Default
 62
255
 10
     1091.498571
 20
      988.469962
 30
       19.487370
 11
     1091.546285
 21
      988.527622
 31
       19.486768
  0
LINE
  8
Default
 62
255
 10
     1091.546285
 20
      988.527622
 30
       19.486768
 11
     1091.554003
 21
      988.575029
 31
       19.457387
  0
LINE
  8
Default
 62
255
 10
     1091.554003
 20
      988.575029
 30
       19.457387
 11
     1091.581936
 21
      988.642984
 31
       19.479281
  0
LINE
  8
Default
 62
255
 10
     1091.581936
 20
      988.642984
 30
       19.479281
 11
     1091.601708
 21
      988.684299
 31
       19.483368
  0
LINE
  8
Default
 62
255
 10
     1091.601708
 20
      988.684299
 30
       19.483368
 11
     1091.611328
 21
      988.719651
 31
       19.487193
  0
LINE
  8
Default
 62
255
 10
     1091.611328
 20
      988.719651
 30
       19.487193
 11
     1091.606537
 21
      988.790093
 31
       19.494396
  0
LINE
  8
Default
 62
255
 10
     1091.606537
 20
      988.790093
 30
       19.494396
 11
     1091.610611
 21
      988.837209
 31
       19.508344
  0
LINE
  8
Default
 62
255
 10
     1091.610611
 20
      988.837209
 30
       19.508344
 11
     1091.595205
 21
      988.888314
 31
       19.513205
  0
LINE
  8
Default
 62
255
 10
     1091.595205
 20
      988.888314
 30
       19.513205
 11
     1091.591083
 21
      988.942301
 31
       19.530724
  0
LINE
  8
Default
 62
255
 10
     1091.591083
 20
      988.942301
 30
       19.530724
 11
     1091.570657
 21
      988.993278
 31
       19.545541
  0
LINE
  8
Default
 62
255
 10
     1091.570657
 20
      988.993278
 30
       19.545541
 11
     1091.555352
 21
      989.052258
 31
       19.572111
  0
LINE
  8
Default
 62
255
 10
     1091.555352
 20
      989.052258
 30
       19.572111
 11
     1091.534769
 21
      989.110662
 31
       19.564166
  0
LINE
  8
Default
 62
255
 10
     1090.977661
 20
      989.332379
 30
       19.755229
 11
     1090.917873
 21
      989.311474
 31
       19.763023
  0
LINE
  8
Default
 62
255
 10
     1090.917873
 20
      989.311474
 30
       19.763023
 11
     1090.819797
 21
      989.271415
 31
       19.788894
  0
LINE
  8
Default
 62
255
 10
     1090.977661
 20
      989.332379
 30
       19.755229
 11
     1091.042641
 21
      989.343206
 31
       19.685114
  0
LINE
  8
Default
 62
255
 10
     1091.042641
 20
      989.343206
 30
       19.685114
 11
     1091.145189
 21
      989.336009
 31
       19.660580
  0
LINE
  8
Default
 62
255
 10
     1091.145189
 20
      989.336009
 30
       19.660580
 11
     1091.216320
 21
      989.329390
 31
       19.646572
  0
LINE
  8
Default
 62
255
 10
     1091.216320
 20
      989.329390
 30
       19.646572
 11
     1091.309893
 21
      989.308073
 31
       19.631671
  0
LINE
  8
Default
 62
255
 10
     1091.309893
 20
      989.308073
 30
       19.631671
 11
     1091.389249
 21
      989.287073
 31
       19.630126
  0
LINE
  8
Default
 62
255
 10
     1091.389249
 20
      989.287073
 30
       19.630126
 11
     1091.501126
 21
      989.250157
 31
       19.637290
  0
LINE
  8
Default
 62
255
 10
     1091.501126
 20
      989.250157
 30
       19.637290
 11
     1091.556468
 21
      989.212507
 31
       19.636282
  0
LINE
  8
Default
 62
255
 10
     1091.556468
 20
      989.212507
 30
       19.636282
 11
     1091.608683
 21
      989.152734
 31
       19.642746
  0
LINE
  8
Default
 62
255
 10
     1091.608683
 20
      989.152734
 30
       19.642746
 11
     1091.636158
 21
      989.113850
 31
       19.635800
  0
LINE
  8
Default
 62
255
 10
     1091.636158
 20
      989.113850
 30
       19.635800
 11
     1091.670970
 21
      989.066005
 31
       19.639910
  0
LINE
  8
Default
 62
255
 10
     1091.670970
 20
      989.066005
 30
       19.639910
 11
     1091.752803
 21
      988.951043
 31
       19.640749
  0
LINE
  8
Default
 62
255
 10
     1091.752803
 20
      988.951043
 30
       19.640749
 11
     1091.738824
 21
      988.904722
 31
       19.616637
  0
LINE
  8
Default
 62
255
 10
     1091.738824
 20
      988.904722
 30
       19.616637
 11
     1091.721560
 21
      988.863266
 31
       19.594256
  0
LINE
  8
Default
 62
255
 10
     1091.721560
 20
      988.863266
 30
       19.594256
 11
     1091.713239
 21
      988.787904
 31
       19.562025
  0
LINE
  8
Default
 62
255
 10
     1091.323900
 20
      988.322363
 30
       19.483218
 11
     1091.342501
 21
      988.296197
 31
       19.491518
  0
LINE
  8
Default
 62
255
 10
     1091.342501
 20
      988.296197
 30
       19.491518
 11
     1091.373463
 21
      988.324114
 31
       19.473570
  0
LINE
  8
Default
 62
255
 10
     1091.373463
 20
      988.324114
 30
       19.473570
 11
     1091.417541
 21
      988.359197
 31
       19.474051
  0
LINE
  8
Default
 62
255
 10
     1091.417541
 20
      988.359197
 30
       19.474051
 11
     1091.499555
 21
      988.446273
 31
       19.487794
  0
LINE
  8
Default
 62
255
 10
     1091.499555
 20
      988.446273
 30
       19.487794
 11
     1091.536853
 21
      988.488432
 31
       19.489820
  0
LINE
  8
Default
 62
255
 10
     1091.536853
 20
      988.488432
 30
       19.489820
 11
     1091.580267
 21
      988.539302
 31
       19.473181
  0
LINE
  8
Default
 62
255
 10
     1091.580267
 20
      988.539302
 30
       19.473181
 11
     1091.607307
 21
      988.577068
 31
       19.464869
  0
LINE
  8
Default
 62
255
 10
     1091.607307
 20
      988.577068
 30
       19.464869
 11
     1091.641643
 21
      988.637499
 31
       19.479511
  0
LINE
  8
Default
 62
255
 10
     1091.641643
 20
      988.637499
 30
       19.479511
 11
     1091.699266
 21
      988.702784
 31
       19.532660
  0
LINE
  8
Default
 62
255
 10
     1091.699266
 20
      988.702784
 30
       19.532660
 11
     1091.713850
 21
      988.724632
 31
       19.551974
  0
LINE
  8
Default
 62
255
 10
     1091.713850
 20
      988.724632
 30
       19.551974
 11
     1091.742441
 21
      988.746169
 31
       19.586089
  0
LINE
  8
Default
 62
255
 10
     1091.742441
 20
      988.746169
 30
       19.586089
 11
     1091.777980
 21
      988.781716
 31
       19.612593
  0
LINE
  8
Default
 62
255
 10
     1091.777980
 20
      988.781716
 30
       19.612593
 11
     1091.880605
 21
      988.869624
 31
       19.658043
  0
LINE
  8
Default
 62
255
 10
     1091.891704
 20
      988.642340
 30
       20.014207
 11
     1091.827743
 21
      988.680711
 31
       20.019735
  0
LINE
  8
Default
 62
255
 10
     1091.827743
 20
      988.680711
 30
       20.019735
 11
     1091.774534
 21
      988.617122
 31
       20.013895
  0
LINE
  8
Default
 62
255
 10
     1091.774534
 20
      988.617122
 30
       20.013895
 11
     1091.753224
 21
      988.587571
 31
       20.018663
  0
LINE
  8
Default
 62
255
 10
     1091.753224
 20
      988.587571
 30
       20.018663
 11
     1091.713585
 21
      988.535556
 31
       20.030654
  0
LINE
  8
Default
 62
255
 10
     1091.342501
 20
      988.296197
 30
       19.491518
 11
     1091.351567
 21
      988.298403
 31
       19.599532
  0
LINE
  8
Default
 62
255
 10
     1091.351567
 20
      988.298403
 30
       19.599532
 11
     1091.359737
 21
      988.278884
 31
       19.689489
  0
LINE
  8
Default
 62
255
 10
     1091.359737
 20
      988.278884
 30
       19.689489
 11
     1091.365662
 21
      988.261612
 31
       19.784875
  0
LINE
  8
Default
 62
255
 10
     1091.365662
 20
      988.261612
 30
       19.784875
 11
     1091.366482
 21
      988.247894
 31
       19.879539
  0
LINE
  8
Default
 62
255
 10
     1091.366482
 20
      988.247894
 30
       19.879539
 11
     1091.348078
 21
      988.209664
 31
       19.957559
  0
LINE
  8
Default
 62
255
 10
     1091.437083
 20
      988.194907
 30
       20.071621
 11
     1091.446505
 21
      988.248523
 31
       20.048395
  0
LINE
  8
Default
 62
255
 10
     1091.446505
 20
      988.248523
 30
       20.048395
 11
     1091.510257
 21
      988.328419
 31
       20.027868
  0
LINE
  8
Default
 62
255
 10
     1091.510257
 20
      988.328419
 30
       20.027868
 11
     1091.579738
 21
      988.393021
 31
       19.959754
  0
LINE
  8
Default
 62
255
 10
     1091.579738
 20
      988.393021
 30
       19.959754
 11
     1091.689803
 21
      988.489715
 31
       20.010771
  0
LINE
  8
Default
 62
255
 10
     1091.689803
 20
      988.489715
 30
       20.010771
 11
     1091.713585
 21
      988.535556
 31
       20.030654
  0
LINE
  8
Default
 62
255
 10
     1090.816159
 20
      988.306586
 30
       19.998359
 11
     1090.831646
 21
      988.267581
 31
       19.996429
  0
LINE
  8
Default
 62
255
 10
     1090.758843
 20
      988.306821
 30
       19.843322
 11
     1090.690672
 21
      988.333945
 31
       19.821283
  0
LINE
  8
Default
 62
255
 10
     1091.437083
 20
      988.194907
 30
       20.071621
 11
     1091.387045
 21
      988.141868
 31
       19.944153
  0
LINE
  8
Default
 62
255
 10
     1091.323900
 20
      988.322363
 30
       19.483218
 11
     1091.260477
 21
      988.315593
 31
       19.272035
  0
LINE
  8
Default
 62
255
 10
     1091.260477
 20
      988.315593
 30
       19.272035
 11
     1091.255204
 21
      988.370987
 31
       19.251516
  0
LINE
  8
Default
 62
255
 10
     1091.255204
 20
      988.370987
 30
       19.251516
 11
     1091.228289
 21
      988.404081
 31
       19.205468
  0
LINE
  8
Default
 62
255
 10
     1091.228289
 20
      988.404081
 30
       19.205468
 11
     1091.182219
 21
      988.445905
 31
       19.186035
  0
LINE
  8
Default
 62
255
 10
     1091.182219
 20
      988.445905
 30
       19.186035
 11
     1091.117183
 21
      988.468835
 31
       19.154802
  0
LINE
  8
Default
 62
255
 10
     1091.117183
 20
      988.468835
 30
       19.154802
 11
     1091.052396
 21
      988.499476
 31
       19.143498
  0
LINE
  8
Default
 62
255
 10
     1091.052396
 20
      988.499476
 30
       19.143498
 11
     1091.026256
 21
      988.515430
 31
       19.153836
  0
LINE
  8
Default
 62
255
 10
     1091.026256
 20
      988.515430
 30
       19.153836
 11
     1090.990216
 21
      988.545305
 31
       19.170798
  0
LINE
  8
Default
 62
255
 10
     1090.950361
 20
      988.563468
 30
       19.169214
 11
     1090.922506
 21
      988.537060
 31
       19.177227
  0
LINE
  8
Default
 62
255
 10
     1090.922506
 20
      988.537060
 30
       19.177227
 11
     1090.830478
 21
      988.456496
 31
       19.248507
  0
LINE
  8
Default
 62
255
 10
     1090.830478
 20
      988.456496
 30
       19.248507
 11
     1090.797015
 21
      988.441361
 31
       19.299860
  0
LINE
  8
Default
 62
255
 10
     1090.797015
 20
      988.441361
 30
       19.299860
 11
     1090.774612
 21
      988.402183
 31
       19.448856
  0
LINE
  8
Default
 62
255
 10
     1090.774612
 20
      988.402183
 30
       19.448856
 11
     1090.777657
 21
      988.378416
 31
       19.537085
  0
LINE
  8
Default
 62
255
 10
     1090.777657
 20
      988.378416
 30
       19.537085
 11
     1090.771164
 21
      988.379168
 31
       19.686464
  0
LINE
  8
Default
 62
255
 10
     1090.771164
 20
      988.379168
 30
       19.686464
 11
     1090.741995
 21
      988.338354
 31
       19.740198
  0
LINE
  8
Default
 62
255
 10
     1090.741995
 20
      988.338354
 30
       19.740198
 11
     1090.735609
 21
      988.320787
 31
       19.799557
  0
LINE
  8
Default
 62
255
 10
     1090.735609
 20
      988.320787
 30
       19.799557
 11
     1090.758843
 21
      988.306821
 31
       19.843322
  0
LINE
  8
Default
 62
255
 10
     1090.690672
 20
      988.333945
 30
       19.821283
 11
     1090.644080
 21
      988.385918
 31
       19.825038
  0
LINE
  8
Default
 62
255
 10
     1090.644080
 20
      988.385918
 30
       19.825038
 11
     1090.612574
 21
      988.424213
 31
       19.828187
  0
LINE
  8
Default
 62
255
 10
     1090.612574
 20
      988.424213
 30
       19.828187
 11
     1090.588374
 21
      988.441944
 31
       19.840133
  0
LINE
  8
Default
 62
255
 10
     1090.588374
 20
      988.441944
 30
       19.840133
 11
     1090.551442
 21
      988.456149
 31
       19.905018
  0
LINE
  8
Default
 62
255
 10
     1090.551442
 20
      988.456149
 30
       19.905018
 11
     1090.517363
 21
      988.485137
 31
       19.934110
  0
LINE
  8
Default
 62
255
 10
     1090.517363
 20
      988.485137
 30
       19.934110
 11
     1090.516952
 21
      988.557897
 31
       19.946207
  0
LINE
  8
Default
 62
255
 10
     1090.516952
 20
      988.557897
 30
       19.946207
 11
     1090.507565
 21
      988.609924
 31
       19.958512
  0
LINE
  8
Default
 62
255
 10
     1090.507565
 20
      988.609924
 30
       19.958512
 11
     1090.492776
 21
      988.651030
 31
       19.928620
  0
LINE
  8
Default
 62
255
 10
     1090.492776
 20
      988.651030
 30
       19.928620
 11
     1090.539700
 21
      988.761418
 31
       19.887657
  0
LINE
  8
Default
 62
255
 10
     1090.539700
 20
      988.761418
 30
       19.887657
 11
     1090.564534
 21
      988.818549
 31
       19.872913
  0
LINE
  8
Default
 62
255
 10
     1090.564534
 20
      988.818549
 30
       19.872913
 11
     1090.586189
 21
      988.870904
 31
       19.869466
  0
LINE
  8
Default
 62
255
 10
     1090.586189
 20
      988.870904
 30
       19.869466
 11
     1090.614044
 21
      988.943928
 31
       19.901812
  0
LINE
  8
Default
 62
255
 10
     1090.614044
 20
      988.943928
 30
       19.901812
 11
     1090.631092
 21
      989.018096
 31
       19.899162
  0
LINE
  8
Default
 62
255
 10
     1090.631092
 20
      989.018096
 30
       19.899162
 11
     1090.673181
 21
      989.073883
 31
       19.897336
  0
LINE
  8
Default
 62
255
 10
     1090.673181
 20
      989.073883
 30
       19.897336
 11
     1090.693456
 21
      989.106658
 31
       19.901827
  0
LINE
  8
Default
 62
255
 10
     1090.693456
 20
      989.106658
 30
       19.901827
 11
     1090.713335
 21
      989.133253
 31
       19.876151
  0
LINE
  8
Default
 62
255
 10
     1090.713335
 20
      989.133253
 30
       19.876151
 11
     1090.740631
 21
      989.174300
 31
       19.839853
  0
LINE
  8
Default
 62
255
 10
     1090.740631
 20
      989.174300
 30
       19.839853
 11
     1090.756584
 21
      989.217678
 31
       19.814489
  0
LINE
  8
Default
 62
255
 10
     1090.756584
 20
      989.217678
 30
       19.814489
 11
     1090.819797
 21
      989.271415
 31
       19.788894
  0
LINE
  8
Default
 62
255
 10
     1091.331806
 20
      988.412071
 30
       19.247914
 11
     1091.255204
 21
      988.370987
 31
       19.251516
  0
LINE
  8
Default
 62
255
 10
     1091.457967
 20
      988.523762
 30
       19.265678
 11
     1091.478682
 21
      988.576926
 31
       19.252749
  0
LINE
  8
Default
 62
255
 10
     1091.478682
 20
      988.576926
 30
       19.252749
 11
     1091.502775
 21
      988.626798
 31
       19.227863
  0
LINE
  8
Default
 62
255
 10
     1091.502775
 20
      988.626798
 30
       19.227863
 11
     1091.530416
 21
      988.676193
 31
       19.223345
  0
LINE
  8
Default
 62
255
 10
     1091.530416
 20
      988.676193
 30
       19.223345
 11
     1091.502072
 21
      988.745976
 31
       19.228227
  0
LINE
  8
Default
 62
255
 10
     1091.502072
 20
      988.745976
 30
       19.228227
 11
     1091.468032
 21
      988.831278
 31
       19.185965
  0
LINE
  8
Default
 62
255
 10
     1091.468032
 20
      988.831278
 30
       19.185965
 11
     1091.483778
 21
      988.932360
 31
       19.270074
  0
LINE
  8
Default
 62
255
 10
     1091.483778
 20
      988.932360
 30
       19.270074
 11
     1091.447306
 21
      989.004792
 31
       19.280806
  0
LINE
  8
Default
 62
255
 10
     1091.447306
 20
      989.004792
 30
       19.280806
 11
     1091.329226
 21
      989.072565
 31
       19.238925
  0
LINE
  8
Default
 62
255
 10
     1091.329226
 20
      989.072565
 30
       19.238925
 11
     1091.292146
 21
      989.119502
 31
       19.261624
  0
LINE
  8
Default
 62
255
 10
     1091.292146
 20
      989.119502
 30
       19.261624
 11
     1091.200247
 21
      989.132613
 31
       19.257604
  0
LINE
  8
Default
 62
255
 10
     1091.200247
 20
      989.132613
 30
       19.257604
 11
     1091.152523
 21
      989.125238
 31
       19.251657
  0
LINE
  8
Default
 62
255
 10
     1091.152523
 20
      989.125238
 30
       19.251657
 11
     1091.108411
 21
      989.114703
 31
       19.244508
  0
LINE
  8
Default
 62
255
 10
     1091.108411
 20
      989.114703
 30
       19.244508
 11
     1091.050365
 21
      989.089225
 31
       19.226527
  0
LINE
  8
Default
 62
255
 10
     1091.050365
 20
      989.089225
 30
       19.226527
 11
     1090.914755
 21
      989.022427
 31
       19.208209
  0
LINE
  8
Default
 62
255
 10
     1090.914755
 20
      989.022427
 30
       19.208209
 11
     1090.861518
 21
      988.977733
 31
       19.211399
  0
LINE
  8
Default
 62
255
 10
     1090.861518
 20
      988.977733
 30
       19.211399
 11
     1090.835020
 21
      988.926343
 31
       19.205091
  0
LINE
  8
Default
 62
255
 10
     1090.830743
 20
      988.568746
 30
       19.189701
 11
     1090.799054
 21
      988.662325
 31
       19.183158
  0
LINE
  8
Default
 62
255
 10
     1090.799054
 20
      988.662325
 30
       19.183158
 11
     1090.803071
 21
      988.717427
 31
       19.180592
  0
LINE
  8
Default
 62
255
 10
     1090.803071
 20
      988.717427
 30
       19.180592
 11
     1090.801788
 21
      988.752332
 31
       19.189508
  0
LINE
  8
Default
 62
255
 10
     1090.801788
 20
      988.752332
 30
       19.189508
 11
     1090.835020
 21
      988.926343
 31
       19.205091
  0
LINE
  8
Default
 62
255
 10
     1090.830743
 20
      988.568746
 30
       19.189701
 11
     1090.877349
 21
      988.543046
 31
       19.183144
  0
LINE
  8
Default
 62
255
 10
     1090.877349
 20
      988.543046
 30
       19.183144
 11
     1090.922506
 21
      988.537060
 31
       19.177227
  0
LINE
  8
Default
 62
255
 10
     1091.182219
 20
      988.445905
 30
       19.186035
 11
     1091.180565
 21
      988.465788
 31
       19.176662
  0
LINE
  8
Default
 62
255
 10
     1091.180565
 20
      988.465788
 30
       19.176662
 11
     1091.288137
 21
      988.529914
 31
       19.174805
  0
LINE
  8
Default
 62
255
 10
     1091.288137
 20
      988.529914
 30
       19.174805
 11
     1091.338501
 21
      988.616631
 31
       19.172279
  0
LINE
  8
Default
 62
255
 10
     1091.338501
 20
      988.616631
 30
       19.172279
 11
     1091.363537
 21
      988.680058
 31
       19.159967
  0
LINE
  8
Default
 62
255
 10
     1091.363537
 20
      988.680058
 30
       19.159967
 11
     1091.332347
 21
      988.801027
 31
       19.149063
  0
LINE
  8
Default
 62
255
 10
     1091.332347
 20
      988.801027
 30
       19.149063
 11
     1091.305710
 21
      988.837712
 31
       19.138898
  0
LINE
  8
Default
 62
255
 10
     1091.305710
 20
      988.837712
 30
       19.138898
 11
     1091.243494
 21
      988.889021
 31
       19.138876
  0
LINE
  8
Default
 62
255
 10
     1091.243494
 20
      988.889021
 30
       19.138876
 11
     1091.114323
 21
      988.951690
 31
       19.140440
  0
LINE
  8
Default
 62
255
 10
     1091.114323
 20
      988.951690
 30
       19.140440
 11
     1091.090633
 21
      988.943851
 31
       19.137484
  0
LINE
  8
Default
 62
255
 10
     1091.090633
 20
      988.943851
 30
       19.137484
 11
     1091.047583
 21
      988.931788
 31
       19.132736
  0
LINE
  8
Default
 62
255
 10
     1091.047583
 20
      988.931788
 30
       19.132736
 11
     1091.001517
 21
      988.912477
 31
       19.132289
  0
LINE
  8
Default
 62
255
 10
     1091.001517
 20
      988.912477
 30
       19.132289
 11
     1090.929798
 21
      988.859056
 31
       19.146492
  0
LINE
  8
Default
 62
255
 10
     1090.929798
 20
      988.859056
 30
       19.146492
 11
     1090.883393
 21
      988.774304
 31
       19.149112
  0
LINE
  8
Default
 62
255
 10
     1090.990216
 20
      988.545305
 30
       19.170798
 11
     1090.950361
 21
      988.563468
 31
       19.169214
  0
LINE
  8
Default
 62
255
 10
     1090.950361
 20
      988.563468
 30
       19.169214
 11
     1090.969277
 21
      988.493646
 31
       19.960208
  0
LINE
  8
Default
 62
255
 10
     1091.827743
 20
      988.680711
 30
       20.019735
 11
     1091.777980
 21
      988.781716
 31
       19.612593
  0
ENDSEC
  0
EOF
