  0
SECTION
  2
HEADER
  9
$PDMODE
 70
   34
  9
$PDSIZE
 40
   -3.0
  0
ENDSEC
  0
SECTION
  2
TABLES
  0
TABLE
  2
LTYPE
 70
 1
  0
LTYPE
  2
CONTINUOUS
  70
 64
  3
Solid line
  72
 65
 73
 0
  40
 0.0
  0
ENDTAB
  0
TABLE
  2
LAYER
 70
 1
 0
LAYER
  2
Default
  70
 0
 62
 7
  6
CONTINUOUS
  0
ENDTAB
  0 
ENDSEC
  0
SECTION
  2
ENTITIES
  0
POINT
  8
Default
 62
255
 10
     1099.999841
 20
      984.411538
 30
       19.431488
  0
POINT
  8
Default
 62
255
 10
     1101.006263
 20
      983.524797
 30
       19.414815
  0
POINT
  8
Default
 62
255
 10
     1100.307899
 20
      982.554373
 30
       19.422586
  0
POINT
  8
Default
 62
255
 10
     1100.684077
 20
      982.745869
 30
       19.394582
  0
POINT
  8
Default
 62
255
 10
     1100.459651
 20
      982.789534
 30
       19.424643
  0
POINT
  8
Default
 62
255
 10
     1100.334296
 20
      982.686518
 30
       19.416299
  0
POINT
  8
Default
 62
255
 10
     1100.204887
 20
      983.022707
 30
       19.442484
  0
POINT
  8
Default
 62
255
 10
     1099.875989
 20
      983.079287
 30
       19.423599
  0
POINT
  8
Default
 62
255
 10
     1099.698518
 20
      983.047953
 30
       19.428076
  0
POINT
  8
Default
 62
255
 10
     1100.018902
 20
      982.748919
 30
       19.429504
  0
POINT
  8
Default
 62
255
 10
     1100.820389
 20
      982.950231
 30
       19.347628
  0
POINT
  8
Default
 62
255
 10
     1100.939680
 20
      983.154390
 30
       19.389491
  0
POINT
  8
Default
 62
255
 10
     1100.962880
 20
      983.273766
 30
       19.399752
  0
POINT
  8
Default
 62
255
 10
     1100.944515
 20
      983.363830
 30
       19.414813
  0
POINT
  8
Default
 62
255
 10
     1100.881028
 20
      983.493158
 30
       19.375586
  0
POINT
  8
Default
 62
255
 10
     1100.995457
 20
      983.652310
 30
       19.404429
  0
POINT
  8
Default
 62
255
 10
     1100.835274
 20
      983.653148
 30
       19.365615
  0
POINT
  8
Default
 62
255
 10
     1100.882580
 20
      983.840441
 30
       19.370676
  0
POINT
  8
Default
 62
255
 10
     1100.772370
 20
      983.785374
 30
       19.364437
  0
POINT
  8
Default
 62
255
 10
     1100.688367
 20
      983.869580
 30
       19.377678
  0
POINT
  8
Default
 62
255
 10
     1100.760691
 20
      983.950048
 30
       19.404273
  0
POINT
  8
Default
 62
255
 10
     1100.560995
 20
      983.965780
 30
       19.408371
  0
POINT
  8
Default
 62
255
 10
     1100.600381
 20
      984.093721
 30
       19.436325
  0
POINT
  8
Default
 62
255
 10
     1100.363378
 20
      984.136920
 30
       19.392506
  0
POINT
  8
Default
 62
255
 10
     1100.355935
 20
      984.325936
 30
       19.423025
  0
POINT
  8
Default
 62
255
 10
     1100.204812
 20
      984.401437
 30
       19.432185
  0
POINT
  8
Default
 62
255
 10
     1100.141823
 20
      984.171570
 30
       19.391086
  0
POINT
  8
Default
 62
255
 10
     1100.091135
 20
      984.558139
 30
       19.455370
  0
POINT
  8
Default
 62
255
 10
     1099.864841
 20
      984.398983
 30
       19.456237
  0
POINT
  8
Default
 62
255
 10
     1099.938554
 20
      984.349183
 30
       19.414554
  0
POINT
  8
Default
 62
255
 10
     1100.501245
 20
      983.086109
 30
       19.048260
  0
POINT
  8
Default
 62
255
 10
     1100.554088
 20
      983.259404
 30
       19.024343
  0
POINT
  8
Default
 62
255
 10
     1100.786811
 20
      983.340801
 30
       19.064079
  0
POINT
  8
Default
 62
255
 10
     1100.717860
 20
      983.138627
 30
       19.050686
  0
POINT
  8
Default
 62
255
 10
     1100.526619
 20
      983.443954
 30
       19.004154
  0
POINT
  8
Default
 62
255
 10
     1100.681407
 20
      983.536678
 30
       19.084135
  0
POINT
  8
Default
 62
255
 10
     1100.252284
 20
      983.253398
 30
       19.139230
  0
POINT
  8
Default
 62
255
 10
     1100.374554
 20
      983.457831
 30
       19.103132
  0
POINT
  8
Default
 62
255
 10
     1100.515442
 20
      983.592950
 30
       19.206816
  0
POINT
  8
Default
 62
255
 10
     1100.074610
 20
      983.670024
 30
       19.332669
  0
POINT
  8
Default
 62
255
 10
     1100.153050
 20
      983.848103
 30
       19.311358
  0
POINT
  8
Default
 62
255
 10
     1100.400098
 20
      983.963685
 30
       19.375548
  0
POINT
  8
Default
 62
255
 10
     1100.023741
 20
      984.191870
 30
       19.349371
  0
POINT
  8
Default
 62
255
 10
     1099.821220
 20
      984.293990
 30
       19.337233
  0
POINT
  8
Default
 62
255
 10
     1099.794210
 20
      984.090059
 30
       19.337096
  0
POINT
  8
Default
 62
255
 10
     1099.987231
 20
      984.012275
 30
       19.340406
  0
POINT
  8
Default
 62
255
 10
     1099.689263
 20
      983.918199
 30
       19.345488
  0
POINT
  8
Default
 62
255
 10
     1099.787194
 20
      983.638825
 30
       19.329031
  0
POINT
  8
Default
 62
255
 10
     1099.654705
 20
      983.500451
 30
       19.356317
  0
POINT
  8
Default
 62
255
 10
     1100.009773
 20
      983.378794
 30
       19.286195
  0
POINT
  8
Default
 62
255
 10
     1100.099324
 20
      983.313379
 30
       19.241215
  0
POINT
  8
Default
 62
255
 10
     1099.976033
 20
      983.184562
 30
       19.324906
  0
POINT
  8
Default
 62
255
 10
     1099.582651
 20
      983.150877
 30
       19.430274
  0
POINT
  8
Default
 62
255
 10
     1099.805752
 20
      983.277540
 30
       19.335054
  0
POINT
  8
Default
 62
255
 10
     1099.528526
 20
      983.385117
 30
       19.330442
  0
POINT
  8
Default
 62
255
 10
     1099.374625
 20
      983.617863
 30
       19.340293
  0
POINT
  8
Default
 62
255
 10
     1099.252300
 20
      983.787017
 30
       19.353524
  0
POINT
  8
Default
 62
255
 10
     1099.472182
 20
      983.753444
 30
       19.337731
  0
POINT
  8
Default
 62
255
 10
     1099.385126
 20
      984.064555
 30
       19.345175
  0
POINT
  8
Default
 62
255
 10
     1099.239184
 20
      984.218996
 30
       19.354586
  0
POINT
  8
Default
 62
255
 10
     1099.140746
 20
      984.095808
 30
       19.389331
  0
POINT
  8
Default
 62
255
 10
     1098.926618
 20
      983.852097
 30
       19.383200
  0
POINT
  8
Default
 62
255
 10
     1099.849700
 20
      983.406409
 30
       19.332794
  0
POINT
  8
Default
 62
255
 10
     1099.898705
 20
      983.456037
 30
       19.326603
  0
POINT
  8
Default
 62
255
 10
     1099.969826
 20
      983.451091
 30
       19.317370
  0
POINT
  8
Default
 62
255
 10
     1100.036241
 20
      983.424601
 30
       19.276580
  0
POINT
  8
Default
 62
255
 10
     1100.127191
 20
      983.374227
 30
       19.229483
  0
POINT
  8
Default
 62
255
 10
     1100.251165
 20
      983.306401
 30
       19.127982
  0
POINT
  8
Default
 62
255
 10
     1100.358469
 20
      983.264533
 30
       19.107792
  0
POINT
  8
Default
 62
255
 10
     1100.446881
 20
      983.212728
 30
       19.038928
  0
POINT
  8
Default
 62
255
 10
     1100.537390
 20
      983.153933
 30
       19.028727
  0
POINT
  8
Default
 62
255
 10
     1100.642514
 20
      983.104498
 30
       19.052720
  0
POINT
  8
Default
 62
255
 10
     1100.678446
 20
      983.063454
 30
       19.078934
  0
POINT
  8
Default
 62
255
 10
     1100.733187
 20
      983.028368
 30
       19.136005
  0
POINT
  8
Default
 62
255
 10
     1100.786036
 20
      983.017821
 30
       19.221053
  0
POINT
  8
Default
 62
255
 10
     1100.830743
 20
      983.017225
 30
       19.290942
  0
POINT
  8
Default
 62
255
 10
     1100.889264
 20
      983.003369
 30
       19.357073
  0
POINT
  8
Default
 62
255
 10
     1100.965100
 20
      983.039742
 30
       19.375698
  0
POINT
  8
Default
 62
255
 10
     1100.904618
 20
      983.087631
 30
       19.328603
  0
POINT
  8
Default
 62
255
 10
     1100.873888
 20
      983.117143
 30
       19.254314
  0
POINT
  8
Default
 62
255
 10
     1100.853944
 20
      983.163303
 30
       19.181301
  0
POINT
  8
Default
 62
255
 10
     1100.828583
 20
      983.189253
 30
       19.092423
  0
POINT
  8
Default
 62
255
 10
     1100.759345
 20
      983.223544
 30
       19.047313
  0
POINT
  8
Default
 62
255
 10
     1100.690212
 20
      983.391643
 30
       19.050131
  0
POINT
  8
Default
 62
255
 10
     1100.644228
 20
      983.472362
 30
       19.063550
  0
POINT
  8
Default
 62
255
 10
     1100.628455
 20
      983.526304
 30
       19.062525
  0
POINT
  8
Default
 62
255
 10
     1100.615465
 20
      983.615092
 30
       19.064866
  0
POINT
  8
Default
 62
255
 10
     1100.609364
 20
      983.693251
 30
       19.117979
  0
POINT
  8
Default
 62
255
 10
     1100.566517
 20
      983.777063
 30
       19.157473
  0
POINT
  8
Default
 62
255
 10
     1100.514450
 20
      983.818090
 30
       19.205631
  0
POINT
  8
Default
 62
255
 10
     1100.482021
 20
      983.861743
 30
       19.288977
  0
POINT
  8
Default
 62
255
 10
     1100.337132
 20
      983.885330
 30
       19.348508
  0
POINT
  8
Default
 62
255
 10
     1100.226974
 20
      983.961612
 30
       19.346539
  0
POINT
  8
Default
 62
255
 10
     1100.107480
 20
      984.098260
 30
       19.349209
  0
POINT
  8
Default
 62
255
 10
     1100.014435
 20
      984.108791
 30
       19.354381
  0
POINT
  8
Default
 62
255
 10
     1099.918117
 20
      984.078195
 30
       19.359746
  0
POINT
  8
Default
 62
255
 10
     1099.826515
 20
      984.117686
 30
       19.343055
  0
POINT
  8
Default
 62
255
 10
     1099.792507
 20
      984.191481
 30
       19.322161
  0
POINT
  8
Default
 62
255
 10
     1099.771336
 20
      984.268875
 30
       19.288449
  0
POINT
  8
Default
 62
255
 10
     1099.719957
 20
      984.245734
 30
       19.252806
  0
POINT
  8
Default
 62
255
 10
     1099.669248
 20
      984.294916
 30
       19.235063
  0
POINT
  8
Default
 62
255
 10
     1099.618481
 20
      984.361696
 30
       19.241187
  0
POINT
  8
Default
 62
255
 10
     1099.797962
 20
      983.226843
 30
       19.360938
  0
POINT
  8
Default
 62
255
 10
     1099.892149
 20
      983.224225
 30
       19.335572
  0
POINT
  8
Default
 62
255
 10
     1099.974765
 20
      983.226750
 30
       19.311877
  0
POINT
  8
Default
 62
255
 10
     1100.041803
 20
      983.235768
 30
       19.289258
  0
POINT
  8
Default
 62
255
 10
     1100.117903
 20
      983.244158
 30
       19.242910
  0
POINT
  8
Default
 62
255
 10
     1100.150709
 20
      983.290522
 30
       19.168139
  0
POINT
  8
Default
 62
255
 10
     1100.204024
 20
      983.362473
 30
       19.135035
  0
POINT
  8
Default
 62
255
 10
     1100.246137
 20
      983.443439
 30
       19.133128
  0
POINT
  8
Default
 62
255
 10
     1100.254705
 20
      983.523442
 30
       19.187046
  0
POINT
  8
Default
 62
255
 10
     1100.277808
 20
      983.610807
 30
       19.224765
  0
POINT
  8
Default
 62
255
 10
     1100.280181
 20
      983.693148
 30
       19.270540
  0
POINT
  8
Default
 62
255
 10
     1100.281044
 20
      983.773286
 30
       19.316326
  0
POINT
  8
Default
 62
255
 10
     1100.299372
 20
      983.837992
 30
       19.333456
  0
POINT
  8
Default
 62
255
 10
     1100.296315
 20
      983.931447
 30
       19.358260
  0
POINT
  8
Default
 62
255
 10
     1100.253392
 20
      984.005158
 30
       19.360035
  0
POINT
  8
Default
 62
255
 10
     1100.206222
 20
      984.048697
 30
       19.348283
  0
POINT
  8
Default
 62
255
 10
     1100.135056
 20
      984.040799
 30
       19.348121
  0
POINT
  8
Default
 62
255
 10
     1100.069817
 20
      983.970163
 30
       19.330918
  0
POINT
  8
Default
 62
255
 10
     1100.000888
 20
      983.902574
 30
       19.329752
  0
POINT
  8
Default
 62
255
 10
     1099.935384
 20
      983.839461
 30
       19.322530
  0
POINT
  8
Default
 62
255
 10
     1099.885569
 20
      983.802277
 30
       19.321568
  0
POINT
  8
Default
 62
255
 10
     1099.825584
 20
      983.765120
 30
       19.326393
  0
POINT
  8
Default
 62
255
 10
     1099.754460
 20
      983.720402
 30
       19.334700
  0
POINT
  8
Default
 62
255
 10
     1099.670372
 20
      983.663501
 30
       19.334835
  0
POINT
  8
Default
 62
255
 10
     1099.586888
 20
      983.618220
 30
       19.348604
  0
POINT
  8
Default
 62
255
 10
     1099.539536
 20
      983.572118
 30
       19.329200
  0
POINT
  8
Default
 62
255
 10
     1099.485271
 20
      983.483245
 30
       19.329116
  0
POINT
  8
Default
 62
255
 10
     1099.448804
 20
      983.422098
 30
       19.333566
  0
POINT
  8
Default
 62
255
 10
     1099.396191
 20
      983.408355
 30
       19.348755
  0
POINT
  8
Default
 62
255
 10
     1099.354024
 20
      983.489484
 30
       19.361017
  0
POINT
  8
Default
 62
255
 10
     1099.311170
 20
      983.570568
 30
       19.367595
  0
POINT
  8
Default
 62
255
 10
     1099.243425
 20
      983.635727
 30
       19.374524
  0
POINT
  8
Default
 62
255
 10
     1099.169044
 20
      983.698381
 30
       19.367555
  0
POINT
  8
Default
 62
255
 10
     1099.079927
 20
      983.766854
 30
       19.356208
  0
POINT
  8
Default
 62
255
 10
     1099.020903
 20
      983.836888
 30
       19.355545
  0
POINT
  8
Default
 62
255
 10
     1099.027405
 20
      983.937928
 30
       19.362046
  0
POINT
  8
Default
 62
255
 10
     1099.095606
 20
      983.965800
 30
       19.364855
  0
POINT
  8
Default
 62
255
 10
     1099.161970
 20
      984.010893
 30
       19.364515
  0
POINT
  8
Default
 62
255
 10
     1099.207810
 20
      984.032620
 30
       19.358478
  0
POINT
  8
Default
 62
255
 10
     1099.248965
 20
      984.064481
 30
       19.362472
  0
POINT
  8
Default
 62
255
 10
     1099.288203
 20
      983.952971
 30
       19.354422
  0
POINT
  8
Default
 62
255
 10
     1099.355321
 20
      983.948715
 30
       19.351874
  0
POINT
  8
Default
 62
255
 10
     1099.428557
 20
      984.011010
 30
       19.347132
  0
POINT
  8
Default
 62
255
 10
     1099.454231
 20
      984.050908
 30
       19.345181
  0
POINT
  8
Default
 62
255
 10
     1099.456726
 20
      984.080060
 30
       19.317836
  0
POINT
  8
Default
 62
255
 10
     1099.458487
 20
      984.099466
 30
       19.271930
  0
POINT
  8
Default
 62
255
 10
     1099.481216
 20
      984.109711
 30
       19.236975
  0
POINT
  8
Default
 62
255
 10
     1099.529640
 20
      984.129134
 30
       19.228411
  0
POINT
  8
Default
 62
255
 10
     1099.610726
 20
      984.132975
 30
       19.245255
  0
POINT
  8
Default
 62
255
 10
     1099.683629
 20
      984.095854
 30
       19.267045
  0
POINT
  8
Default
 62
255
 10
     1099.685303
 20
      984.064121
 30
       19.296248
  0
POINT
  8
Default
 62
255
 10
     1099.671247
 20
      984.033596
 30
       19.334026
  0
POINT
  8
Default
 62
255
 10
     1099.631668
 20
      984.007486
 30
       19.335959
  0
POINT
  8
Default
 62
255
 10
     1099.590558
 20
      983.978231
 30
       19.334764
  0
POINT
  8
Default
 62
255
 10
     1099.515542
 20
      983.917509
 30
       19.343327
  0
POINT
  8
Default
 62
255
 10
     1099.426180
 20
      983.878271
 30
       19.347077
  0
POINT
  8
Default
 62
255
 10
     1099.404061
 20
      983.800220
 30
       19.348091
  0
POINT
  8
Default
 62
255
 10
     1099.427162
 20
      983.704560
 30
       19.347493
  0
POINT
  8
Default
 62
255
 10
     1099.505697
 20
      983.654824
 30
       19.347299
  0
POINT
  8
Default
 62
255
 10
     1099.556288
 20
      983.719141
 30
       19.344183
  0
POINT
  8
Default
 62
255
 10
     1099.597844
 20
      983.802955
 30
       19.339208
  0
POINT
  8
Default
 62
255
 10
     1099.689078
 20
      983.805888
 30
       19.337643
  0
POINT
  8
Default
 62
255
 10
     1099.778149
 20
      983.786568
 30
       19.341024
  0
POINT
  8
Default
 62
255
 10
     1099.867889
 20
      983.821323
 30
       19.326481
  0
POINT
  8
Default
 62
255
 10
     1099.914416
 20
      983.759572
 30
       19.318268
  0
POINT
  8
Default
 62
255
 10
     1099.869134
 20
      983.686403
 30
       19.324659
  0
POINT
  8
Default
 62
255
 10
     1099.908471
 20
      983.623982
 30
       19.320024
  0
POINT
  8
Default
 62
255
 10
     1099.965041
 20
      983.562701
 30
       19.333492
  0
POINT
  8
Default
 62
255
 10
     1099.954571
 20
      983.471388
 30
       19.327599
  0
POINT
  8
Default
 62
255
 10
     1099.944294
 20
      983.390314
 30
       19.315084
  0
POINT
  8
Default
 62
255
 10
     1099.989121
 20
      983.315157
 30
       19.295510
  0
POINT
  8
Default
 62
255
 10
     1100.016207
 20
      983.240847
 30
       19.291949
  0
POINT
  8
Default
 62
255
 10
     1100.021295
 20
      983.160678
 30
       19.331748
  0
POINT
  8
Default
 62
255
 10
     1100.045003
 20
      983.132710
 30
       19.355239
  0
POINT
  8
Default
 62
255
 10
     1100.042519
 20
      983.119823
 30
       19.400449
  0
POINT
  8
Default
 62
255
 10
     1100.036958
 20
      983.081350
 30
       19.423034
  0
POINT
  8
Default
 62
255
 10
     1100.037968
 20
      982.999099
 30
       19.449813
  0
POINT
  8
Default
 62
255
 10
     1100.034670
 20
      982.948235
 30
       19.444519
  0
POINT
  8
Default
 62
255
 10
     1100.012101
 20
      982.930804
 30
       19.457349
  0
POINT
  8
Default
 62
255
 10
     1099.800213
 20
      984.460352
 30
       19.505398
  0
POINT
  8
Default
 62
255
 10
     1099.876379
 20
      984.491182
 30
       19.509748
  0
POINT
  8
Default
 62
255
 10
     1099.935015
 20
      984.534002
 30
       19.520789
  0
POINT
  8
Default
 62
255
 10
     1099.987061
 20
      984.520533
 30
       19.462265
  0
POINT
  8
Default
 62
255
 10
     1099.933027
 20
      984.473114
 30
       19.461206
  0
POINT
  8
Default
 62
255
 10
     1099.903232
 20
      984.367931
 30
       19.424656
  0
POINT
  8
Default
 62
255
 10
     1099.995633
 20
      984.274160
 30
       19.399972
  0
POINT
  8
Default
 62
255
 10
     1100.045206
 20
      984.404748
 30
       19.424956
  0
POINT
  8
Default
 62
255
 10
     1100.064444
 20
      984.464401
 30
       19.429269
  0
POINT
  8
Default
 62
255
 10
     1100.162923
 20
      984.327915
 30
       19.433097
  0
POINT
  8
Default
 62
255
 10
     1100.073864
 20
      984.220156
 30
       19.386563
  0
POINT
  8
Default
 62
255
 10
     1100.058111
 20
      984.291585
 30
       19.413633
  0
POINT
  8
Default
 62
255
 10
     1100.157408
 20
      984.254554
 30
       19.415403
  0
POINT
  8
Default
 62
255
 10
     1100.259668
 20
      984.260080
 30
       19.411540
  0
POINT
  8
Default
 62
255
 10
     1100.335092
 20
      984.206064
 30
       19.404085
  0
POINT
  8
Default
 62
255
 10
     1100.251664
 20
      984.206723
 30
       19.405036
  0
POINT
  8
Default
 62
255
 10
     1100.248396
 20
      984.149744
 30
       19.397727
  0
POINT
  8
Default
 62
255
 10
     1100.315127
 20
      984.087513
 30
       19.412985
  0
POINT
  8
Default
 62
255
 10
     1100.381314
 20
      984.053429
 30
       19.394123
  0
POINT
  8
Default
 62
255
 10
     1100.439399
 20
      984.113751
 30
       19.398512
  0
POINT
  8
Default
 62
255
 10
     1100.481561
 20
      984.024969
 30
       19.417028
  0
POINT
  8
Default
 62
255
 10
     1100.544868
 20
      984.092256
 30
       19.423619
  0
POINT
  8
Default
 62
255
 10
     1100.578210
 20
      984.004288
 30
       19.424452
  0
POINT
  8
Default
 62
255
 10
     1100.644653
 20
      984.014901
 30
       19.414144
  0
POINT
  8
Default
 62
255
 10
     1100.660001
 20
      983.943248
 30
       19.399617
  0
POINT
  8
Default
 62
255
 10
     1100.732973
 20
      983.828444
 30
       19.366872
  0
POINT
  8
Default
 62
255
 10
     1100.791688
 20
      983.855527
 30
       19.371099
  0
POINT
  8
Default
 62
255
 10
     1100.860425
 20
      983.781461
 30
       19.371140
  0
POINT
  8
Default
 62
255
 10
     1100.800249
 20
      983.712935
 30
       19.368119
  0
POINT
  8
Default
 62
255
 10
     1100.919506
 20
      983.691030
 30
       19.378812
  0
POINT
  8
Default
 62
255
 10
     1100.875311
 20
      983.584189
 30
       19.376796
  0
POINT
  8
Default
 62
255
 10
     1100.934687
 20
      983.587949
 30
       19.388708
  0
POINT
  8
Default
 62
255
 10
     1100.953286
 20
      983.521439
 30
       19.391480
  0
POINT
  8
Default
 62
255
 10
     1101.045372
 20
      983.567576
 30
       19.418362
  0
POINT
  8
Default
 62
255
 10
     1100.989562
 20
      983.453429
 30
       19.423850
  0
POINT
  8
Default
 62
255
 10
     1100.908545
 20
      983.432992
 30
       19.398367
  0
POINT
  8
Default
 62
255
 10
     1100.984428
 20
      983.405021
 30
       19.424538
  0
POINT
  8
Default
 62
255
 10
     1101.001272
 20
      983.317588
 30
       19.416992
  0
POINT
  8
Default
 62
255
 10
     1100.955519
 20
      983.204393
 30
       19.405958
  0
POINT
  8
Default
 62
255
 10
     1101.020742
 20
      983.258790
 30
       19.397473
  0
POINT
  8
Default
 62
255
 10
     1101.036751
 20
      983.186687
 30
       19.404337
  0
POINT
  8
Default
 62
255
 10
     1101.053666
 20
      983.088107
 30
       19.378034
  0
POINT
  8
Default
 62
255
 10
     1101.023735
 20
      983.002447
 30
       19.370276
  0
POINT
  8
Default
 62
255
 10
     1100.867944
 20
      982.925819
 30
       19.359628
  0
POINT
  8
Default
 62
255
 10
     1100.949918
 20
      982.927357
 30
       19.367513
  0
POINT
  8
Default
 62
255
 10
     1100.759062
 20
      982.893870
 30
       19.350176
  0
POINT
  8
Default
 62
255
 10
     1100.861928
 20
      982.861427
 30
       19.373830
  0
POINT
  8
Default
 62
255
 10
     1100.789080
 20
      982.810579
 30
       19.367017
  0
POINT
  8
Default
 62
255
 10
     1100.692625
 20
      982.831931
 30
       19.368673
  0
POINT
  8
Default
 62
255
 10
     1100.580312
 20
      982.759673
 30
       19.411206
  0
POINT
  8
Default
 62
255
 10
     1100.630051
 20
      982.704674
 30
       19.417861
  0
POINT
  8
Default
 62
255
 10
     1100.688844
 20
      982.693178
 30
       19.413261
  0
POINT
  8
Default
 62
255
 10
     1100.509141
 20
      982.655109
 30
       19.425478
  0
POINT
  8
Default
 62
255
 10
     1100.576741
 20
      982.682586
 30
       19.423174
  0
POINT
  8
Default
 62
255
 10
     1100.400094
 20
      982.528639
 30
       19.410406
  0
POINT
  8
Default
 62
255
 10
     1100.455632
 20
      982.586029
 30
       19.416461
  0
POINT
  8
Default
 62
255
 10
     1100.396650
 20
      982.661847
 30
       19.423425
  0
POINT
  8
Default
 62
255
 10
     1100.457207
 20
      982.703597
 30
       19.423514
  0
POINT
  8
Default
 62
255
 10
     1100.257337
 20
      982.533806
 30
       19.431189
  0
POINT
  8
Default
 62
255
 10
     1100.311809
 20
      982.484193
 30
       19.420625
  0
POINT
  8
Default
 62
255
 10
     1100.379053
 20
      982.848317
 30
       19.437864
  0
POINT
  8
Default
 62
255
 10
     1100.333334
 20
      982.798424
 30
       19.435640
  0
POINT
  8
Default
 62
255
 10
     1100.246779
 20
      982.822777
 30
       19.441984
  0
POINT
  8
Default
 62
255
 10
     1100.305943
 20
      982.914942
 30
       19.440451
  0
POINT
  8
Default
 62
255
 10
     1100.244156
 20
      982.627279
 30
       19.425746
  0
POINT
  8
Default
 62
255
 10
     1100.345052
 20
      982.603295
 30
       19.422342
  0
POINT
  8
Default
 62
255
 10
     1100.186965
 20
      982.579399
 30
       19.422618
  0
POINT
  8
Default
 62
255
 10
     1100.084037
 20
      982.663208
 30
       19.438770
  0
POINT
  8
Default
 62
255
 10
     1100.141636
 20
      982.698947
 30
       19.431171
  0
POINT
  8
Default
 62
255
 10
     1100.195189
 20
      982.764252
 30
       19.435735
  0
POINT
  8
Default
 62
255
 10
     1100.115089
 20
      982.847950
 30
       19.443920
  0
POINT
  8
Default
 62
255
 10
     1100.152130
 20
      982.911826
 30
       19.444687
  0
POINT
  8
Default
 62
255
 10
     1099.856996
 20
      982.900141
 30
       19.388464
  0
POINT
  8
Default
 62
255
 10
     1099.954421
 20
      982.845860
 30
       19.410783
  0
POINT
  8
Default
 62
255
 10
     1100.014493
 20
      982.869309
 30
       19.427387
  0
POINT
  8
Default
 62
255
 10
     1099.777620
 20
      982.954015
 30
       19.398212
  0
POINT
  8
Default
 62
255
 10
     1099.778834
 20
      983.079885
 30
       19.431909
  0
POINT
  8
Default
 62
255
 10
     1099.883730
 20
      983.010649
 30
       19.421185
  0
POINT
  8
Default
 62
255
 10
     1099.774379
 20
      983.027344
 30
       19.415789
  0
POINT
  8
Default
 62
255
 10
     1099.982964
 20
      983.049248
 30
       19.436146
  0
POINT
  8
Default
 62
255
 10
     1099.925588
 20
      983.080412
 30
       19.430578
  0
POINT
  8
Default
 62
255
 10
     1099.945779
 20
      982.994788
 30
       19.425396
  0
POINT
  8
Default
 62
255
 10
     1100.133445
 20
      983.120709
 30
       19.397341
  0
POINT
  8
Default
 62
255
 10
     1100.128540
 20
      983.053397
 30
       19.441732
  0
POINT
  8
Default
 62
255
 10
     1100.089732
 20
      983.118302
 30
       19.378197
  0
POINT
  8
Default
 62
255
 10
     1100.127746
 20
      982.983460
 30
       19.452716
  0
POINT
  8
Default
 62
255
 10
     1100.226876
 20
      982.892193
 30
       19.447961
  0
POINT
  8
Default
 62
255
 10
     1100.101191
 20
      983.185553
 30
       19.293095
  0
POINT
  8
Default
 62
255
 10
     1100.089559
 20
      983.141084
 30
       19.339046
  0
POINT
  8
Default
 62
255
 10
     1100.136682
 20
      983.151300
 30
       19.326065
  0
POINT
  8
Default
 62
255
 10
     1099.993735
 20
      983.103353
 30
       19.395121
  0
POINT
  8
Default
 62
255
 10
     1100.008137
 20
      983.075004
 30
       19.424376
  0
POINT
  8
Default
 62
255
 10
     1099.989898
 20
      983.133521
 30
       19.356883
  0
POINT
  8
Default
 62
255
 10
     1099.919823
 20
      983.129896
 30
       19.380982
  0
POINT
  8
Default
 62
255
 10
     1099.861991
 20
      983.141826
 30
       19.386159
  0
POINT
  8
Default
 62
255
 10
     1099.807702
 20
      983.134859
 30
       19.406815
  0
POINT
  8
Default
 62
255
 10
     1099.884064
 20
      983.176094
 30
       19.359929
  0
POINT
  8
Default
 62
255
 10
     1099.707100
 20
      983.105116
 30
       19.418868
  0
POINT
  8
Default
 62
255
 10
     1099.735383
 20
      983.165801
 30
       19.387774
  0
POINT
  8
Default
 62
255
 10
     1099.803841
 20
      983.181179
 30
       19.370648
  0
POINT
  8
Default
 62
255
 10
     1099.651684
 20
      983.104426
 30
       19.423493
  0
POINT
  8
Default
 62
255
 10
     1099.564506
 20
      983.205062
 30
       19.412530
  0
POINT
  8
Default
 62
255
 10
     1099.660644
 20
      983.206171
 30
       19.402210
  0
POINT
  8
Default
 62
255
 10
     1099.530715
 20
      983.162998
 30
       19.427741
  0
POINT
  8
Default
 62
255
 10
     1099.455293
 20
      983.207069
 30
       19.393607
  0
POINT
  8
Default
 62
255
 10
     1099.505541
 20
      983.242825
 30
       19.382340
  0
POINT
  8
Default
 62
255
 10
     1099.399169
 20
      983.227319
 30
       19.386570
  0
POINT
  8
Default
 62
255
 10
     1099.359349
 20
      983.270414
 30
       19.380730
  0
POINT
  8
Default
 62
255
 10
     1099.320154
 20
      983.325971
 30
       19.387637
  0
POINT
  8
Default
 62
255
 10
     1099.377933
 20
      983.322970
 30
       19.358568
  0
POINT
  8
Default
 62
255
 10
     1099.424853
 20
      983.258603
 30
       19.369126
  0
POINT
  8
Default
 62
255
 10
     1099.462999
 20
      983.316591
 30
       19.341558
  0
POINT
  8
Default
 62
255
 10
     1099.561648
 20
      983.298429
 30
       19.378663
  0
POINT
  8
Default
 62
255
 10
     1099.594126
 20
      983.410830
 30
       19.346847
  0
POINT
  8
Default
 62
255
 10
     1099.660486
 20
      983.313686
 30
       19.384184
  0
POINT
  8
Default
 62
255
 10
     1099.737116
 20
      983.282127
 30
       19.362947
  0
POINT
  8
Default
 62
255
 10
     1099.716143
 20
      983.431658
 30
       19.352323
  0
POINT
  8
Default
 62
255
 10
     1099.707266
 20
      983.369482
 30
       19.366718
  0
POINT
  8
Default
 62
255
 10
     1099.793183
 20
      983.389039
 30
       19.327265
  0
POINT
  8
Default
 62
255
 10
     1099.912032
 20
      983.269490
 30
       19.311349
  0
POINT
  8
Default
 62
255
 10
     1099.845559
 20
      983.325178
 30
       19.317472
  0
POINT
  8
Default
 62
255
 10
     1099.886891
 20
      983.368808
 30
       19.313127
  0
POINT
  8
Default
 62
255
 10
     1100.059568
 20
      983.271251
 30
       19.263137
  0
POINT
  8
Default
 62
255
 10
     1100.031610
 20
      983.325294
 30
       19.286878
  0
POINT
  8
Default
 62
255
 10
     1100.083871
 20
      983.370529
 30
       19.250402
  0
POINT
  8
Default
 62
255
 10
     1099.811177
 20
      983.483086
 30
       19.331510
  0
POINT
  8
Default
 62
255
 10
     1099.870736
 20
      983.529015
 30
       19.320090
  0
POINT
  8
Default
 62
255
 10
     1099.912947
 20
      983.556218
 30
       19.320013
  0
POINT
  8
Default
 62
255
 10
     1099.740707
 20
      983.516357
 30
       19.351263
  0
POINT
  8
Default
 62
255
 10
     1099.303647
 20
      983.392841
 30
       19.376825
  0
POINT
  8
Default
 62
255
 10
     1099.346340
 20
      983.413319
 30
       19.368274
  0
POINT
  8
Default
 62
255
 10
     1099.298153
 20
      983.466290
 30
       19.392523
  0
POINT
  8
Default
 62
255
 10
     1099.685346
 20
      983.603626
 30
       19.333198
  0
POINT
  8
Default
 62
255
 10
     1099.586371
 20
      983.519801
 30
       19.335623
  0
POINT
  8
Default
 62
255
 10
     1099.412851
 20
      983.540768
 30
       19.333259
  0
POINT
  8
Default
 62
255
 10
     1099.466905
 20
      983.573250
 30
       19.328674
  0
POINT
  8
Default
 62
255
 10
     1099.643125
 20
      983.734136
 30
       19.339136
  0
POINT
  8
Default
 62
255
 10
     1099.307735
 20
      983.515131
 30
       19.373031
  0
POINT
  8
Default
 62
255
 10
     1099.228651
 20
      983.600599
 30
       19.386352
  0
POINT
  8
Default
 62
255
 10
     1099.146055
 20
      983.675611
 30
       19.389391
  0
POINT
  8
Default
 62
255
 10
     1099.307249
 20
      983.694896
 30
       19.351533
  0
POINT
  8
Default
 62
255
 10
     1099.344661
 20
      983.779610
 30
       19.350133
  0
POINT
  8
Default
 62
255
 10
     1099.126003
 20
      983.835841
 30
       19.342709
  0
POINT
  8
Default
 62
255
 10
     1099.174662
 20
      983.877440
 30
       19.348627
  0
POINT
  8
Default
 62
255
 10
     1099.251192
 20
      983.873831
 30
       19.353208
  0
POINT
  8
Default
 62
255
 10
     1099.335041
 20
      983.862830
 30
       19.346521
  0
POINT
  8
Default
 62
255
 10
     1099.409732
 20
      983.918694
 30
       19.344113
  0
POINT
  8
Default
 62
255
 10
     1099.544356
 20
      984.022338
 30
       19.339255
  0
POINT
  8
Default
 62
255
 10
     1099.485302
 20
      983.974381
 30
       19.351501
  0
POINT
  8
Default
 62
255
 10
     1099.456303
 20
      983.825737
 30
       19.338758
  0
POINT
  8
Default
 62
255
 10
     1099.521766
 20
      983.815565
 30
       19.339435
  0
POINT
  8
Default
 62
255
 10
     1100.049002
 20
      984.045606
 30
       19.336596
  0
POINT
  8
Default
 62
255
 10
     1099.928748
 20
      983.964793
 30
       19.337120
  0
POINT
  8
Default
 62
255
 10
     1099.918416
 20
      984.038006
 30
       19.351621
  0
POINT
  8
Default
 62
255
 10
     1099.828332
 20
      983.876637
 30
       19.345701
  0
POINT
  8
Default
 62
255
 10
     1099.818475
 20
      983.944212
 30
       19.356263
  0
POINT
  8
Default
 62
255
 10
     1099.831230
 20
      984.026629
 30
       19.352836
  0
POINT
  8
Default
 62
255
 10
     1099.746328
 20
      984.063229
 30
       19.333468
  0
POINT
  8
Default
 62
255
 10
     1099.776320
 20
      984.133907
 30
       19.336298
  0
POINT
  8
Default
 62
255
 10
     1099.723901
 20
      984.022582
 30
       19.376498
  0
POINT
  8
Default
 62
255
 10
     1099.752418
 20
      983.982507
 30
       19.384386
  0
POINT
  8
Default
 62
255
 10
     1099.725782
 20
      983.961261
 30
       19.369520
  0
POINT
  8
Default
 62
255
 10
     1099.782392
 20
      983.957932
 30
       19.378499
  0
POINT
  8
Default
 62
255
 10
     1099.758245
 20
      983.933706
 30
       19.371495
  0
POINT
  8
Default
 62
255
 10
     1099.774922
 20
      983.857013
 30
       19.343012
  0
POINT
  8
Default
 62
255
 10
     1099.725190
 20
      983.837563
 30
       19.343470
  0
POINT
  8
Default
 62
255
 10
     1099.757828
 20
      983.911156
 30
       19.355235
  0
POINT
  8
Default
 62
255
 10
     1099.657068
 20
      983.871370
 30
       19.339201
  0
POINT
  8
Default
 62
255
 10
     1099.677473
 20
      983.990896
 30
       19.346413
  0
POINT
  8
Default
 62
255
 10
     1099.621252
 20
      983.941760
 30
       19.342719
  0
POINT
  8
Default
 62
255
 10
     1099.593152
 20
      983.884834
 30
       19.337701
  0
POINT
  8
Default
 62
255
 10
     1099.553539
 20
      983.865261
 30
       19.338034
  0
POINT
  8
Default
 62
255
 10
     1099.367015
 20
      984.118461
 30
       19.339536
  0
POINT
  8
Default
 62
255
 10
     1099.341036
 20
      984.148912
 30
       19.341137
  0
POINT
  8
Default
 62
255
 10
     1099.298091
 20
      984.114840
 30
       19.347545
  0
POINT
  8
Default
 62
255
 10
     1099.419766
 20
      984.086743
 30
       19.339403
  0
POINT
  8
Default
 62
255
 10
     1099.339950
 20
      984.037280
 30
       19.347340
  0
POINT
  8
Default
 62
255
 10
     1099.291894
 20
      984.051063
 30
       19.338920
  0
POINT
  8
Default
 62
255
 10
     1099.320676
 20
      983.987768
 30
       19.344434
  0
POINT
  8
Default
 62
255
 10
     1099.214593
 20
      983.952194
 30
       19.358594
  0
POINT
  8
Default
 62
255
 10
     1099.077961
 20
      983.901907
 30
       19.334741
  0
POINT
  8
Default
 62
255
 10
     1099.133007
 20
      983.916421
 30
       19.353598
  0
POINT
  8
Default
 62
255
 10
     1099.073527
 20
      983.698742
 30
       19.371548
  0
POINT
  8
Default
 62
255
 10
     1099.000249
 20
      983.750497
 30
       19.362459
  0
POINT
  8
Default
 62
255
 10
     1098.897989
 20
      983.748726
 30
       19.374862
  0
POINT
  8
Default
 62
255
 10
     1098.904365
 20
      983.793585
 30
       19.368293
  0
POINT
  8
Default
 62
255
 10
     1098.954778
 20
      983.795294
 30
       19.360416
  0
POINT
  8
Default
 62
255
 10
     1098.973009
 20
      983.896973
 30
       19.370244
  0
POINT
  8
Default
 62
255
 10
     1098.987687
 20
      983.843736
 30
       19.356770
  0
POINT
  8
Default
 62
255
 10
     1099.059474
 20
      984.002455
 30
       19.373444
  0
POINT
  8
Default
 62
255
 10
     1099.088855
 20
      984.060112
 30
       19.394582
  0
POINT
  8
Default
 62
255
 10
     1099.180294
 20
      984.154131
 30
       19.378823
  0
POINT
  8
Default
 62
255
 10
     1099.280691
 20
      984.269500
 30
       19.334376
  0
POINT
  8
Default
 62
255
 10
     1099.290941
 20
      984.205181
 30
       19.341517
  0
POINT
  8
Default
 62
255
 10
     1099.233503
 20
      984.154679
 30
       19.355440
  0
POINT
  8
Default
 62
255
 10
     1099.204722
 20
      984.095365
 30
       19.347226
  0
POINT
  8
Default
 62
255
 10
     1100.452798
 20
      983.883054
 30
       19.366706
  0
POINT
  8
Default
 62
255
 10
     1100.388899
 20
      983.931502
 30
       19.388989
  0
POINT
  8
Default
 62
255
 10
     1100.345402
 20
      983.923691
 30
       19.362113
  0
POINT
  8
Default
 62
255
 10
     1100.406869
 20
      983.880521
 30
       19.358277
  0
POINT
  8
Default
 62
255
 10
     1100.382445
 20
      983.857595
 30
       19.332061
  0
POINT
  8
Default
 62
255
 10
     1100.346726
 20
      983.834007
 30
       19.312795
  0
POINT
  8
Default
 62
255
 10
     1100.446658
 20
      984.009169
 30
       19.395034
  0
POINT
  8
Default
 62
255
 10
     1100.448016
 20
      983.971266
 30
       19.368997
  0
POINT
  8
Default
 62
255
 10
     1100.492050
 20
      983.988930
 30
       19.393363
  0
POINT
  8
Default
 62
255
 10
     1100.485470
 20
      983.960576
 30
       19.348024
  0
POINT
  8
Default
 62
255
 10
     1100.454312
 20
      983.923589
 30
       19.351500
  0
POINT
  8
Default
 62
255
 10
     1100.453820
 20
      984.064161
 30
       19.411007
  0
POINT
  8
Default
 62
255
 10
     1100.393657
 20
      984.096984
 30
       19.390475
  0
POINT
  8
Default
 62
255
 10
     1100.353766
 20
      983.998465
 30
       19.371208
  0
POINT
  8
Default
 62
255
 10
     1100.319581
 20
      984.044066
 30
       19.381666
  0
POINT
  8
Default
 62
255
 10
     1100.317150
 20
      983.971335
 30
       19.362288
  0
POINT
  8
Default
 62
255
 10
     1100.289999
 20
      984.025516
 30
       19.358614
  0
POINT
  8
Default
 62
255
 10
     1100.195393
 20
      984.093862
 30
       19.345039
  0
POINT
  8
Default
 62
255
 10
     1100.233763
 20
      984.131500
 30
       19.366962
  0
POINT
  8
Default
 62
255
 10
     1100.265363
 20
      984.088088
 30
       19.355967
  0
POINT
  8
Default
 62
255
 10
     1100.123172
 20
      984.122410
 30
       19.352679
  0
POINT
  8
Default
 62
255
 10
     1100.137955
 20
      984.151964
 30
       19.362738
  0
POINT
  8
Default
 62
255
 10
     1100.058045
 20
      984.138797
 30
       19.353565
  0
POINT
  8
Default
 62
255
 10
     1099.914590
 20
      984.153215
 30
       19.365204
  0
POINT
  8
Default
 62
255
 10
     1099.974416
 20
      984.159107
 30
       19.363616
  0
POINT
  8
Default
 62
255
 10
     1099.909061
 20
      984.116503
 30
       19.363350
  0
POINT
  8
Default
 62
255
 10
     1099.982311
 20
      984.245265
 30
       19.355611
  0
POINT
  8
Default
 62
255
 10
     1100.051739
 20
      984.204895
 30
       19.355810
  0
POINT
  8
Default
 62
255
 10
     1099.917038
 20
      984.307765
 30
       19.354206
  0
POINT
  8
Default
 62
255
 10
     1099.895121
 20
      984.252592
 30
       19.349855
  0
POINT
  8
Default
 62
255
 10
     1099.937363
 20
      984.205045
 30
       19.353400
  0
POINT
  8
Default
 62
255
 10
     1099.866135
 20
      984.187082
 30
       19.347408
  0
POINT
  8
Default
 62
255
 10
     1099.852816
 20
      984.141356
 30
       19.348297
  0
POINT
  8
Default
 62
255
 10
     1099.830586
 20
      984.358748
 30
       19.348297
  0
POINT
  8
Default
 62
255
 10
     1099.868657
 20
      984.343294
 30
       19.355250
  0
POINT
  8
Default
 62
255
 10
     1099.819467
 20
      984.252441
 30
       19.330358
  0
POINT
  8
Default
 62
255
 10
     1099.823232
 20
      984.205471
 30
       19.333440
  0
POINT
  8
Default
 62
255
 10
     1100.251746
 20
      983.823475
 30
       19.331686
  0
POINT
  8
Default
 62
255
 10
     1100.257305
 20
      983.878872
 30
       19.335452
  0
POINT
  8
Default
 62
255
 10
     1100.175261
 20
      983.906870
 30
       19.333053
  0
POINT
  8
Default
 62
255
 10
     1100.227373
 20
      983.763096
 30
       19.327084
  0
POINT
  8
Default
 62
255
 10
     1100.184965
 20
      983.733360
 30
       19.312243
  0
POINT
  8
Default
 62
255
 10
     1100.150366
 20
      983.789133
 30
       19.330488
  0
POINT
  8
Default
 62
255
 10
     1100.146413
 20
      983.707385
 30
       19.330968
  0
POINT
  8
Default
 62
255
 10
     1100.186938
 20
      983.648941
 30
       19.292919
  0
POINT
  8
Default
 62
255
 10
     1100.244881
 20
      983.689539
 30
       19.292038
  0
POINT
  8
Default
 62
255
 10
     1100.243664
 20
      983.625967
 30
       19.245971
  0
POINT
  8
Default
 62
255
 10
     1100.164940
 20
      983.597278
 30
       19.272220
  0
POINT
  8
Default
 62
255
 10
     1100.210789
 20
      983.592640
 30
       19.241773
  0
POINT
  8
Default
 62
255
 10
     1100.188542
 20
      983.480548
 30
       19.201874
  0
POINT
  8
Default
 62
255
 10
     1100.204674
 20
      983.545150
 30
       19.225325
  0
POINT
  8
Default
 62
255
 10
     1100.148448
 20
      983.546775
 30
       19.247781
  0
POINT
  8
Default
 62
255
 10
     1100.109894
 20
      983.411988
 30
       19.227410
  0
POINT
  8
Default
 62
255
 10
     1100.051838
 20
      983.453622
 30
       19.267217
  0
POINT
  8
Default
 62
255
 10
     1100.173163
 20
      983.405684
 30
       19.157214
  0
POINT
  8
Default
 62
255
 10
     1100.123105
 20
      983.459476
 30
       19.228137
  0
POINT
  8
Default
 62
255
 10
     1100.012484
 20
      983.489896
 30
       19.322453
  0
POINT
  8
Default
 62
255
 10
     1100.060114
 20
      983.492206
 30
       19.299343
  0
POINT
  8
Default
 62
255
 10
     1100.094160
 20
      983.519106
 30
       19.311264
  0
POINT
  8
Default
 62
255
 10
     1100.132044
 20
      983.972689
 30
       19.335565
  0
POINT
  8
Default
 62
255
 10
     1100.093764
 20
      983.881019
 30
       19.326673
  0
POINT
  8
Default
 62
255
 10
     1100.049125
 20
      983.810343
 30
       19.335295
  0
POINT
  8
Default
 62
255
 10
     1099.988009
 20
      983.824924
 30
       19.326345
  0
POINT
  8
Default
 62
255
 10
     1100.112221
 20
      983.751974
 30
       19.336128
  0
POINT
  8
Default
 62
255
 10
     1100.057452
 20
      983.756251
 30
       19.328906
  0
POINT
  8
Default
 62
255
 10
     1099.974747
 20
      983.745504
 30
       19.325372
  0
POINT
  8
Default
 62
255
 10
     1099.981187
 20
      983.658114
 30
       19.318525
  0
POINT
  8
Default
 62
255
 10
     1100.125365
 20
      983.676603
 30
       19.332117
  0
POINT
  8
Default
 62
255
 10
     1100.118635
 20
      983.619118
 30
       19.316475
  0
POINT
  8
Default
 62
255
 10
     1100.101489
 20
      983.593839
 30
       19.324829
  0
POINT
  8
Default
 62
255
 10
     1100.026557
 20
      983.615640
 30
       19.331475
  0
POINT
  8
Default
 62
255
 10
     1100.060564
 20
      983.569420
 30
       19.335016
  0
POINT
  8
Default
 62
255
 10
     1100.007922
 20
      983.551894
 30
       19.339856
  0
POINT
  8
Default
 62
255
 10
     1099.911259
 20
      983.667325
 30
       19.318688
  0
POINT
  8
Default
 62
255
 10
     1099.826627
 20
      983.587115
 30
       19.320746
  0
POINT
  8
Default
 62
255
 10
     1099.784625
 20
      983.558987
 30
       19.331088
  0
POINT
  8
Default
 62
255
 10
     1099.352743
 20
      984.342204
 30
       19.291380
  0
POINT
  8
Default
 62
255
 10
     1099.383315
 20
      984.327010
 30
       19.278803
  0
POINT
  8
Default
 62
255
 10
     1099.407679
 20
      984.309230
 30
       19.278242
  0
POINT
  8
Default
 62
255
 10
     1099.436984
 20
      984.307801
 30
       19.270010
  0
POINT
  8
Default
 62
255
 10
     1099.459258
 20
      984.330276
 30
       19.258857
  0
POINT
  8
Default
 62
255
 10
     1099.486539
 20
      984.351798
 30
       19.264305
  0
POINT
  8
Default
 62
255
 10
     1099.485546
 20
      984.386136
 30
       19.291181
  0
POINT
  8
Default
 62
255
 10
     1099.463285
 20
      984.368105
 30
       19.298777
  0
POINT
  8
Default
 62
255
 10
     1099.425844
 20
      984.337068
 30
       19.282522
  0
POINT
  8
Default
 62
255
 10
     1099.454496
 20
      984.391260
 30
       19.297104
  0
POINT
  8
Default
 62
255
 10
     1099.422771
 20
      984.374072
 30
       19.296076
  0
POINT
  8
Default
 62
255
 10
     1099.391151
 20
      984.367311
 30
       19.301911
  0
POINT
  8
Default
 62
255
 10
     1099.343777
 20
      984.332109
 30
       19.280337
  0
POINT
  8
Default
 62
255
 10
     1099.337048
 20
      984.304955
 30
       19.260867
  0
POINT
  8
Default
 62
255
 10
     1099.354051
 20
      984.265858
 30
       19.238737
  0
POINT
  8
Default
 62
255
 10
     1099.384849
 20
      984.289897
 30
       19.252406
  0
POINT
  8
Default
 62
255
 10
     1099.426519
 20
      984.286165
 30
       19.253294
  0
POINT
  8
Default
 62
255
 10
     1099.477445
 20
      984.286083
 30
       19.248008
  0
POINT
  8
Default
 62
255
 10
     1099.504200
 20
      984.327482
 30
       19.257895
  0
POINT
  8
Default
 62
255
 10
     1099.379401
 20
      984.192077
 30
       19.247500
  0
POINT
  8
Default
 62
255
 10
     1099.425434
 20
      984.226229
 30
       19.233058
  0
POINT
  8
Default
 62
255
 10
     1099.434933
 20
      984.172774
 30
       19.213424
  0
POINT
  8
Default
 62
255
 10
     1099.485750
 20
      984.234116
 30
       19.226886
  0
POINT
  8
Default
 62
255
 10
     1099.546154
 20
      984.254491
 30
       19.235464
  0
POINT
  8
Default
 62
255
 10
     1099.527397
 20
      984.210616
 30
       19.218205
  0
POINT
  8
Default
 62
255
 10
     1099.491746
 20
      984.179176
 30
       19.217237
  0
POINT
  8
Default
 62
255
 10
     1099.572967
 20
      984.293121
 30
       19.227857
  0
POINT
  8
Default
 62
255
 10
     1099.609252
 20
      984.235932
 30
       19.219991
  0
POINT
  8
Default
 62
255
 10
     1099.575902
 20
      984.180316
 30
       19.201028
  0
POINT
  8
Default
 62
255
 10
     1099.677998
 20
      984.204663
 30
       19.237552
  0
POINT
  8
Default
 62
255
 10
     1099.697593
 20
      984.144664
 30
       19.250759
  0
POINT
  8
Default
 62
255
 10
     1099.739549
 20
      984.201653
 30
       19.269655
  0
POINT
  8
Default
 62
255
 10
     1099.729981
 20
      984.154649
 30
       19.270847
  0
POINT
  8
Default
 62
255
 10
     1099.556360
 20
      984.094681
 30
       19.243118
  0
POINT
  8
Default
 62
255
 10
     1099.602925
 20
      984.077743
 30
       19.260426
  0
POINT
  8
Default
 62
255
 10
     1099.626012
 20
      984.105046
 30
       19.257925
  0
POINT
  8
Default
 62
255
 10
     1099.561137
 20
      984.346140
 30
       19.238272
  0
POINT
  8
Default
 62
255
 10
     1099.511716
 20
      984.394504
 30
       19.267415
  0
POINT
  8
Default
 62
255
 10
     1099.480684
 20
      984.434936
 30
       19.288323
  0
POINT
  8
Default
 62
255
 10
     1099.525012
 20
      984.478913
 30
       19.276941
  0
POINT
  8
Default
 62
255
 10
     1099.569347
 20
      984.500951
 30
       19.282591
  0
POINT
  8
Default
 62
255
 10
     1099.617053
 20
      984.486423
 30
       19.265225
  0
POINT
  8
Default
 62
255
 10
     1099.648805
 20
      984.481089
 30
       19.271670
  0
POINT
  8
Default
 62
255
 10
     1099.646406
 20
      984.439213
 30
       19.232453
  0
POINT
  8
Default
 62
255
 10
     1099.707825
 20
      984.421215
 30
       19.228192
  0
POINT
  8
Default
 62
255
 10
     1099.664880
 20
      984.372107
 30
       19.235886
  0
POINT
  8
Default
 62
255
 10
     1099.588778
 20
      984.442863
 30
       19.253273
  0
POINT
  8
Default
 62
255
 10
     1099.566593
 20
      984.398368
 30
       19.253166
  0
POINT
  8
Default
 62
255
 10
     1099.731861
 20
      984.385285
 30
       19.226680
  0
POINT
  8
Default
 62
255
 10
     1099.735730
 20
      984.339048
 30
       19.232541
  0
POINT
  8
Default
 62
255
 10
     1099.705896
 20
      984.305845
 30
       19.236348
  0
POINT
  8
Default
 62
255
 10
     1099.616416
 20
      984.300445
 30
       19.228241
  0
POINT
  8
Default
 62
255
 10
     1100.511235
 20
      983.798646
 30
       19.214262
  0
POINT
  8
Default
 62
255
 10
     1100.517676
 20
      983.734581
 30
       19.213428
  0
POINT
  8
Default
 62
255
 10
     1100.441671
 20
      983.792061
 30
       19.230159
  0
POINT
  8
Default
 62
255
 10
     1100.401635
 20
      983.781111
 30
       19.238752
  0
POINT
  8
Default
 62
255
 10
     1100.370202
 20
      983.752179
 30
       19.232843
  0
POINT
  8
Default
 62
255
 10
     1100.470726
 20
      983.724976
 30
       19.218931
  0
POINT
  8
Default
 62
255
 10
     1100.418328
 20
      983.715968
 30
       19.226356
  0
POINT
  8
Default
 62
255
 10
     1100.464460
 20
      983.665719
 30
       19.215142
  0
POINT
  8
Default
 62
255
 10
     1100.529556
 20
      983.704330
 30
       19.214112
  0
POINT
  8
Default
 62
255
 10
     1100.533739
 20
      983.654234
 30
       19.203803
  0
POINT
  8
Default
 62
255
 10
     1100.503441
 20
      983.633368
 30
       19.211960
  0
POINT
  8
Default
 62
255
 10
     1100.496386
 20
      983.525648
 30
       19.166092
  0
POINT
  8
Default
 62
255
 10
     1100.410856
 20
      983.567044
 30
       19.167436
  0
POINT
  8
Default
 62
255
 10
     1100.470150
 20
      983.583346
 30
       19.180793
  0
POINT
  8
Default
 62
255
 10
     1100.403625
 20
      983.656310
 30
       19.215249
  0
POINT
  8
Default
 62
255
 10
     1100.420563
 20
      983.585974
 30
       19.191685
  0
POINT
  8
Default
 62
255
 10
     1100.458752
 20
      983.526614
 30
       19.150158
  0
POINT
  8
Default
 62
255
 10
     1100.355931
 20
      983.595626
 30
       19.173774
  0
POINT
  8
Default
 62
255
 10
     1100.307682
 20
      983.645582
 30
       19.202243
  0
POINT
  8
Default
 62
255
 10
     1100.319848
 20
      983.680629
 30
       19.208968
  0
POINT
  8
Default
 62
255
 10
     1100.311778
 20
      983.737079
 30
       19.254098
  0
POINT
  8
Default
 62
255
 10
     1100.341884
 20
      983.768430
 30
       19.247647
  0
POINT
  8
Default
 62
255
 10
     1100.364630
 20
      983.715649
 30
       19.227680
  0
POINT
  8
Default
 62
255
 10
     1100.409889
 20
      983.831298
 30
       19.314822
  0
POINT
  8
Default
 62
255
 10
     1100.438729
 20
      983.829746
 30
       19.339528
  0
POINT
  8
Default
 62
255
 10
     1100.393255
 20
      983.542401
 30
       19.101491
  0
POINT
  8
Default
 62
255
 10
     1100.297059
 20
      983.474848
 30
       19.117236
  0
POINT
  8
Default
 62
255
 10
     1100.332471
 20
      983.502650
 30
       19.104024
  0
POINT
  8
Default
 62
255
 10
     1100.439260
 20
      983.498039
 30
       19.093355
  0
POINT
  8
Default
 62
255
 10
     1100.434631
 20
      983.447061
 30
       19.080881
  0
POINT
  8
Default
 62
255
 10
     1100.420927
 20
      983.401048
 30
       19.085238
  0
POINT
  8
Default
 62
255
 10
     1100.393833
 20
      983.338031
 30
       19.089231
  0
POINT
  8
Default
 62
255
 10
     1100.310697
 20
      983.377950
 30
       19.112398
  0
POINT
  8
Default
 62
255
 10
     1100.266398
 20
      983.358010
 30
       19.117872
  0
POINT
  8
Default
 62
255
 10
     1100.344735
 20
      983.316319
 30
       19.113383
  0
POINT
  8
Default
 62
255
 10
     1100.376757
 20
      983.390672
 30
       19.108209
  0
POINT
  8
Default
 62
255
 10
     1100.214111
 20
      983.407604
 30
       19.123490
  0
POINT
  8
Default
 62
255
 10
     1100.162556
 20
      983.351708
 30
       19.141763
  0
POINT
  8
Default
 62
255
 10
     1100.135350
 20
      983.312930
 30
       19.173493
  0
POINT
  8
Default
 62
255
 10
     1100.120846
 20
      983.286723
 30
       19.197909
  0
POINT
  8
Default
 62
255
 10
     1100.187248
 20
      983.304139
 30
       19.140364
  0
POINT
  8
Default
 62
255
 10
     1100.203379
 20
      983.237858
 30
       19.158310
  0
POINT
  8
Default
 62
255
 10
     1100.367259
 20
      983.184654
 30
       19.090389
  0
POINT
  8
Default
 62
255
 10
     1100.397649
 20
      983.224104
 30
       19.072731
  0
POINT
  8
Default
 62
255
 10
     1100.312487
 20
      983.208826
 30
       19.116243
  0
POINT
  8
Default
 62
255
 10
     1100.342514
 20
      983.148674
 30
       19.098239
  0
POINT
  8
Default
 62
255
 10
     1100.379809
 20
      983.154483
 30
       19.073303
  0
POINT
  8
Default
 62
255
 10
     1100.408920
 20
      983.186091
 30
       19.042129
  0
POINT
  8
Default
 62
255
 10
     1100.313431
 20
      983.093373
 30
       19.173625
  0
POINT
  8
Default
 62
255
 10
     1100.266569
 20
      983.150860
 30
       19.190493
  0
POINT
  8
Default
 62
255
 10
     1100.291433
 20
      983.179063
 30
       19.165158
  0
POINT
  8
Default
 62
255
 10
     1100.298602
 20
      983.276607
 30
       19.127307
  0
POINT
  8
Default
 62
255
 10
     1100.428656
 20
      983.299706
 30
       19.024659
  0
POINT
  8
Default
 62
255
 10
     1100.397473
 20
      983.305774
 30
       19.066123
  0
POINT
  8
Default
 62
255
 10
     1100.402262
 20
      983.267516
 30
       19.066987
  0
POINT
  8
Default
 62
255
 10
     1100.446658
 20
      983.340063
 30
       19.020161
  0
POINT
  8
Default
 62
255
 10
     1100.476317
 20
      983.388309
 30
       19.003738
  0
POINT
  8
Default
 62
255
 10
     1100.467543
 20
      983.156063
 30
       19.020248
  0
POINT
  8
Default
 62
255
 10
     1100.413030
 20
      983.142943
 30
       19.034438
  0
POINT
  8
Default
 62
255
 10
     1100.453052
 20
      983.120547
 30
       19.027243
  0
POINT
  8
Default
 62
255
 10
     1100.507792
 20
      983.126686
 30
       19.026198
  0
POINT
  8
Default
 62
255
 10
     1100.560375
 20
      983.102519
 30
       19.036422
  0
POINT
  8
Default
 62
255
 10
     1100.545457
 20
      983.054537
 30
       19.053167
  0
POINT
  8
Default
 62
255
 10
     1100.604258
 20
      983.098131
 30
       19.044791
  0
POINT
  8
Default
 62
255
 10
     1100.594053
 20
      983.072157
 30
       19.048803
  0
POINT
  8
Default
 62
255
 10
     1100.628835
 20
      983.056761
 30
       19.062177
  0
POINT
  8
Default
 62
255
 10
     1100.482732
 20
      983.250459
 30
       19.014719
  0
POINT
  8
Default
 62
255
 10
     1100.483337
 20
      983.299326
 30
       19.001952
  0
POINT
  8
Default
 62
255
 10
     1100.526161
 20
      983.349596
 30
       19.003137
  0
POINT
  8
Default
 62
255
 10
     1100.526782
 20
      983.303038
 30
       19.012145
  0
POINT
  8
Default
 62
255
 10
     1100.550751
 20
      983.216509
 30
       19.023405
  0
POINT
  8
Default
 62
255
 10
     1100.540415
 20
      983.496460
 30
       19.046550
  0
POINT
  8
Default
 62
255
 10
     1100.596570
 20
      983.546291
 30
       19.060791
  0
POINT
  8
Default
 62
255
 10
     1100.594128
 20
      983.391849
 30
       19.021371
  0
POINT
  8
Default
 62
255
 10
     1100.700665
 20
      983.085911
 30
       19.076325
  0
POINT
  8
Default
 62
255
 10
     1100.746474
 20
      983.106130
 30
       19.082808
  0
POINT
  8
Default
 62
255
 10
     1100.784118
 20
      983.128418
 30
       19.084082
  0
POINT
  8
Default
 62
255
 10
     1100.612011
 20
      983.168205
 30
       19.031578
  0
POINT
  8
Default
 62
255
 10
     1100.683283
 20
      983.205281
 30
       19.035473
  0
POINT
  8
Default
 62
255
 10
     1100.674966
 20
      983.125007
 30
       19.046550
  0
POINT
  8
Default
 62
255
 10
     1100.656633
 20
      983.348763
 30
       19.027128
  0
POINT
  8
Default
 62
255
 10
     1100.675698
 20
      983.267489
 30
       19.028410
  0
POINT
  8
Default
 62
255
 10
     1100.622415
 20
      983.275412
 30
       19.022075
  0
POINT
  8
Default
 62
255
 10
     1100.654330
 20
      983.602974
 30
       19.068478
  0
POINT
  8
Default
 62
255
 10
     1100.696819
 20
      983.598021
 30
       19.098758
  0
POINT
  8
Default
 62
255
 10
     1100.664917
 20
      983.512036
 30
       19.073614
  0
POINT
  8
Default
 62
255
 10
     1100.718943
 20
      983.587850
 30
       19.120537
  0
POINT
  8
Default
 62
255
 10
     1100.737865
 20
      983.563692
 30
       19.150715
  0
POINT
  8
Default
 62
255
 10
     1100.741918
 20
      983.533958
 30
       19.162187
  0
POINT
  8
Default
 62
255
 10
     1100.725613
 20
      983.522884
 30
       19.129577
  0
POINT
  8
Default
 62
255
 10
     1100.706076
 20
      983.497733
 30
       19.085958
  0
POINT
  8
Default
 62
255
 10
     1100.738075
 20
      983.489992
 30
       19.106593
  0
POINT
  8
Default
 62
255
 10
     1100.761070
 20
      983.586340
 30
       19.145950
  0
POINT
  8
Default
 62
255
 10
     1100.794081
 20
      983.543097
 30
       19.135908
  0
POINT
  8
Default
 62
255
 10
     1100.775195
 20
      983.511651
 30
       19.122827
  0
POINT
  8
Default
 62
255
 10
     1100.813522
 20
      983.488227
 30
       19.154432
  0
POINT
  8
Default
 62
255
 10
     1100.844988
 20
      983.437466
 30
       19.201574
  0
POINT
  8
Default
 62
255
 10
     1100.792170
 20
      983.450493
 30
       19.131115
  0
POINT
  8
Default
 62
255
 10
     1100.737450
 20
      983.429743
 30
       19.070559
  0
POINT
  8
Default
 62
255
 10
     1100.686788
 20
      983.468255
 30
       19.061121
  0
POINT
  8
Default
 62
255
 10
     1100.864081
 20
      983.390156
 30
       19.214394
  0
POINT
  8
Default
 62
255
 10
     1100.821441
 20
      983.384554
 30
       19.122291
  0
POINT
  8
Default
 62
255
 10
     1100.890588
 20
      983.291969
 30
       19.228087
  0
POINT
  8
Default
 62
255
 10
     1100.854432
 20
      983.353768
 30
       19.174827
  0
POINT
  8
Default
 62
255
 10
     1100.841665
 20
      983.303552
 30
       19.125619
  0
POINT
  8
Default
 62
255
 10
     1100.816545
 20
      983.236722
 30
       19.065577
  0
POINT
  8
Default
 62
255
 10
     1100.815289
 20
      983.292143
 30
       19.066588
  0
POINT
  8
Default
 62
255
 10
     1100.747264
 20
      983.318879
 30
       19.041439
  0
POINT
  8
Default
 62
255
 10
     1100.764403
 20
      983.273339
 30
       19.042942
  0
POINT
  8
Default
 62
255
 10
     1100.720178
 20
      983.299660
 30
       19.032963
  0
POINT
  8
Default
 62
255
 10
     1100.774499
 20
      983.171266
 30
       19.051478
  0
POINT
  8
Default
 62
255
 10
     1100.723475
 20
      983.207546
 30
       19.040224
  0
POINT
  8
Default
 62
255
 10
     1100.802042
 20
      983.184052
 30
       19.056736
  0
POINT
  8
Default
 62
255
 10
     1100.616471
 20
      982.973035
 30
       19.130071
  0
POINT
  8
Default
 62
255
 10
     1100.675680
 20
      982.995405
 30
       19.127730
  0
POINT
  8
Default
 62
255
 10
     1100.646764
 20
      983.021876
 30
       19.083771
  0
POINT
  8
Default
 62
255
 10
     1100.597202
 20
      983.012171
 30
       19.075726
  0
POINT
  8
Default
 62
255
 10
     1100.564112
 20
      982.982977
 30
       19.116025
  0
POINT
  8
Default
 62
255
 10
     1100.702795
 20
      983.022932
 30
       19.116705
  0
POINT
  8
Default
 62
255
 10
     1100.622395
 20
      982.939149
 30
       19.178474
  0
POINT
  8
Default
 62
255
 10
     1100.518764
 20
      982.985774
 30
       19.119076
  0
POINT
  8
Default
 62
255
 10
     1100.543120
 20
      983.019584
 30
       19.071456
  0
POINT
  8
Default
 62
255
 10
     1100.467732
 20
      983.035442
 30
       19.090062
  0
POINT
  8
Default
 62
255
 10
     1100.494911
 20
      983.054215
 30
       19.072855
  0
POINT
  8
Default
 62
255
 10
     1100.446743
 20
      983.086643
 30
       19.060187
  0
POINT
  8
Default
 62
255
 10
     1100.363425
 20
      983.072729
 30
       19.137140
  0
POINT
  8
Default
 62
255
 10
     1100.408163
 20
      983.041688
 30
       19.110040
  0
POINT
  8
Default
 62
255
 10
     1100.407682
 20
      983.120879
 30
       19.052354
  0
POINT
  8
Default
 62
255
 10
     1100.556249
 20
      982.902573
 30
       19.221189
  0
POINT
  8
Default
 62
255
 10
     1100.492468
 20
      982.929386
 30
       19.206604
  0
POINT
  8
Default
 62
255
 10
     1100.563038
 20
      982.944212
 30
       19.167616
  0
POINT
  8
Default
 62
255
 10
     1100.374144
 20
      982.997931
 30
       19.198104
  0
POINT
  8
Default
 62
255
 10
     1100.451826
 20
      982.970911
 30
       19.166870
  0
POINT
  8
Default
 62
255
 10
     1100.703827
 20
      982.967009
 30
       19.184310
  0
POINT
  8
Default
 62
255
 10
     1100.762532
 20
      982.977950
 30
       19.239291
  0
POINT
  8
Default
 62
255
 10
     1100.709367
 20
      982.932326
 30
       19.245060
  0
POINT
  8
Default
 62
255
 10
     1100.658524
 20
      982.898776
 30
       19.259553
  0
POINT
  8
Default
 62
255
 10
     1100.604252
 20
      982.876619
 30
       19.251261
  0
POINT
  8
Default
 62
255
 10
     1100.622714
 20
      982.843601
 30
       19.304830
  0
POINT
  8
Default
 62
255
 10
     1100.553460
 20
      982.850568
 30
       19.307079
  0
POINT
  8
Default
 62
255
 10
     1100.685863
 20
      982.869764
 30
       19.301231
  0
POINT
  8
Default
 62
255
 10
     1100.787418
 20
      982.975805
 30
       19.307585
  0
POINT
  8
Default
 62
255
 10
     1100.613125
 20
      982.796521
 30
       19.375730
  0
POINT
  8
Default
 62
255
 10
     1100.483257
 20
      982.836654
 30
       19.392145
  0
POINT
  8
Default
 62
255
 10
     1100.525987
 20
      982.777550
 30
       19.416918
  0
POINT
  8
Default
 62
255
 10
     1100.440855
 20
      982.863928
 30
       19.361832
  0
POINT
  8
Default
 62
255
 10
     1100.380081
 20
      982.913955
 30
       19.344202
  0
POINT
  8
Default
 62
255
 10
     1100.429892
 20
      982.928423
 30
       19.256239
  0
POINT
  8
Default
 62
255
 10
     1100.469693
 20
      982.882559
 30
       19.298267
  0
POINT
  8
Default
 62
255
 10
     1100.303078
 20
      982.946054
 30
       19.385687
  0
POINT
  8
Default
 62
255
 10
     1100.339331
 20
      982.979411
 30
       19.260532
  0
POINT
  8
Default
 62
255
 10
     1100.297590
 20
      982.980499
 30
       19.315697
  0
POINT
  8
Default
 62
255
 10
     1100.183526
 20
      983.064677
 30
       19.428241
  0
POINT
  8
Default
 62
255
 10
     1100.214310
 20
      983.063866
 30
       19.352568
  0
POINT
  8
Default
 62
255
 10
     1100.223370
 20
      983.093562
 30
       19.290898
  0
POINT
  8
Default
 62
255
 10
     1100.276999
 20
      983.034877
 30
       19.261240
  0
POINT
  8
Default
 62
255
 10
     1100.246239
 20
      983.112338
 30
       19.218563
  0
POINT
  8
Default
 62
255
 10
     1100.189433
 20
      983.104154
 30
       19.342455
  0
POINT
  8
Default
 62
255
 10
     1100.208264
 20
      983.169272
 30
       19.228539
  0
POINT
  8
Default
 62
255
 10
     1100.161319
 20
      983.209553
 30
       19.232395
  0
POINT
  8
Default
 62
255
 10
     1100.165228
 20
      983.169623
 30
       19.287816
  0
POINT
  8
Default
 62
255
 10
     1100.178085
 20
      983.140346
 30
       19.310795
  0
POINT
  8
Default
 62
255
 10
     1100.783006
 20
      983.053873
 30
       19.157485
  0
POINT
  8
Default
 62
255
 10
     1100.827738
 20
      983.105363
 30
       19.154620
  0
POINT
  8
Default
 62
255
 10
     1100.820965
 20
      983.138003
 30
       19.116586
  0
POINT
  8
Default
 62
255
 10
     1100.764236
 20
      983.075809
 30
       19.109652
  0
POINT
  8
Default
 62
255
 10
     1100.838747
 20
      983.091047
 30
       19.201704
  0
POINT
  8
Default
 62
255
 10
     1100.879928
 20
      983.047057
 30
       19.321035
  0
POINT
  8
Default
 62
255
 10
     1100.847857
 20
      983.062531
 30
       19.259561
  0
POINT
  8
Default
 62
255
 10
     1100.845097
 20
      983.226404
 30
       19.104011
  0
POINT
  8
Default
 62
255
 10
     1100.865817
 20
      983.187048
 30
       19.175302
  0
POINT
  8
Default
 62
255
 10
     1100.875019
 20
      983.231360
 30
       19.171539
  0
POINT
  8
Default
 62
255
 10
     1100.918004
 20
      983.144691
 30
       19.345410
  0
POINT
  8
Default
 62
255
 10
     1100.939624
 20
      983.092929
 30
       19.362184
  0
POINT
  8
Default
 62
255
 10
     1100.931932
 20
      983.213417
 30
       19.358950
  0
POINT
  8
Default
 62
255
 10
     1100.913959
 20
      983.233190
 30
       19.266203
  0
POINT
  8
Default
 62
255
 10
     1100.924573
 20
      983.275600
 30
       19.321316
  0
POINT
  8
Default
 62
255
 10
     1100.934921
 20
      983.292849
 30
       19.366903
  0
POINT
  8
Default
 62
255
 10
     1100.879485
 20
      983.379475
 30
       19.285451
  0
POINT
  8
Default
 62
255
 10
     1100.910856
 20
      983.341069
 30
       19.304499
  0
POINT
  8
Default
 62
255
 10
     1100.886122
 20
      983.411526
 30
       19.324800
  0
POINT
  8
Default
 62
255
 10
     1100.847161
 20
      983.450276
 30
       19.265936
  0
POINT
  8
Default
 62
255
 10
     1100.808537
 20
      983.532036
 30
       19.229601
  0
POINT
  8
Default
 62
255
 10
     1100.844731
 20
      983.492005
 30
       19.305143
  0
POINT
  8
Default
 62
255
 10
     1100.812348
 20
      983.590183
 30
       19.290628
  0
POINT
  8
Default
 62
255
 10
     1100.845215
 20
      983.524901
 30
       19.348781
  0
POINT
  8
Default
 62
255
 10
     1100.830126
 20
      983.497135
 30
       19.204176
  0
POINT
  8
Default
 62
255
 10
     1100.784282
 20
      983.609277
 30
       19.178016
  0
POINT
  8
Default
 62
255
 10
     1100.794722
 20
      983.592329
 30
       19.233916
  0
POINT
  8
Default
 62
255
 10
     1100.776145
 20
      983.663354
 30
       19.255266
  0
POINT
  8
Default
 62
255
 10
     1100.801386
 20
      983.675955
 30
       19.297834
  0
POINT
  8
Default
 62
255
 10
     1100.695385
 20
      983.645660
 30
       19.115706
  0
POINT
  8
Default
 62
255
 10
     1100.732279
 20
      983.647716
 30
       19.164915
  0
POINT
  8
Default
 62
255
 10
     1100.661996
 20
      983.697310
 30
       19.128349
  0
POINT
  8
Default
 62
255
 10
     1100.660899
 20
      983.650362
 30
       19.091437
  0
POINT
  8
Default
 62
255
 10
     1100.711998
 20
      983.704194
 30
       19.205941
  0
POINT
  8
Default
 62
255
 10
     1100.636223
 20
      983.763228
 30
       19.173372
  0
POINT
  8
Default
 62
255
 10
     1100.638832
 20
      983.811561
 30
       19.217654
  0
POINT
  8
Default
 62
255
 10
     1100.743772
 20
      983.756406
 30
       19.305196
  0
POINT
  8
Default
 62
255
 10
     1100.678881
 20
      983.835914
 30
       19.286449
  0
POINT
  8
Default
 62
255
 10
     1100.708778
 20
      983.769716
 30
       19.250908
  0
POINT
  8
Default
 62
255
 10
     1100.606401
 20
      983.912366
 30
       19.337442
  0
POINT
  8
Default
 62
255
 10
     1100.545375
 20
      983.946297
 30
       19.323150
  0
POINT
  8
Default
 62
255
 10
     1100.604292
 20
      983.873916
 30
       19.244222
  0
POINT
  8
Default
 62
255
 10
     1100.568349
 20
      983.829603
 30
       19.213345
  0
LINE
  8
Default
 62
255
 10
     1099.800213
 20
      984.460352
 30
       19.505398
 11
     1099.864841
 21
      984.398983
 31
       19.456237
  0
LINE
  8
Default
 62
255
 10
     1099.864841
 20
      984.398983
 30
       19.456237
 11
     1099.903232
 21
      984.367931
 31
       19.424656
  0
LINE
  8
Default
 62
255
 10
     1099.903232
 20
      984.367931
 30
       19.424656
 11
     1099.995633
 21
      984.274160
 31
       19.399972
  0
LINE
  8
Default
 62
255
 10
     1099.995633
 20
      984.274160
 30
       19.399972
 11
     1100.073864
 21
      984.220156
 31
       19.386563
  0
LINE
  8
Default
 62
255
 10
     1100.073864
 20
      984.220156
 30
       19.386563
 11
     1100.141823
 21
      984.171570
 31
       19.391086
  0
LINE
  8
Default
 62
255
 10
     1100.141823
 20
      984.171570
 30
       19.391086
 11
     1100.248396
 21
      984.149744
 31
       19.397727
  0
LINE
  8
Default
 62
255
 10
     1100.248396
 20
      984.149744
 30
       19.397727
 11
     1100.393657
 21
      984.096984
 31
       19.390475
  0
LINE
  8
Default
 62
255
 10
     1100.393657
 20
      984.096984
 30
       19.390475
 11
     1100.453820
 21
      984.064161
 31
       19.411007
  0
LINE
  8
Default
 62
255
 10
     1100.453820
 20
      984.064161
 30
       19.411007
 11
     1100.481561
 21
      984.024969
 31
       19.417028
  0
LINE
  8
Default
 62
255
 10
     1100.481561
 20
      984.024969
 30
       19.417028
 11
     1100.560995
 21
      983.965780
 31
       19.408371
  0
LINE
  8
Default
 62
255
 10
     1100.560995
 20
      983.965780
 30
       19.408371
 11
     1100.688367
 21
      983.869580
 31
       19.377678
  0
LINE
  8
Default
 62
255
 10
     1100.688367
 20
      983.869580
 30
       19.377678
 11
     1100.732973
 21
      983.828444
 31
       19.366872
  0
LINE
  8
Default
 62
255
 10
     1100.732973
 20
      983.828444
 30
       19.366872
 11
     1100.772370
 21
      983.785374
 31
       19.364437
  0
LINE
  8
Default
 62
255
 10
     1100.772370
 20
      983.785374
 30
       19.364437
 11
     1100.800249
 21
      983.712935
 31
       19.368119
  0
LINE
  8
Default
 62
255
 10
     1100.800249
 20
      983.712935
 30
       19.368119
 11
     1100.835274
 21
      983.653148
 31
       19.365615
  0
LINE
  8
Default
 62
255
 10
     1100.835274
 20
      983.653148
 30
       19.365615
 11
     1100.875311
 21
      983.584189
 31
       19.376796
  0
LINE
  8
Default
 62
255
 10
     1100.875311
 20
      983.584189
 30
       19.376796
 11
     1100.908545
 21
      983.432992
 31
       19.398367
  0
LINE
  8
Default
 62
255
 10
     1100.908545
 20
      983.432992
 30
       19.398367
 11
     1100.944515
 21
      983.363830
 31
       19.414813
  0
LINE
  8
Default
 62
255
 10
     1100.944515
 20
      983.363830
 30
       19.414813
 11
     1100.962880
 21
      983.273766
 31
       19.399752
  0
LINE
  8
Default
 62
255
 10
     1100.962880
 20
      983.273766
 30
       19.399752
 11
     1100.955519
 21
      983.204393
 31
       19.405958
  0
LINE
  8
Default
 62
255
 10
     1100.955519
 20
      983.204393
 30
       19.405958
 11
     1100.939680
 21
      983.154390
 31
       19.389491
  0
LINE
  8
Default
 62
255
 10
     1100.939680
 20
      983.154390
 30
       19.389491
 11
     1100.939624
 21
      983.092929
 31
       19.362184
  0
LINE
  8
Default
 62
255
 10
     1100.939624
 20
      983.092929
 30
       19.362184
 11
     1100.889264
 21
      983.003369
 31
       19.357073
  0
LINE
  8
Default
 62
255
 10
     1100.889264
 20
      983.003369
 30
       19.357073
 11
     1100.820389
 21
      982.950231
 31
       19.347628
  0
LINE
  8
Default
 62
255
 10
     1100.820389
 20
      982.950231
 30
       19.347628
 11
     1100.759062
 21
      982.893870
 31
       19.350176
  0
LINE
  8
Default
 62
255
 10
     1100.759062
 20
      982.893870
 30
       19.350176
 11
     1100.692625
 21
      982.831931
 31
       19.368673
  0
LINE
  8
Default
 62
255
 10
     1100.692625
 20
      982.831931
 30
       19.368673
 11
     1100.613125
 21
      982.796521
 31
       19.375730
  0
LINE
  8
Default
 62
255
 10
     1100.613125
 20
      982.796521
 30
       19.375730
 11
     1100.580312
 21
      982.759673
 31
       19.411206
  0
LINE
  8
Default
 62
255
 10
     1100.580312
 20
      982.759673
 30
       19.411206
 11
     1100.525987
 21
      982.777550
 31
       19.416918
  0
LINE
  8
Default
 62
255
 10
     1100.525987
 20
      982.777550
 30
       19.416918
 11
     1100.459651
 21
      982.789534
 31
       19.424643
  0
LINE
  8
Default
 62
255
 10
     1100.459651
 20
      982.789534
 30
       19.424643
 11
     1100.379053
 21
      982.848317
 31
       19.437864
  0
LINE
  8
Default
 62
255
 10
     1100.379053
 20
      982.848317
 30
       19.437864
 11
     1100.305943
 21
      982.914942
 31
       19.440451
  0
LINE
  8
Default
 62
255
 10
     1100.305943
 20
      982.914942
 30
       19.440451
 11
     1100.204887
 21
      983.022707
 31
       19.442484
  0
LINE
  8
Default
 62
255
 10
     1100.204887
 20
      983.022707
 30
       19.442484
 11
     1100.183526
 21
      983.064677
 31
       19.428241
  0
LINE
  8
Default
 62
255
 10
     1100.183526
 20
      983.064677
 30
       19.428241
 11
     1100.133445
 21
      983.120709
 31
       19.397341
  0
LINE
  8
Default
 62
255
 10
     1100.133445
 20
      983.120709
 30
       19.397341
 11
     1100.089732
 21
      983.118302
 31
       19.378197
  0
LINE
  8
Default
 62
255
 10
     1100.089732
 20
      983.118302
 30
       19.378197
 11
     1099.993735
 21
      983.103353
 31
       19.395121
  0
LINE
  8
Default
 62
255
 10
     1099.993735
 20
      983.103353
 30
       19.395121
 11
     1099.925588
 21
      983.080412
 31
       19.430578
  0
LINE
  8
Default
 62
255
 10
     1099.925588
 20
      983.080412
 30
       19.430578
 11
     1099.875989
 21
      983.079287
 31
       19.423599
  0
LINE
  8
Default
 62
255
 10
     1099.875989
 20
      983.079287
 30
       19.423599
 11
     1099.778834
 21
      983.079885
 31
       19.431909
  0
LINE
  8
Default
 62
255
 10
     1099.778834
 20
      983.079885
 30
       19.431909
 11
     1099.698518
 21
      983.047953
 31
       19.428076
  0
LINE
  8
Default
 62
255
 10
     1099.280691
 20
      984.269500
 30
       19.334376
 11
     1099.290941
 21
      984.205181
 31
       19.341517
  0
LINE
  8
Default
 62
255
 10
     1099.290941
 20
      984.205181
 30
       19.341517
 11
     1099.341036
 21
      984.148912
 31
       19.341137
  0
LINE
  8
Default
 62
255
 10
     1099.341036
 20
      984.148912
 30
       19.341137
 11
     1099.367015
 21
      984.118461
 31
       19.339536
  0
LINE
  8
Default
 62
255
 10
     1099.367015
 20
      984.118461
 30
       19.339536
 11
     1099.419766
 21
      984.086743
 31
       19.339403
  0
LINE
  8
Default
 62
255
 10
     1099.419766
 20
      984.086743
 30
       19.339403
 11
     1099.454231
 21
      984.050908
 31
       19.345181
  0
LINE
  8
Default
 62
255
 10
     1099.454231
 20
      984.050908
 30
       19.345181
 11
     1099.544356
 21
      984.022338
 31
       19.339255
  0
LINE
  8
Default
 62
255
 10
     1099.544356
 20
      984.022338
 30
       19.339255
 11
     1099.631668
 21
      984.007486
 31
       19.335959
  0
LINE
  8
Default
 62
255
 10
     1099.631668
 20
      984.007486
 30
       19.335959
 11
     1099.677473
 21
      983.990896
 31
       19.346413
  0
LINE
  8
Default
 62
255
 10
     1099.677473
 20
      983.990896
 30
       19.346413
 11
     1099.746328
 21
      984.063229
 31
       19.333468
  0
LINE
  8
Default
 62
255
 10
     1099.746328
 20
      984.063229
 30
       19.333468
 11
     1099.776320
 21
      984.133907
 31
       19.336298
  0
LINE
  8
Default
 62
255
 10
     1099.776320
 20
      984.133907
 30
       19.336298
 11
     1099.792507
 21
      984.191481
 31
       19.322161
  0
LINE
  8
Default
 62
255
 10
     1099.792507
 20
      984.191481
 30
       19.322161
 11
     1099.819467
 21
      984.252441
 31
       19.330358
  0
LINE
  8
Default
 62
255
 10
     1099.819467
 20
      984.252441
 30
       19.330358
 11
     1099.821220
 21
      984.293990
 31
       19.337233
  0
LINE
  8
Default
 62
255
 10
     1099.821220
 20
      984.293990
 30
       19.337233
 11
     1099.830586
 21
      984.358748
 31
       19.348297
  0
LINE
  8
Default
 62
255
 10
     1099.830586
 20
      984.358748
 30
       19.348297
 11
     1099.868657
 21
      984.343294
 31
       19.355250
  0
LINE
  8
Default
 62
255
 10
     1099.868657
 20
      984.343294
 30
       19.355250
 11
     1099.917038
 21
      984.307765
 31
       19.354206
  0
LINE
  8
Default
 62
255
 10
     1099.917038
 20
      984.307765
 30
       19.354206
 11
     1099.982311
 21
      984.245265
 31
       19.355611
  0
LINE
  8
Default
 62
255
 10
     1099.982311
 20
      984.245265
 30
       19.355611
 11
     1100.051739
 21
      984.204895
 31
       19.355810
  0
LINE
  8
Default
 62
255
 10
     1100.051739
 20
      984.204895
 30
       19.355810
 11
     1100.137955
 21
      984.151964
 31
       19.362738
  0
LINE
  8
Default
 62
255
 10
     1100.137955
 20
      984.151964
 30
       19.362738
 11
     1100.195393
 21
      984.093862
 31
       19.345039
  0
LINE
  8
Default
 62
255
 10
     1100.195393
 20
      984.093862
 30
       19.345039
 11
     1100.289999
 21
      984.025516
 31
       19.358614
  0
LINE
  8
Default
 62
255
 10
     1100.289999
 20
      984.025516
 30
       19.358614
 11
     1100.353766
 21
      983.998465
 31
       19.371208
  0
LINE
  8
Default
 62
255
 10
     1100.353766
 20
      983.998465
 30
       19.371208
 11
     1100.400098
 21
      983.963685
 31
       19.375548
  0
LINE
  8
Default
 62
255
 10
     1100.400098
 20
      983.963685
 30
       19.375548
 11
     1100.448016
 21
      983.971266
 31
       19.368997
  0
LINE
  8
Default
 62
255
 10
     1100.448016
 20
      983.971266
 30
       19.368997
 11
     1100.485470
 21
      983.960576
 31
       19.348024
  0
LINE
  8
Default
 62
255
 10
     1100.355931
 20
      983.595626
 30
       19.173774
 11
     1100.410856
 21
      983.567044
 31
       19.167436
  0
LINE
  8
Default
 62
255
 10
     1100.410856
 20
      983.567044
 30
       19.167436
 11
     1100.458752
 21
      983.526614
 31
       19.150158
  0
LINE
  8
Default
 62
255
 10
     1100.458752
 20
      983.526614
 30
       19.150158
 11
     1100.496386
 21
      983.525648
 31
       19.166092
  0
LINE
  8
Default
 62
255
 10
     1100.496386
 20
      983.525648
 30
       19.166092
 11
     1100.515442
 21
      983.592950
 31
       19.206816
  0
LINE
  8
Default
 62
255
 10
     1100.515442
 20
      983.592950
 30
       19.206816
 11
     1100.533739
 21
      983.654234
 31
       19.203803
  0
LINE
  8
Default
 62
255
 10
     1100.533739
 20
      983.654234
 30
       19.203803
 11
     1100.529556
 21
      983.704330
 31
       19.214112
  0
LINE
  8
Default
 62
255
 10
     1100.529556
 20
      983.704330
 30
       19.214112
 11
     1100.517676
 21
      983.734581
 31
       19.213428
  0
LINE
  8
Default
 62
255
 10
     1100.517676
 20
      983.734581
 30
       19.213428
 11
     1100.511235
 21
      983.798646
 31
       19.214262
  0
LINE
  8
Default
 62
255
 10
     1100.511235
 20
      983.798646
 30
       19.214262
 11
     1100.441671
 21
      983.792061
 31
       19.230159
  0
LINE
  8
Default
 62
255
 10
     1100.441671
 20
      983.792061
 30
       19.230159
 11
     1100.401635
 21
      983.781111
 31
       19.238752
  0
LINE
  8
Default
 62
255
 10
     1100.401635
 20
      983.781111
 30
       19.238752
 11
     1100.370202
 21
      983.752179
 31
       19.232843
  0
LINE
  8
Default
 62
255
 10
     1100.370202
 20
      983.752179
 30
       19.232843
 11
     1100.319848
 21
      983.680629
 31
       19.208968
  0
LINE
  8
Default
 62
255
 10
     1100.319848
 20
      983.680629
 30
       19.208968
 11
     1100.355931
 21
      983.595626
 31
       19.173774
  0
LINE
  8
Default
 62
255
 10
     1100.379809
 20
      983.154483
 30
       19.073303
 11
     1100.397649
 21
      983.224104
 31
       19.072731
  0
LINE
  8
Default
 62
255
 10
     1100.397649
 20
      983.224104
 30
       19.072731
 11
     1100.402262
 21
      983.267516
 31
       19.066987
  0
LINE
  8
Default
 62
255
 10
     1100.402262
 20
      983.267516
 30
       19.066987
 11
     1100.397473
 21
      983.305774
 31
       19.066123
  0
LINE
  8
Default
 62
255
 10
     1100.397473
 20
      983.305774
 30
       19.066123
 11
     1100.420927
 21
      983.401048
 31
       19.085238
  0
LINE
  8
Default
 62
255
 10
     1100.420927
 20
      983.401048
 30
       19.085238
 11
     1100.434631
 21
      983.447061
 31
       19.080881
  0
LINE
  8
Default
 62
255
 10
     1100.434631
 20
      983.447061
 30
       19.080881
 11
     1100.439260
 21
      983.498039
 31
       19.093355
  0
LINE
  8
Default
 62
255
 10
     1100.439260
 20
      983.498039
 30
       19.093355
 11
     1100.393255
 21
      983.542401
 31
       19.101491
  0
LINE
  8
Default
 62
255
 10
     1100.393255
 20
      983.542401
 30
       19.101491
 11
     1100.332471
 21
      983.502650
 31
       19.104024
  0
LINE
  8
Default
 62
255
 10
     1100.332471
 20
      983.502650
 30
       19.104024
 11
     1100.297059
 21
      983.474848
 31
       19.117236
  0
LINE
  8
Default
 62
255
 10
     1100.297059
 20
      983.474848
 30
       19.117236
 11
     1100.214111
 21
      983.407604
 31
       19.123490
  0
LINE
  8
Default
 62
255
 10
     1100.214111
 20
      983.407604
 30
       19.123490
 11
     1100.162556
 21
      983.351708
 31
       19.141763
  0
LINE
  8
Default
 62
255
 10
     1100.162556
 20
      983.351708
 30
       19.141763
 11
     1100.150709
 21
      983.290522
 31
       19.168139
  0
LINE
  8
Default
 62
255
 10
     1100.150709
 20
      983.290522
 30
       19.168139
 11
     1100.252284
 21
      983.253398
 31
       19.139230
  0
LINE
  8
Default
 62
255
 10
     1100.252284
 20
      983.253398
 30
       19.139230
 11
     1100.312487
 21
      983.208826
 31
       19.116243
  0
LINE
  8
Default
 62
255
 10
     1100.312487
 20
      983.208826
 30
       19.116243
 11
     1100.379809
 21
      983.154483
 31
       19.073303
  0
LINE
  8
Default
 62
255
 10
     1100.540415
 20
      983.496460
 30
       19.046550
 11
     1100.615465
 21
      983.615092
 31
       19.064866
  0
LINE
  8
Default
 62
255
 10
     1100.615465
 20
      983.615092
 30
       19.064866
 11
     1100.660899
 21
      983.650362
 31
       19.091437
  0
LINE
  8
Default
 62
255
 10
     1100.660899
 20
      983.650362
 30
       19.091437
 11
     1100.695385
 21
      983.645660
 31
       19.115706
  0
LINE
  8
Default
 62
255
 10
     1100.695385
 20
      983.645660
 30
       19.115706
 11
     1100.761070
 21
      983.586340
 31
       19.145950
  0
LINE
  8
Default
 62
255
 10
     1100.761070
 20
      983.586340
 30
       19.145950
 11
     1100.813522
 21
      983.488227
 31
       19.154432
  0
LINE
  8
Default
 62
255
 10
     1100.813522
 20
      983.488227
 30
       19.154432
 11
     1100.821441
 21
      983.384554
 31
       19.122291
  0
LINE
  8
Default
 62
255
 10
     1100.821441
 20
      983.384554
 30
       19.122291
 11
     1100.815289
 21
      983.292143
 31
       19.066588
  0
LINE
  8
Default
 62
255
 10
     1100.815289
 20
      983.292143
 30
       19.066588
 11
     1100.816545
 21
      983.236722
 31
       19.065577
  0
LINE
  8
Default
 62
255
 10
     1100.816545
 20
      983.236722
 30
       19.065577
 11
     1100.802042
 21
      983.184052
 31
       19.056736
  0
LINE
  8
Default
 62
255
 10
     1100.802042
 20
      983.184052
 30
       19.056736
 11
     1100.784118
 21
      983.128418
 31
       19.084082
  0
LINE
  8
Default
 62
255
 10
     1100.784118
 20
      983.128418
 30
       19.084082
 11
     1100.746474
 21
      983.106130
 31
       19.082808
  0
LINE
  8
Default
 62
255
 10
     1100.746474
 20
      983.106130
 30
       19.082808
 11
     1100.700665
 21
      983.085911
 31
       19.076325
  0
LINE
  8
Default
 62
255
 10
     1100.700665
 20
      983.085911
 30
       19.076325
 11
     1100.628835
 21
      983.056761
 31
       19.062177
  0
LINE
  8
Default
 62
255
 10
     1100.628835
 20
      983.056761
 30
       19.062177
 11
     1100.594053
 21
      983.072157
 31
       19.048803
  0
LINE
  8
Default
 62
255
 10
     1100.594053
 20
      983.072157
 30
       19.048803
 11
     1100.560375
 21
      983.102519
 31
       19.036422
  0
LINE
  8
Default
 62
255
 10
     1100.560375
 20
      983.102519
 30
       19.036422
 11
     1100.507792
 21
      983.126686
 31
       19.026198
  0
LINE
  8
Default
 62
255
 10
     1100.507792
 20
      983.126686
 30
       19.026198
 11
     1100.467543
 21
      983.156063
 31
       19.020248
  0
LINE
  8
Default
 62
255
 10
     1100.467543
 20
      983.156063
 30
       19.020248
 11
     1100.446881
 21
      983.212728
 31
       19.038928
  0
LINE
  8
Default
 62
255
 10
     1100.446881
 20
      983.212728
 30
       19.038928
 11
     1100.476317
 21
      983.388309
 31
       19.003738
  0
LINE
  8
Default
 62
255
 10
     1100.476317
 20
      983.388309
 30
       19.003738
 11
     1100.540415
 21
      983.496460
 31
       19.046550
  0
LINE
  8
Default
 62
255
 10
     1099.969826
 20
      983.451091
 30
       19.317370
 11
     1100.012484
 21
      983.489896
 31
       19.322453
  0
LINE
  8
Default
 62
255
 10
     1100.012484
 20
      983.489896
 30
       19.322453
 11
     1100.060114
 21
      983.492206
 31
       19.299343
  0
LINE
  8
Default
 62
255
 10
     1100.060114
 20
      983.492206
 30
       19.299343
 11
     1100.094160
 21
      983.519106
 31
       19.311264
  0
LINE
  8
Default
 62
255
 10
     1100.094160
 20
      983.519106
 30
       19.311264
 11
     1100.101489
 21
      983.593839
 31
       19.324829
  0
LINE
  8
Default
 62
255
 10
     1100.101489
 20
      983.593839
 30
       19.324829
 11
     1100.118635
 21
      983.619118
 31
       19.316475
  0
LINE
  8
Default
 62
255
 10
     1100.118635
 20
      983.619118
 30
       19.316475
 11
     1100.125365
 21
      983.676603
 31
       19.332117
  0
LINE
  8
Default
 62
255
 10
     1100.125365
 20
      983.676603
 30
       19.332117
 11
     1100.146413
 21
      983.707385
 31
       19.330968
  0
LINE
  8
Default
 62
255
 10
     1100.146413
 20
      983.707385
 30
       19.330968
 11
     1100.184965
 21
      983.733360
 31
       19.312243
  0
LINE
  8
Default
 62
255
 10
     1100.184965
 20
      983.733360
 30
       19.312243
 11
     1100.227373
 21
      983.763096
 31
       19.327084
  0
LINE
  8
Default
 62
255
 10
     1100.227373
 20
      983.763096
 30
       19.327084
 11
     1100.281044
 21
      983.773286
 31
       19.316326
  0
LINE
  8
Default
 62
255
 10
     1100.281044
 20
      983.773286
 30
       19.316326
 11
     1100.299372
 21
      983.837992
 31
       19.333456
  0
LINE
  8
Default
 62
255
 10
     1100.299372
 20
      983.837992
 30
       19.333456
 11
     1100.346726
 21
      983.834007
 31
       19.312795
  0
LINE
  8
Default
 62
255
 10
     1100.346726
 20
      983.834007
 30
       19.312795
 11
     1100.409889
 21
      983.831298
 31
       19.314822
  0
LINE
  8
Default
 62
255
 10
     1100.409889
 20
      983.831298
 30
       19.314822
 11
     1100.438729
 21
      983.829746
 31
       19.339528
  0
LINE
  8
Default
 62
255
 10
     1100.438729
 20
      983.829746
 30
       19.339528
 11
     1100.452798
 21
      983.883054
 31
       19.366706
  0
LINE
  8
Default
 62
255
 10
     1100.452798
 20
      983.883054
 30
       19.366706
 11
     1100.454312
 21
      983.923589
 31
       19.351500
  0
LINE
  8
Default
 62
255
 10
     1100.454312
 20
      983.923589
 30
       19.351500
 11
     1100.448016
 21
      983.971266
 31
       19.368997
  0
LINE
  8
Default
 62
255
 10
     1099.969826
 20
      983.451091
 30
       19.317370
 11
     1100.009773
 21
      983.378794
 31
       19.286195
  0
LINE
  8
Default
 62
255
 10
     1100.009773
 20
      983.378794
 30
       19.286195
 11
     1100.031610
 21
      983.325294
 31
       19.286878
  0
LINE
  8
Default
 62
255
 10
     1100.031610
 20
      983.325294
 30
       19.286878
 11
     1100.059568
 21
      983.271251
 31
       19.263137
  0
LINE
  8
Default
 62
255
 10
     1100.059568
 20
      983.271251
 30
       19.263137
 11
     1100.101191
 21
      983.185553
 31
       19.293095
  0
LINE
  8
Default
 62
255
 10
     1100.101191
 20
      983.185553
 30
       19.293095
 11
     1100.136682
 21
      983.151300
 31
       19.326065
  0
LINE
  8
Default
 62
255
 10
     1100.136682
 20
      983.151300
 30
       19.326065
 11
     1100.133445
 21
      983.120709
 31
       19.397341
  0
ENDSEC
  0
EOF
