  0
SECTION
  2
HEADER
  9
$PDMODE
 70
   34
  9
$PDSIZE
 40
   -3.0
  0
ENDSEC
  0
SECTION
  2
TABLES
  0
TABLE
  2
LTYPE
 70
 1
  0
LTYPE
  2
CONTINUOUS
  70
 64
  3
Solid line
  72
 65
 73
 0
  40
 0.0
  0
ENDTAB
  0
TABLE
  2
LAYER
 70
 1
 0
LAYER
  2
Default
  70
 0
 62
 7
  6
CONTINUOUS
  0
ENDTAB
  0 
ENDSEC
  0
SECTION
  2
ENTITIES
  0
POINT
  8
Default
 62
255
 10
     1098.428450
 20
      980.501720
 30
       19.967164
  0
POINT
  8
Default
 62
255
 10
     1097.968265
 20
      980.914236
 30
       19.927156
  0
POINT
  8
Default
 62
255
 10
     1099.297817
 20
      982.728001
 30
       19.678346
  0
POINT
  8
Default
 62
255
 10
     1100.104702
 20
      982.030792
 30
       19.716785
  0
POINT
  8
Default
 62
255
 10
     1099.999518
 20
      982.119420
 30
       19.597299
  0
POINT
  8
Default
 62
255
 10
     1099.873727
 20
      982.196384
 30
       19.612061
  0
POINT
  8
Default
 62
255
 10
     1099.703440
 20
      982.434049
 30
       19.617715
  0
POINT
  8
Default
 62
255
 10
     1099.447491
 20
      982.615019
 30
       19.619524
  0
POINT
  8
Default
 62
255
 10
     1099.842984
 20
      981.916446
 30
       19.569912
  0
POINT
  8
Default
 62
255
 10
     1099.664044
 20
      982.015568
 30
       19.592531
  0
POINT
  8
Default
 62
255
 10
     1099.693012
 20
      982.222943
 30
       19.598467
  0
POINT
  8
Default
 62
255
 10
     1099.491398
 20
      982.268727
 30
       19.592046
  0
POINT
  8
Default
 62
255
 10
     1099.299793
 20
      982.244423
 30
       19.590211
  0
POINT
  8
Default
 62
255
 10
     1099.283282
 20
      982.460937
 30
       19.606643
  0
POINT
  8
Default
 62
255
 10
     1099.124871
 20
      982.469780
 30
       19.625580
  0
POINT
  8
Default
 62
255
 10
     1099.060207
 20
      982.264433
 30
       19.586584
  0
POINT
  8
Default
 62
255
 10
     1099.363980
 20
      981.441824
 30
       19.584842
  0
POINT
  8
Default
 62
255
 10
     1099.423738
 20
      981.767049
 30
       19.576614
  0
POINT
  8
Default
 62
255
 10
     1099.263994
 20
      981.772911
 30
       19.568515
  0
POINT
  8
Default
 62
255
 10
     1099.228724
 20
      981.566394
 30
       19.583553
  0
POINT
  8
Default
 62
255
 10
     1099.103243
 20
      981.575716
 30
       19.558009
  0
POINT
  8
Default
 62
255
 10
     1099.054665
 20
      981.901117
 30
       19.571611
  0
POINT
  8
Default
 62
255
 10
     1099.021849
 20
      982.053556
 30
       19.568483
  0
POINT
  8
Default
 62
255
 10
     1098.909902
 20
      981.772052
 30
       19.554943
  0
POINT
  8
Default
 62
255
 10
     1098.897296
 20
      982.094376
 30
       19.540468
  0
POINT
  8
Default
 62
255
 10
     1099.080369
 20
      981.106729
 30
       19.583835
  0
POINT
  8
Default
 62
255
 10
     1098.837502
 20
      981.267339
 30
       19.553224
  0
POINT
  8
Default
 62
255
 10
     1098.888368
 20
      981.501005
 30
       19.539507
  0
POINT
  8
Default
 62
255
 10
     1098.755535
 20
      981.159153
 30
       19.567125
  0
POINT
  8
Default
 62
255
 10
     1098.877431
 20
      981.019419
 30
       19.649000
  0
POINT
  8
Default
 62
255
 10
     1098.444110
 20
      981.306699
 30
       19.534925
  0
POINT
  8
Default
 62
255
 10
     1098.559468
 20
      981.471826
 30
       19.511739
  0
POINT
  8
Default
 62
255
 10
     1098.700240
 20
      981.605449
 30
       19.514713
  0
POINT
  8
Default
 62
255
 10
     1098.586907
 20
      981.728056
 30
       19.492188
  0
POINT
  8
Default
 62
255
 10
     1098.473347
 20
      981.661432
 30
       19.480826
  0
POINT
  8
Default
 62
255
 10
     1098.419513
 20
      981.530524
 30
       19.490259
  0
POINT
  8
Default
 62
255
 10
     1098.298192
 20
      981.424115
 30
       19.510732
  0
POINT
  8
Default
 62
255
 10
     1098.226553
 20
      981.315366
 30
       19.540844
  0
POINT
  8
Default
 62
255
 10
     1098.332607
 20
      981.115593
 30
       19.566659
  0
POINT
  8
Default
 62
255
 10
     1098.497584
 20
      980.950634
 30
       19.600450
  0
POINT
  8
Default
 62
255
 10
     1098.655514
 20
      980.985541
 30
       19.619017
  0
POINT
  8
Default
 62
255
 10
     1098.780320
 20
      980.860319
 30
       19.636887
  0
POINT
  8
Default
 62
255
 10
     1098.780286
 20
      980.761613
 30
       19.690301
  0
POINT
  8
Default
 62
255
 10
     1098.657344
 20
      980.614779
 30
       19.721992
  0
POINT
  8
Default
 62
255
 10
     1098.632153
 20
      980.695987
 30
       19.665017
  0
POINT
  8
Default
 62
255
 10
     1098.576227
 20
      980.852090
 30
       19.620370
  0
POINT
  8
Default
 62
255
 10
     1098.395948
 20
      980.863340
 30
       19.639587
  0
POINT
  8
Default
 62
255
 10
     1098.296682
 20
      980.943133
 30
       19.630767
  0
POINT
  8
Default
 62
255
 10
     1098.180655
 20
      981.052469
 30
       19.603959
  0
POINT
  8
Default
 62
255
 10
     1098.049739
 20
      981.136141
 30
       19.578413
  0
POINT
  8
Default
 62
255
 10
     1098.970564
 20
      981.505519
 30
       19.547024
  0
POINT
  8
Default
 62
255
 10
     1098.961109
 20
      981.414197
 30
       19.543709
  0
POINT
  8
Default
 62
255
 10
     1099.013176
 20
      981.334871
 30
       19.567166
  0
POINT
  8
Default
 62
255
 10
     1099.030604
 20
      981.243416
 30
       19.570973
  0
POINT
  8
Default
 62
255
 10
     1099.007872
 20
      981.150101
 30
       19.591064
  0
POINT
  8
Default
 62
255
 10
     1098.989629
 20
      981.072721
 30
       19.639636
  0
POINT
  8
Default
 62
255
 10
     1098.972813
 20
      980.979281
 30
       19.662190
  0
POINT
  8
Default
 62
255
 10
     1098.908998
 20
      980.910530
 30
       19.664716
  0
POINT
  8
Default
 62
255
 10
     1098.819613
 20
      980.896276
 30
       19.661520
  0
POINT
  8
Default
 62
255
 10
     1098.791903
 20
      980.981545
 30
       19.632846
  0
POINT
  8
Default
 62
255
 10
     1098.738718
 20
      981.064230
 30
       19.620176
  0
POINT
  8
Default
 62
255
 10
     1098.646351
 20
      981.101351
 30
       19.606164
  0
POINT
  8
Default
 62
255
 10
     1098.554081
 20
      981.132939
 30
       19.592361
  0
POINT
  8
Default
 62
255
 10
     1098.479946
 20
      981.187714
 30
       19.571067
  0
POINT
  8
Default
 62
255
 10
     1098.397887
 20
      981.225782
 30
       19.542516
  0
POINT
  8
Default
 62
255
 10
     1098.326876
 20
      981.285064
 30
       19.530343
  0
POINT
  8
Default
 62
255
 10
     1098.267060
 20
      981.370589
 30
       19.521645
  0
POINT
  8
Default
 62
255
 10
     1098.187134
 20
      981.408235
 30
       19.533788
  0
POINT
  8
Default
 62
255
 10
     1098.117582
 20
      981.444372
 30
       19.585282
  0
POINT
  8
Default
 62
255
 10
     1098.050054
 20
      981.414426
 30
       19.655372
  0
POINT
  8
Default
 62
255
 10
     1097.994786
 20
      981.371314
 30
       19.702905
  0
POINT
  8
Default
 62
255
 10
     1097.981499
 20
      981.273829
 30
       19.711000
  0
POINT
  8
Default
 62
255
 10
     1097.988030
 20
      981.198337
 30
       19.658225
  0
POINT
  8
Default
 62
255
 10
     1098.054758
 20
      981.174765
 30
       19.575428
  0
POINT
  8
Default
 62
255
 10
     1098.139593
 20
      981.147722
 30
       19.578832
  0
POINT
  8
Default
 62
255
 10
     1098.220374
 20
      981.098385
 30
       19.586376
  0
POINT
  8
Default
 62
255
 10
     1098.299073
 20
      981.037624
 30
       19.597871
  0
POINT
  8
Default
 62
255
 10
     1098.370346
 20
      980.979767
 30
       19.614446
  0
POINT
  8
Default
 62
255
 10
     1098.428789
 20
      980.910650
 30
       19.626451
  0
POINT
  8
Default
 62
255
 10
     1098.486814
 20
      980.829604
 30
       19.638635
  0
POINT
  8
Default
 62
255
 10
     1098.526633
 20
      980.746701
 30
       19.654457
  0
POINT
  8
Default
 62
255
 10
     1098.572424
 20
      980.672499
 30
       19.682511
  0
POINT
  8
Default
 62
255
 10
     1098.625592
 20
      980.656833
 30
       19.672655
  0
POINT
  8
Default
 62
255
 10
     1098.695625
 20
      980.680117
 30
       19.711643
  0
POINT
  8
Default
 62
255
 10
     1098.492835
 20
      981.086118
 30
       19.582965
  0
POINT
  8
Default
 62
255
 10
     1098.547934
 20
      981.158140
 30
       19.587398
  0
POINT
  8
Default
 62
255
 10
     1098.610814
 20
      981.238227
 30
       19.573702
  0
POINT
  8
Default
 62
255
 10
     1098.662443
 20
      981.315101
 30
       19.557966
  0
POINT
  8
Default
 62
255
 10
     1098.706047
 20
      981.398801
 30
       19.536815
  0
POINT
  8
Default
 62
255
 10
     1098.753294
 20
      981.484206
 30
       19.531820
  0
POINT
  8
Default
 62
255
 10
     1098.831549
 20
      981.543022
 30
       19.514743
  0
POINT
  8
Default
 62
255
 10
     1098.906967
 20
      981.591154
 30
       19.498526
  0
POINT
  8
Default
 62
255
 10
     1098.988523
 20
      981.644937
 30
       19.497633
  0
POINT
  8
Default
 62
255
 10
     1099.066287
 20
      981.694317
 30
       19.530572
  0
POINT
  8
Default
 62
255
 10
     1099.136027
 20
      981.744151
 30
       19.575859
  0
POINT
  8
Default
 62
255
 10
     1099.188247
 20
      981.819980
 30
       19.577303
  0
POINT
  8
Default
 62
255
 10
     1099.249576
 20
      981.895903
 30
       19.582482
  0
POINT
  8
Default
 62
255
 10
     1099.319151
 20
      981.965596
 30
       19.584567
  0
POINT
  8
Default
 62
255
 10
     1099.397293
 20
      982.025992
 30
       19.585487
  0
POINT
  8
Default
 62
255
 10
     1099.477075
 20
      982.075796
 30
       19.588183
  0
POINT
  8
Default
 62
255
 10
     1099.546619
 20
      982.130952
 30
       19.603956
  0
POINT
  8
Default
 62
255
 10
     1099.606691
 20
      982.202871
 30
       19.595216
  0
POINT
  8
Default
 62
255
 10
     1099.658723
 20
      982.281608
 30
       19.603939
  0
POINT
  8
Default
 62
255
 10
     1099.727203
 20
      982.327617
 30
       19.615065
  0
POINT
  8
Default
 62
255
 10
     1099.913428
 20
      982.154497
 30
       19.613169
  0
POINT
  8
Default
 62
255
 10
     1099.882909
 20
      982.067925
 30
       19.596268
  0
POINT
  8
Default
 62
255
 10
     1099.842851
 20
      981.985767
 30
       19.598914
  0
POINT
  8
Default
 62
255
 10
     1099.781589
 20
      981.916302
 30
       19.578037
  0
POINT
  8
Default
 62
255
 10
     1099.698878
 20
      981.857085
 30
       19.586850
  0
POINT
  8
Default
 62
255
 10
     1099.635933
 20
      981.798292
 30
       19.593120
  0
POINT
  8
Default
 62
255
 10
     1099.557668
 20
      981.743474
 30
       19.598718
  0
POINT
  8
Default
 62
255
 10
     1099.487659
 20
      981.692444
 30
       19.573088
  0
POINT
  8
Default
 62
255
 10
     1099.446879
 20
      981.606686
 30
       19.573086
  0
POINT
  8
Default
 62
255
 10
     1099.371223
 20
      981.547030
 30
       19.576033
  0
POINT
  8
Default
 62
255
 10
     1099.300403
 20
      981.489845
 30
       19.588064
  0
POINT
  8
Default
 62
255
 10
     1099.226777
 20
      981.417444
 30
       19.583740
  0
POINT
  8
Default
 62
255
 10
     1099.156995
 20
      981.347825
 30
       19.578339
  0
POINT
  8
Default
 62
255
 10
     1099.081766
 20
      981.276004
 30
       19.577879
  0
POINT
  8
Default
 62
255
 10
     1099.009809
 20
      981.209462
 30
       19.570443
  0
POINT
  8
Default
 62
255
 10
     1098.939410
 20
      981.151061
 30
       19.589644
  0
POINT
  8
Default
 62
255
 10
     1098.863075
 20
      981.103284
 30
       19.611711
  0
POINT
  8
Default
 62
255
 10
     1098.811617
 20
      981.021863
 30
       19.626200
  0
POINT
  8
Default
 62
255
 10
     1098.761064
 20
      980.942428
 30
       19.632817
  0
POINT
  8
Default
 62
255
 10
     1098.710837
 20
      980.860737
 30
       19.638103
  0
POINT
  8
Default
 62
255
 10
     1098.650789
 20
      980.784119
 30
       19.649249
  0
POINT
  8
Default
 62
255
 10
     1098.591311
 20
      980.706891
 30
       19.671451
  0
POINT
  8
Default
 62
255
 10
     1098.554429
 20
      980.626663
 30
       19.691183
  0
POINT
  8
Default
 62
255
 10
     1098.936282
 20
      982.284989
 30
       19.598205
  0
POINT
  8
Default
 62
255
 10
     1099.051451
 20
      982.190378
 30
       19.558007
  0
POINT
  8
Default
 62
255
 10
     1099.116019
 20
      982.126800
 30
       19.562349
  0
POINT
  8
Default
 62
255
 10
     1099.185545
 20
      982.060122
 30
       19.555693
  0
POINT
  8
Default
 62
255
 10
     1099.269405
 20
      982.015850
 30
       19.573390
  0
POINT
  8
Default
 62
255
 10
     1099.350590
 20
      981.964816
 30
       19.587293
  0
POINT
  8
Default
 62
255
 10
     1099.438561
 20
      981.914221
 30
       19.587633
  0
POINT
  8
Default
 62
255
 10
     1099.520884
 20
      981.867405
 30
       19.592203
  0
POINT
  8
Default
 62
255
 10
     1099.613530
 20
      981.836019
 30
       19.593840
  0
POINT
  8
Default
 62
255
 10
     1099.702645
 20
      981.817259
 30
       19.590091
  0
POINT
  8
Default
 62
255
 10
     1099.886460
 20
      981.988812
 30
       19.605431
  0
POINT
  8
Default
 62
255
 10
     1099.866024
 20
      982.074691
 30
       19.592816
  0
POINT
  8
Default
 62
255
 10
     1099.840470
 20
      982.160491
 30
       19.607714
  0
POINT
  8
Default
 62
255
 10
     1099.791381
 20
      982.242313
 30
       19.607511
  0
POINT
  8
Default
 62
255
 10
     1099.736499
 20
      982.312028
 30
       19.620060
  0
POINT
  8
Default
 62
255
 10
     1099.668884
 20
      982.362853
 30
       19.619264
  0
POINT
  8
Default
 62
255
 10
     1099.580491
 20
      982.381077
 30
       19.604556
  0
POINT
  8
Default
 62
255
 10
     1099.500623
 20
      982.438378
 30
       19.623070
  0
POINT
  8
Default
 62
255
 10
     1099.443255
 20
      982.502748
 30
       19.618882
  0
POINT
  8
Default
 62
255
 10
     1099.390639
 20
      982.576641
 30
       19.622015
  0
POINT
  8
Default
 62
255
 10
     1099.275948
 20
      982.527205
 30
       19.618375
  0
POINT
  8
Default
 62
255
 10
     1099.215232
 20
      982.455653
 30
       19.614829
  0
POINT
  8
Default
 62
255
 10
     1099.201102
 20
      982.372573
 30
       19.604527
  0
POINT
  8
Default
 62
255
 10
     1099.143746
 20
      982.295381
 30
       19.597931
  0
POINT
  8
Default
 62
255
 10
     1099.104797
 20
      982.225327
 30
       19.555218
  0
POINT
  8
Default
 62
255
 10
     1099.037178
 20
      982.157722
 30
       19.556375
  0
POINT
  8
Default
 62
255
 10
     1098.974619
 20
      982.091596
 30
       19.568122
  0
POINT
  8
Default
 62
255
 10
     1098.921944
 20
      982.005028
 30
       19.568607
  0
POINT
  8
Default
 62
255
 10
     1098.859884
 20
      981.931212
 30
       19.546185
  0
POINT
  8
Default
 62
255
 10
     1098.802287
 20
      981.853520
 30
       19.530888
  0
POINT
  8
Default
 62
255
 10
     1098.739660
 20
      981.782278
 30
       19.518322
  0
POINT
  8
Default
 62
255
 10
     1098.673532
 20
      981.714474
 30
       19.503880
  0
POINT
  8
Default
 62
255
 10
     1098.610278
 20
      981.639008
 30
       19.501270
  0
POINT
  8
Default
 62
255
 10
     1098.539797
 20
      981.572206
 30
       19.492867
  0
POINT
  8
Default
 62
255
 10
     1098.474189
 20
      981.499671
 30
       19.496140
  0
POINT
  8
Default
 62
255
 10
     1098.405735
 20
      981.430428
 30
       19.502420
  0
POINT
  8
Default
 62
255
 10
     1098.338840
 20
      981.363293
 30
       19.515951
  0
POINT
  8
Default
 62
255
 10
     1098.276670
 20
      981.299481
 30
       19.542679
  0
POINT
  8
Default
 62
255
 10
     1098.218109
 20
      981.231080
 30
       19.566934
  0
POINT
  8
Default
 62
255
 10
     1098.150721
 20
      981.167216
 30
       19.577154
  0
POINT
  8
Default
 62
255
 10
     1098.071742
 20
      981.123653
 30
       19.586053
  0
POINT
  8
Default
 62
255
 10
     1097.893886
 20
      981.287247
 30
       19.690507
  0
POINT
  8
Default
 62
255
 10
     1097.930021
 20
      981.239563
 30
       19.695008
  0
POINT
  8
Default
 62
255
 10
     1097.939529
 20
      981.199094
 30
       19.681432
  0
POINT
  8
Default
 62
255
 10
     1097.847514
 20
      981.268906
 30
       19.677798
  0
POINT
  8
Default
 62
255
 10
     1097.930665
 20
      981.386088
 30
       19.691816
  0
POINT
  8
Default
 62
255
 10
     1098.029576
 20
      981.331455
 30
       19.714377
  0
POINT
  8
Default
 62
255
 10
     1098.041583
 20
      981.376019
 30
       19.668649
  0
POINT
  8
Default
 62
255
 10
     1097.994207
 20
      981.420115
 30
       19.661185
  0
POINT
  8
Default
 62
255
 10
     1098.088931
 20
      981.245188
 30
       19.656999
  0
POINT
  8
Default
 62
255
 10
     1098.090374
 20
      981.326095
 30
       19.684653
  0
POINT
  8
Default
 62
255
 10
     1098.021807
 20
      981.180297
 30
       19.614092
  0
POINT
  8
Default
 62
255
 10
     1098.035877
 20
      981.232314
 30
       19.657596
  0
POINT
  8
Default
 62
255
 10
     1098.053777
 20
      981.295850
 30
       19.680308
  0
POINT
  8
Default
 62
255
 10
     1098.106787
 20
      981.395841
 30
       19.644112
  0
POINT
  8
Default
 62
255
 10
     1098.137878
 20
      981.300143
 30
       19.668817
  0
POINT
  8
Default
 62
255
 10
     1098.145272
 20
      981.342689
 30
       19.651808
  0
POINT
  8
Default
 62
255
 10
     1098.044506
 20
      981.448624
 30
       19.630479
  0
POINT
  8
Default
 62
255
 10
     1098.058212
 20
      981.496068
 30
       19.540708
  0
POINT
  8
Default
 62
255
 10
     1098.123026
 20
      981.475401
 30
       19.504540
  0
POINT
  8
Default
 62
255
 10
     1098.190713
 20
      981.375999
 30
       19.542972
  0
POINT
  8
Default
 62
255
 10
     1098.158320
 20
      981.289246
 30
       19.557189
  0
POINT
  8
Default
 62
255
 10
     1098.215745
 20
      981.472976
 30
       19.525570
  0
POINT
  8
Default
 62
255
 10
     1098.235345
 20
      981.546825
 30
       19.534866
  0
POINT
  8
Default
 62
255
 10
     1098.169327
 20
      981.517162
 30
       19.517775
  0
POINT
  8
Default
 62
255
 10
     1098.272297
 20
      981.646931
 30
       19.526419
  0
POINT
  8
Default
 62
255
 10
     1098.330847
 20
      981.601188
 30
       19.558371
  0
POINT
  8
Default
 62
255
 10
     1098.348520
 20
      981.549859
 30
       19.563917
  0
POINT
  8
Default
 62
255
 10
     1098.337309
 20
      981.644929
 30
       19.538456
  0
POINT
  8
Default
 62
255
 10
     1098.143184
 20
      981.639722
 30
       19.496614
  0
POINT
  8
Default
 62
255
 10
     1098.107278
 20
      981.597233
 30
       19.490027
  0
POINT
  8
Default
 62
255
 10
     1098.210520
 20
      981.599825
 30
       19.522895
  0
POINT
  8
Default
 62
255
 10
     1098.158376
 20
      981.576415
 30
       19.512311
  0
POINT
  8
Default
 62
255
 10
     1098.316509
 20
      981.497149
 30
       19.556738
  0
POINT
  8
Default
 62
255
 10
     1098.280629
 20
      981.600628
 30
       19.542315
  0
POINT
  8
Default
 62
255
 10
     1098.267561
 20
      981.445568
 30
       19.533130
  0
POINT
  8
Default
 62
255
 10
     1098.104348
 20
      981.550306
 30
       19.491019
  0
POINT
  8
Default
 62
255
 10
     1098.320973
 20
      981.686065
 30
       19.511730
  0
POINT
  8
Default
 62
255
 10
     1098.264258
 20
      981.701354
 30
       19.520981
  0
POINT
  8
Default
 62
255
 10
     1098.360693
 20
      981.678540
 30
       19.523838
  0
POINT
  8
Default
 62
255
 10
     1098.414835
 20
      981.652843
 30
       19.512890
  0
POINT
  8
Default
 62
255
 10
     1098.278436
 20
      981.740702
 30
       19.534207
  0
POINT
  8
Default
 62
255
 10
     1098.324757
 20
      981.797062
 30
       19.540770
  0
POINT
  8
Default
 62
255
 10
     1098.304410
 20
      981.697414
 30
       19.529253
  0
POINT
  8
Default
 62
255
 10
     1098.352799
 20
      981.750896
 30
       19.537462
  0
POINT
  8
Default
 62
255
 10
     1098.389787
 20
      981.712630
 30
       19.523069
  0
POINT
  8
Default
 62
255
 10
     1098.424286
 20
      981.696518
 30
       19.515131
  0
POINT
  8
Default
 62
255
 10
     1098.355071
 20
      981.839563
 30
       19.546529
  0
POINT
  8
Default
 62
255
 10
     1098.397531
 20
      981.816223
 30
       19.545003
  0
POINT
  8
Default
 62
255
 10
     1098.409175
 20
      981.775833
 30
       19.534601
  0
POINT
  8
Default
 62
255
 10
     1098.446652
 20
      981.741202
 30
       19.527924
  0
POINT
  8
Default
 62
255
 10
     1098.400475
 20
      981.873566
 30
       19.557280
  0
POINT
  8
Default
 62
255
 10
     1098.438147
 20
      981.847745
 30
       19.550208
  0
POINT
  8
Default
 62
255
 10
     1098.473992
 20
      981.805326
 30
       19.546843
  0
POINT
  8
Default
 62
255
 10
     1098.468527
 20
      981.878167
 30
       19.557140
  0
POINT
  8
Default
 62
255
 10
     1098.455199
 20
      981.903590
 30
       19.557469
  0
POINT
  8
Default
 62
255
 10
     1098.487302
 20
      981.898187
 30
       19.618604
  0
POINT
  8
Default
 62
255
 10
     1098.539283
 20
      981.880373
 30
       19.629763
  0
POINT
  8
Default
 62
255
 10
     1098.534400
 20
      981.847270
 30
       19.622690
  0
POINT
  8
Default
 62
255
 10
     1098.550788
 20
      981.828781
 30
       19.617599
  0
POINT
  8
Default
 62
255
 10
     1098.599993
 20
      981.872441
 30
       19.622438
  0
POINT
  8
Default
 62
255
 10
     1098.647241
 20
      981.900646
 30
       19.624700
  0
POINT
  8
Default
 62
255
 10
     1098.594164
 20
      982.003618
 30
       19.654000
  0
POINT
  8
Default
 62
255
 10
     1098.557259
 20
      981.934951
 30
       19.639779
  0
POINT
  8
Default
 62
255
 10
     1098.625160
 20
      981.942347
 30
       19.638276
  0
POINT
  8
Default
 62
255
 10
     1098.527060
 20
      981.985060
 30
       19.641808
  0
POINT
  8
Default
 62
255
 10
     1098.576092
 20
      982.041621
 30
       19.654603
  0
POINT
  8
Default
 62
255
 10
     1098.658550
 20
      982.062197
 30
       19.666655
  0
POINT
  8
Default
 62
255
 10
     1098.719507
 20
      981.951095
 30
       19.650970
  0
POINT
  8
Default
 62
255
 10
     1098.683161
 20
      981.995220
 30
       19.655594
  0
POINT
  8
Default
 62
255
 10
     1098.684142
 20
      981.924578
 30
       19.639028
  0
POINT
  8
Default
 62
255
 10
     1098.643543
 20
      982.101305
 30
       19.656266
  0
POINT
  8
Default
 62
255
 10
     1098.727113
 20
      982.063509
 30
       19.659307
  0
POINT
  8
Default
 62
255
 10
     1098.724241
 20
      982.005955
 30
       19.658692
  0
POINT
  8
Default
 62
255
 10
     1098.701803
 20
      982.140905
 30
       19.666009
  0
POINT
  8
Default
 62
255
 10
     1098.770333
 20
      982.101446
 30
       19.601379
  0
POINT
  8
Default
 62
255
 10
     1098.806215
 20
      982.134636
 30
       19.599705
  0
POINT
  8
Default
 62
255
 10
     1098.761970
 20
      982.139055
 30
       19.617339
  0
POINT
  8
Default
 62
255
 10
     1098.749075
 20
      982.185302
 30
       19.624770
  0
POINT
  8
Default
 62
255
 10
     1098.812715
 20
      982.193246
 30
       19.601476
  0
POINT
  8
Default
 62
255
 10
     1098.843473
 20
      982.176444
 30
       19.593662
  0
POINT
  8
Default
 62
255
 10
     1098.763561
 20
      982.265481
 30
       19.629076
  0
POINT
  8
Default
 62
255
 10
     1098.727441
 20
      982.246895
 30
       19.622968
  0
POINT
  8
Default
 62
255
 10
     1098.714225
 20
      982.206295
 30
       19.621105
  0
POINT
  8
Default
 62
255
 10
     1098.781203
 20
      982.235307
 30
       19.626084
  0
POINT
  8
Default
 62
255
 10
     1098.786255
 20
      982.307387
 30
       19.633178
  0
POINT
  8
Default
 62
255
 10
     1098.870408
 20
      982.212113
 30
       19.596866
  0
POINT
  8
Default
 62
255
 10
     1098.878248
 20
      982.246310
 30
       19.610194
  0
POINT
  8
Default
 62
255
 10
     1098.827830
 20
      982.258078
 30
       19.612866
  0
POINT
  8
Default
 62
255
 10
     1098.840568
 20
      982.346239
 30
       19.620984
  0
POINT
  8
Default
 62
255
 10
     1098.813733
 20
      982.333146
 30
       19.626158
  0
POINT
  8
Default
 62
255
 10
     1098.859421
 20
      982.312430
 30
       19.622557
  0
POINT
  8
Default
 62
255
 10
     1098.811911
 20
      982.293288
 30
       19.632095
  0
POINT
  8
Default
 62
255
 10
     1098.870204
 20
      982.367152
 30
       19.613641
  0
POINT
  8
Default
 62
255
 10
     1098.896608
 20
      982.353219
 30
       19.610166
  0
POINT
  8
Default
 62
255
 10
     1098.961956
 20
      982.435622
 30
       19.668850
  0
POINT
  8
Default
 62
255
 10
     1098.937610
 20
      982.331932
 30
       19.605854
  0
POINT
  8
Default
 62
255
 10
     1098.914957
 20
      982.360755
 30
       19.634338
  0
POINT
  8
Default
 62
255
 10
     1098.979126
 20
      982.352310
 30
       19.610710
  0
POINT
  8
Default
 62
255
 10
     1099.049112
 20
      982.378558
 30
       19.620590
  0
POINT
  8
Default
 62
255
 10
     1099.088541
 20
      982.403667
 30
       19.627087
  0
POINT
  8
Default
 62
255
 10
     1099.032782
 20
      982.408308
 30
       19.643586
  0
POINT
  8
Default
 62
255
 10
     1098.988382
 20
      982.395518
 30
       19.644189
  0
POINT
  8
Default
 62
255
 10
     1098.926148
 20
      982.409166
 30
       19.642452
  0
POINT
  8
Default
 62
255
 10
     1098.949267
 20
      982.465119
 30
       19.667678
  0
POINT
  8
Default
 62
255
 10
     1098.942054
 20
      982.504057
 30
       19.666154
  0
POINT
  8
Default
 62
255
 10
     1098.974636
 20
      982.551180
 30
       19.647709
  0
POINT
  8
Default
 62
255
 10
     1099.096559
 20
      982.456673
 30
       19.645008
  0
POINT
  8
Default
 62
255
 10
     1099.049922
 20
      982.459453
 30
       19.660948
  0
POINT
  8
Default
 62
255
 10
     1099.036951
 20
      982.494558
 30
       19.662483
  0
POINT
  8
Default
 62
255
 10
     1098.990091
 20
      982.498870
 30
       19.665677
  0
POINT
  8
Default
 62
255
 10
     1099.009916
 20
      982.598739
 30
       19.647984
  0
POINT
  8
Default
 62
255
 10
     1099.069270
 20
      982.626857
 30
       19.669000
  0
POINT
  8
Default
 62
255
 10
     1099.091516
 20
      982.492683
 30
       19.660783
  0
POINT
  8
Default
 62
255
 10
     1099.071762
 20
      982.552746
 30
       19.675697
  0
POINT
  8
Default
 62
255
 10
     1099.030015
 20
      982.543235
 30
       19.672742
  0
POINT
  8
Default
 62
255
 10
     1099.105000
 20
      982.571012
 30
       19.675486
  0
POINT
  8
Default
 62
255
 10
     1099.121987
 20
      982.526836
 30
       19.671824
  0
POINT
  8
Default
 62
255
 10
     1099.095660
 20
      982.603378
 30
       19.676488
  0
POINT
  8
Default
 62
255
 10
     1099.051951
 20
      982.579619
 30
       19.672171
  0
POINT
  8
Default
 62
255
 10
     1099.139219
 20
      982.565890
 30
       19.674298
  0
POINT
  8
Default
 62
255
 10
     1099.177064
 20
      982.563147
 30
       19.642561
  0
POINT
  8
Default
 62
255
 10
     1099.152482
 20
      982.618840
 30
       19.648474
  0
POINT
  8
Default
 62
255
 10
     1099.198816
 20
      982.596577
 30
       19.653502
  0
POINT
  8
Default
 62
255
 10
     1099.192144
 20
      982.654158
 30
       19.662066
  0
POINT
  8
Default
 62
255
 10
     1099.294737
 20
      982.678536
 30
       19.681909
  0
POINT
  8
Default
 62
255
 10
     1099.238910
 20
      982.701578
 30
       19.676935
  0
POINT
  8
Default
 62
255
 10
     1099.278144
 20
      982.644640
 30
       19.683966
  0
POINT
  8
Default
 62
255
 10
     1099.230532
 20
      982.657192
 30
       19.680695
  0
POINT
  8
Default
 62
255
 10
     1099.211250
 20
      982.694115
 30
       19.667478
  0
POINT
  8
Default
 62
255
 10
     1099.178192
 20
      982.617147
 30
       19.657298
  0
POINT
  8
Default
 62
255
 10
     1099.165554
 20
      982.671091
 30
       19.656264
  0
POINT
  8
Default
 62
255
 10
     1099.254414
 20
      982.727839
 30
       19.671944
  0
POINT
  8
Default
 62
255
 10
     1099.125098
 20
      982.698811
 30
       19.636642
  0
POINT
  8
Default
 62
255
 10
     1099.138747
 20
      982.743167
 30
       19.642833
  0
POINT
  8
Default
 62
255
 10
     1099.160213
 20
      982.718420
 30
       19.650706
  0
POINT
  8
Default
 62
255
 10
     1099.142243
 20
      982.661842
 30
       19.626666
  0
POINT
  8
Default
 62
255
 10
     1099.228111
 20
      982.605700
 30
       19.672927
  0
POINT
  8
Default
 62
255
 10
     1099.194813
 20
      982.739211
 30
       19.658894
  0
POINT
  8
Default
 62
255
 10
     1099.171214
 20
      982.789974
 30
       19.652286
  0
POINT
  8
Default
 62
255
 10
     1099.254177
 20
      982.768553
 30
       19.661884
  0
POINT
  8
Default
 62
255
 10
     1099.205949
 20
      982.777173
 30
       19.662647
  0
POINT
  8
Default
 62
255
 10
     1099.338983
 20
      982.703155
 30
       19.685066
  0
POINT
  8
Default
 62
255
 10
     1099.339905
 20
      982.749784
 30
       19.675317
  0
POINT
  8
Default
 62
255
 10
     1099.307613
 20
      982.785218
 30
       19.666712
  0
POINT
  8
Default
 62
255
 10
     1099.276947
 20
      982.804936
 30
       19.666962
  0
POINT
  8
Default
 62
255
 10
     1099.261221
 20
      982.835703
 30
       19.665854
  0
POINT
  8
Default
 62
255
 10
     1099.222020
 20
      982.823627
 30
       19.649966
  0
POINT
  8
Default
 62
255
 10
     1098.605393
 20
      980.587550
 30
       19.719169
  0
POINT
  8
Default
 62
255
 10
     1098.623871
 20
      980.635439
 30
       19.711011
  0
POINT
  8
Default
 62
255
 10
     1098.659562
 20
      980.707017
 30
       19.690748
  0
POINT
  8
Default
 62
255
 10
     1098.690542
 20
      980.644760
 30
       19.717429
  0
POINT
  8
Default
 62
255
 10
     1098.631591
 20
      980.590599
 30
       19.797504
  0
POINT
  8
Default
 62
255
 10
     1098.645219
 20
      980.567913
 30
       19.841758
  0
POINT
  8
Default
 62
255
 10
     1098.680032
 20
      980.617900
 30
       19.748994
  0
POINT
  8
Default
 62
255
 10
     1098.615917
 20
      980.588009
 30
       19.771787
  0
POINT
  8
Default
 62
255
 10
     1098.676224
 20
      980.614422
 30
       19.785704
  0
POINT
  8
Default
 62
255
 10
     1098.712759
 20
      980.549909
 30
       19.773785
  0
POINT
  8
Default
 62
255
 10
     1098.660072
 20
      980.600626
 30
       19.825602
  0
POINT
  8
Default
 62
255
 10
     1098.706391
 20
      980.595748
 30
       19.775264
  0
POINT
  8
Default
 62
255
 10
     1098.651310
 20
      980.594952
 30
       19.738736
  0
POINT
  8
Default
 62
255
 10
     1098.740291
 20
      980.556418
 30
       19.731921
  0
POINT
  8
Default
 62
255
 10
     1098.766343
 20
      980.590771
 30
       19.726029
  0
POINT
  8
Default
 62
255
 10
     1098.729403
 20
      980.608231
 30
       19.729780
  0
POINT
  8
Default
 62
255
 10
     1098.793416
 20
      980.635317
 30
       19.702396
  0
POINT
  8
Default
 62
255
 10
     1098.844375
 20
      980.700726
 30
       19.682450
  0
POINT
  8
Default
 62
255
 10
     1098.772574
 20
      980.802287
 30
       19.663268
  0
POINT
  8
Default
 62
255
 10
     1098.806748
 20
      980.777399
 30
       19.672227
  0
POINT
  8
Default
 62
255
 10
     1098.837368
 20
      980.743171
 30
       19.673747
  0
POINT
  8
Default
 62
255
 10
     1098.816968
 20
      980.713569
 30
       19.701667
  0
POINT
  8
Default
 62
255
 10
     1098.762622
 20
      980.715159
 30
       19.707856
  0
POINT
  8
Default
 62
255
 10
     1098.717511
 20
      980.771156
 30
       19.687388
  0
POINT
  8
Default
 62
255
 10
     1098.729616
 20
      980.724153
 30
       19.695832
  0
POINT
  8
Default
 62
255
 10
     1098.752090
 20
      980.805194
 30
       19.651744
  0
POINT
  8
Default
 62
255
 10
     1098.797371
 20
      980.834721
 30
       19.661092
  0
POINT
  8
Default
 62
255
 10
     1098.832552
 20
      980.815143
 30
       19.664761
  0
POINT
  8
Default
 62
255
 10
     1098.883214
 20
      980.823701
 30
       19.670690
  0
POINT
  8
Default
 62
255
 10
     1098.856229
 20
      980.866455
 30
       19.671861
  0
POINT
  8
Default
 62
255
 10
     1098.926084
 20
      980.866816
 30
       19.657799
  0
POINT
  8
Default
 62
255
 10
     1098.959513
 20
      980.944394
 30
       19.667883
  0
POINT
  8
Default
 62
255
 10
     1098.891939
 20
      980.950805
 30
       19.654283
  0
POINT
  8
Default
 62
255
 10
     1098.854385
 20
      980.954909
 30
       19.644128
  0
POINT
  8
Default
 62
255
 10
     1098.931851
 20
      981.042967
 30
       19.648042
  0
POINT
  8
Default
 62
255
 10
     1098.968723
 20
      981.131018
 30
       19.612309
  0
POINT
  8
Default
 62
255
 10
     1098.925753
 20
      981.101398
 30
       19.616091
  0
POINT
  8
Default
 62
255
 10
     1098.959168
 20
      981.095333
 30
       19.635803
  0
POINT
  8
Default
 62
255
 10
     1098.892375
 20
      981.070249
 30
       19.633913
  0
POINT
  8
Default
 62
255
 10
     1099.082372
 20
      981.131453
 30
       19.553717
  0
POINT
  8
Default
 62
255
 10
     1099.065152
 20
      981.063071
 30
       19.618855
  0
POINT
  8
Default
 62
255
 10
     1099.038571
 20
      981.087345
 30
       19.615842
  0
POINT
  8
Default
 62
255
 10
     1099.050227
 20
      981.113887
 30
       19.575705
  0
POINT
  8
Default
 62
255
 10
     1098.894592
 20
      981.202856
 30
       19.573946
  0
POINT
  8
Default
 62
255
 10
     1098.952530
 20
      981.209368
 30
       19.578821
  0
POINT
  8
Default
 62
255
 10
     1099.076678
 20
      981.152349
 30
       19.548128
  0
POINT
  8
Default
 62
255
 10
     1099.051791
 20
      981.200943
 30
       19.565819
  0
POINT
  8
Default
 62
255
 10
     1098.982633
 20
      981.145310
 30
       19.580545
  0
POINT
  8
Default
 62
255
 10
     1099.050222
 20
      981.310050
 30
       19.570493
  0
POINT
  8
Default
 62
255
 10
     1098.989164
 20
      981.261420
 30
       19.578595
  0
POINT
  8
Default
 62
255
 10
     1098.969508
 20
      981.294193
 30
       19.568848
  0
POINT
  8
Default
 62
255
 10
     1098.957517
 20
      981.323236
 30
       19.555852
  0
POINT
  8
Default
 62
255
 10
     1098.873960
 20
      981.232262
 30
       19.569361
  0
POINT
  8
Default
 62
255
 10
     1098.931588
 20
      981.231186
 30
       19.574309
  0
POINT
  8
Default
 62
255
 10
     1098.926643
 20
      981.277051
 30
       19.569869
  0
POINT
  8
Default
 62
255
 10
     1099.080172
 20
      981.234455
 30
       19.565305
  0
POINT
  8
Default
 62
255
 10
     1099.129738
 20
      981.207746
 30
       19.571218
  0
POINT
  8
Default
 62
255
 10
     1099.191460
 20
      981.177470
 30
       19.549297
  0
POINT
  8
Default
 62
255
 10
     1099.161267
 20
      981.272922
 30
       19.578802
  0
POINT
  8
Default
 62
255
 10
     1099.127696
 20
      981.163674
 30
       19.543935
  0
POINT
  8
Default
 62
255
 10
     1099.085790
 20
      981.348547
 30
       19.579035
  0
POINT
  8
Default
 62
255
 10
     1099.285132
 20
      981.259304
 30
       19.573237
  0
POINT
  8
Default
 62
255
 10
     1099.373845
 20
      981.340834
 30
       19.568587
  0
POINT
  8
Default
 62
255
 10
     1099.253563
 20
      981.335204
 30
       19.580828
  0
POINT
  8
Default
 62
255
 10
     1099.297204
 20
      981.392558
 30
       19.582693
  0
POINT
  8
Default
 62
255
 10
     1099.546689
 20
      981.511593
 30
       19.569154
  0
POINT
  8
Default
 62
255
 10
     1099.408018
 20
      981.520439
 30
       19.572851
  0
POINT
  8
Default
 62
255
 10
     1099.517822
 20
      981.584155
 30
       19.566396
  0
POINT
  8
Default
 62
255
 10
     1099.502660
 20
      981.462284
 30
       19.564028
  0
POINT
  8
Default
 62
255
 10
     1099.453209
 20
      981.407301
 30
       19.564218
  0
POINT
  8
Default
 62
255
 10
     1099.544566
 20
      981.642629
 30
       19.581830
  0
POINT
  8
Default
 62
255
 10
     1099.637563
 20
      981.598133
 30
       19.572184
  0
POINT
  8
Default
 62
255
 10
     1099.691501
 20
      981.686942
 30
       19.585185
  0
POINT
  8
Default
 62
255
 10
     1099.609722
 20
      981.724602
 30
       19.597266
  0
POINT
  8
Default
 62
255
 10
     1099.755015
 20
      981.765018
 30
       19.581173
  0
POINT
  8
Default
 62
255
 10
     1099.104090
 20
      981.415079
 30
       19.582102
  0
POINT
  8
Default
 62
255
 10
     1099.116655
 20
      981.485705
 30
       19.568239
  0
POINT
  8
Default
 62
255
 10
     1099.155865
 20
      981.417436
 30
       19.580928
  0
POINT
  8
Default
 62
255
 10
     1099.222641
 20
      981.498272
 30
       19.588576
  0
POINT
  8
Default
 62
255
 10
     1099.235993
 20
      981.628579
 30
       19.580792
  0
POINT
  8
Default
 62
255
 10
     1099.327817
 20
      981.632751
 30
       19.580327
  0
POINT
  8
Default
 62
255
 10
     1099.298893
 20
      981.552308
 30
       19.589459
  0
POINT
  8
Default
 62
255
 10
     1099.170468
 20
      981.549164
 30
       19.571090
  0
POINT
  8
Default
 62
255
 10
     1099.421261
 20
      981.670350
 30
       19.574789
  0
POINT
  8
Default
 62
255
 10
     1099.528901
 20
      981.809088
 30
       19.589774
  0
POINT
  8
Default
 62
255
 10
     1099.896691
 20
      981.916818
 30
       19.588335
  0
POINT
  8
Default
 62
255
 10
     1099.712104
 20
      981.963119
 30
       19.582642
  0
POINT
  8
Default
 62
255
 10
     1099.570762
 20
      981.926902
 30
       19.595555
  0
POINT
  8
Default
 62
255
 10
     1099.959417
 20
      981.991202
 30
       19.598674
  0
POINT
  8
Default
 62
255
 10
     1099.998019
 20
      982.040723
 30
       19.601959
  0
POINT
  8
Default
 62
255
 10
     1098.422148
 20
      980.660395
 30
       19.883431
  0
POINT
  8
Default
 62
255
 10
     1098.452873
 20
      980.640167
 30
       19.935361
  0
POINT
  8
Default
 62
255
 10
     1098.494788
 20
      980.622604
 30
       19.954045
  0
POINT
  8
Default
 62
255
 10
     1098.530709
 20
      980.614289
 30
       19.956422
  0
POINT
  8
Default
 62
255
 10
     1098.557693
 20
      980.581514
 30
       19.950800
  0
POINT
  8
Default
 62
255
 10
     1098.506537
 20
      980.565254
 30
       19.962070
  0
POINT
  8
Default
 62
255
 10
     1098.454747
 20
      980.582037
 30
       19.942488
  0
POINT
  8
Default
 62
255
 10
     1098.416936
 20
      980.611557
 30
       19.922501
  0
POINT
  8
Default
 62
255
 10
     1098.405667
 20
      980.574300
 30
       19.932356
  0
POINT
  8
Default
 62
255
 10
     1098.441828
 20
      980.545179
 30
       19.947594
  0
POINT
  8
Default
 62
255
 10
     1098.479865
 20
      980.516337
 30
       19.958860
  0
POINT
  8
Default
 62
255
 10
     1098.377031
 20
      980.513710
 30
       19.957176
  0
POINT
  8
Default
 62
255
 10
     1098.328069
 20
      980.482657
 30
       19.983441
  0
POINT
  8
Default
 62
255
 10
     1098.369247
 20
      980.544182
 30
       19.912894
  0
POINT
  8
Default
 62
255
 10
     1098.380959
 20
      980.576050
 30
       19.887127
  0
POINT
  8
Default
 62
255
 10
     1098.350900
 20
      980.529838
 30
       19.850522
  0
POINT
  8
Default
 62
255
 10
     1098.316398
 20
      980.522970
 30
       19.849846
  0
POINT
  8
Default
 62
255
 10
     1098.364658
 20
      980.621067
 30
       19.870079
  0
POINT
  8
Default
 62
255
 10
     1098.385076
 20
      980.737652
 30
       19.931009
  0
POINT
  8
Default
 62
255
 10
     1098.340023
 20
      980.764981
 30
       19.962906
  0
POINT
  8
Default
 62
255
 10
     1098.300027
 20
      980.729730
 30
       19.980835
  0
POINT
  8
Default
 62
255
 10
     1098.355398
 20
      980.664323
 30
       19.910000
  0
POINT
  8
Default
 62
255
 10
     1098.312168
 20
      980.677430
 30
       19.944843
  0
POINT
  8
Default
 62
255
 10
     1098.237541
 20
      980.708288
 30
       19.971725
  0
POINT
  8
Default
 62
255
 10
     1098.336448
 20
      980.800372
 30
       19.936278
  0
POINT
  8
Default
 62
255
 10
     1098.285776
 20
      980.791529
 30
       19.946527
  0
POINT
  8
Default
 62
255
 10
     1098.304791
 20
      980.840831
 30
       19.918674
  0
POINT
  8
Default
 62
255
 10
     1098.256732
 20
      980.851649
 30
       19.917974
  0
POINT
  8
Default
 62
255
 10
     1098.174850
 20
      980.791298
 30
       19.938822
  0
POINT
  8
Default
 62
255
 10
     1098.110620
 20
      981.004516
 30
       19.910187
  0
POINT
  8
Default
 62
255
 10
     1098.172838
 20
      980.968363
 30
       19.915258
  0
POINT
  8
Default
 62
255
 10
     1098.214239
 20
      980.903120
 30
       19.964652
  0
POINT
  8
Default
 62
255
 10
     1098.107347
 20
      980.954845
 30
       19.946124
  0
POINT
  8
Default
 62
255
 10
     1098.132970
 20
      980.897886
 30
       19.943534
  0
POINT
  8
Default
 62
255
 10
     1098.172709
 20
      980.875333
 30
       19.972240
  0
POINT
  8
Default
 62
255
 10
     1098.026936
 20
      980.920321
 30
       19.914430
  0
POINT
  8
Default
 62
255
 10
     1098.000540
 20
      980.936201
 30
       19.918421
  0
POINT
  8
Default
 62
255
 10
     1098.043110
 20
      980.976721
 30
       19.907899
  0
POINT
  8
Default
 62
255
 10
     1098.062946
 20
      981.004837
 30
       19.889807
  0
POINT
  8
Default
 62
255
 10
     1098.092394
 20
      981.068045
 30
       19.888996
  0
POINT
  8
Default
 62
255
 10
     1098.018654
 20
      981.098219
 30
       19.922617
  0
POINT
  8
Default
 62
255
 10
     1097.958063
 20
      981.163974
 30
       19.841984
  0
POINT
  8
Default
 62
255
 10
     1097.998596
 20
      981.131369
 30
       19.891791
  0
POINT
  8
Default
 62
255
 10
     1097.945013
 20
      981.117479
 30
       19.903028
  0
POINT
  8
Default
 62
255
 10
     1097.904928
 20
      981.099010
 30
       19.896587
  0
POINT
  8
Default
 62
255
 10
     1097.959496
 20
      981.082653
 30
       19.914939
  0
POINT
  8
Default
 62
255
 10
     1097.860123
 20
      981.115191
 30
       19.887896
  0
POINT
  8
Default
 62
255
 10
     1097.908017
 20
      981.153846
 30
       19.863354
  0
POINT
  8
Default
 62
255
 10
     1097.878144
 20
      981.189925
 30
       19.887339
  0
POINT
  8
Default
 62
255
 10
     1097.879142
 20
      981.167296
 30
       19.885804
  0
POINT
  8
Default
 62
255
 10
     1097.816988
 20
      981.242176
 30
       19.882117
  0
POINT
  8
Default
 62
255
 10
     1097.852972
 20
      981.168573
 30
       19.896303
  0
POINT
  8
Default
 62
255
 10
     1097.834657
 20
      981.188370
 30
       19.903960
  0
POINT
  8
Default
 62
255
 10
     1097.818501
 20
      981.215221
 30
       19.904100
  0
POINT
  8
Default
 62
255
 10
     1097.796904
 20
      981.242186
 30
       19.901439
  0
POINT
  8
Default
 62
255
 10
     1097.786011
 20
      981.211045
 30
       19.918172
  0
POINT
  8
Default
 62
255
 10
     1097.782535
 20
      981.259215
 30
       19.876526
  0
POINT
  8
Default
 62
255
 10
     1098.593810
 20
      980.601557
 30
       19.694747
  0
POINT
  8
Default
 62
255
 10
     1098.525083
 20
      980.653098
 30
       19.679385
  0
POINT
  8
Default
 62
255
 10
     1098.505310
 20
      980.725175
 30
       19.675061
  0
POINT
  8
Default
 62
255
 10
     1098.436232
 20
      980.804566
 30
       19.655433
  0
POINT
  8
Default
 62
255
 10
     1098.359343
 20
      980.893637
 30
       19.656408
  0
POINT
  8
Default
 62
255
 10
     1098.263936
 20
      980.931890
 30
       19.652862
  0
POINT
  8
Default
 62
255
 10
     1098.227234
 20
      981.004514
 30
       19.631956
  0
POINT
  8
Default
 62
255
 10
     1098.092933
 20
      981.066600
 30
       19.624593
  0
POINT
  8
Default
 62
255
 10
     1098.134059
 20
      981.058152
 30
       19.611406
  0
POINT
  8
Default
 62
255
 10
     1098.109170
 20
      981.106946
 30
       19.585615
  0
POINT
  8
Default
 62
255
 10
     1098.058017
 20
      981.098772
 30
       19.616823
  0
POINT
  8
Default
 62
255
 10
     1098.025093
 20
      981.144522
 30
       19.597384
  0
POINT
  8
Default
 62
255
 10
     1098.068071
 20
      981.223673
 30
       19.579614
  0
POINT
  8
Default
 62
255
 10
     1098.118652
 20
      981.282407
 30
       19.575518
  0
POINT
  8
Default
 62
255
 10
     1098.129105
 20
      981.342667
 30
       19.560118
  0
POINT
  8
Default
 62
255
 10
     1098.140300
 20
      981.406953
 30
       19.553742
  0
POINT
  8
Default
 62
255
 10
     1098.346572
 20
      981.480897
 30
       19.507175
  0
POINT
  8
Default
 62
255
 10
     1098.368859
 20
      981.559431
 30
       19.485580
  0
POINT
  8
Default
 62
255
 10
     1098.423848
 20
      981.632111
 30
       19.481437
  0
POINT
  8
Default
 62
255
 10
     1098.491292
 20
      981.602466
 30
       19.481768
  0
POINT
  8
Default
 62
255
 10
     1098.472719
 20
      981.740162
 30
       19.490185
  0
POINT
  8
Default
 62
255
 10
     1098.513904
 20
      981.710127
 30
       19.481670
  0
POINT
  8
Default
 62
255
 10
     1098.494089
 20
      981.778909
 30
       19.501000
  0
POINT
  8
Default
 62
255
 10
     1098.612996
 20
      981.801467
 30
       19.505063
  0
POINT
  8
Default
 62
255
 10
     1098.544429
 20
      981.799174
 30
       19.509912
  0
POINT
  8
Default
 62
255
 10
     1098.683816
 20
      981.853596
 30
       19.537568
  0
POINT
  8
Default
 62
255
 10
     1098.937393
 20
      982.173603
 30
       19.558449
  0
POINT
  8
Default
 62
255
 10
     1098.845263
 20
      982.118558
 30
       19.559689
  0
POINT
  8
Default
 62
255
 10
     1098.882949
 20
      982.169224
 30
       19.578317
  0
POINT
  8
Default
 62
255
 10
     1098.787750
 20
      982.054992
 30
       19.545752
  0
POINT
  8
Default
 62
255
 10
     1098.831096
 20
      982.076244
 30
       19.539976
  0
POINT
  8
Default
 62
255
 10
     1098.884699
 20
      982.124719
 30
       19.547710
  0
POINT
  8
Default
 62
255
 10
     1098.980654
 20
      982.324567
 30
       19.598950
  0
POINT
  8
Default
 62
255
 10
     1099.049327
 20
      982.319662
 30
       19.594427
  0
POINT
  8
Default
 62
255
 10
     1099.069871
 20
      982.355734
 30
       19.613565
  0
POINT
  8
Default
 62
255
 10
     1099.002665
 20
      982.243230
 30
       19.582208
  0
POINT
  8
Default
 62
255
 10
     1099.119152
 20
      982.321840
 30
       19.599341
  0
POINT
  8
Default
 62
255
 10
     1099.130013
 20
      982.430973
 30
       19.613424
  0
POINT
  8
Default
 62
255
 10
     1099.127574
 20
      982.393741
 30
       19.608853
  0
POINT
  8
Default
 62
255
 10
     1099.175585
 20
      982.416400
 30
       19.607796
  0
POINT
  8
Default
 62
255
 10
     1099.160657
 20
      982.512544
 30
       19.630731
  0
POINT
  8
Default
 62
255
 10
     1099.176196
 20
      982.536447
 30
       19.604143
  0
POINT
  8
Default
 62
255
 10
     1099.191068
 20
      982.491786
 30
       19.611669
  0
POINT
  8
Default
 62
255
 10
     1099.237465
 20
      982.592248
 30
       19.616368
  0
POINT
  8
Default
 62
255
 10
     1099.215591
 20
      982.561136
 30
       19.592798
  0
POINT
  8
Default
 62
255
 10
     1099.261194
 20
      982.565190
 30
       19.613100
  0
POINT
  8
Default
 62
255
 10
     1099.343216
 20
      982.657004
 30
       19.637987
  0
POINT
  8
Default
 62
255
 10
     1099.296475
 20
      982.624618
 30
       19.632516
  0
POINT
  8
Default
 62
255
 10
     1099.361955
 20
      982.619749
 30
       19.624103
  0
POINT
  8
Default
 62
255
 10
     1099.379525
 20
      982.707652
 30
       19.635255
  0
POINT
  8
Default
 62
255
 10
     1099.390063
 20
      982.670082
 30
       19.627660
  0
POINT
  8
Default
 62
255
 10
     1098.285193
 20
      981.166791
 30
       19.565320
  0
POINT
  8
Default
 62
255
 10
     1098.255463
 20
      981.213697
 30
       19.564174
  0
POINT
  8
Default
 62
255
 10
     1098.411186
 20
      981.088783
 30
       19.571771
  0
POINT
  8
Default
 62
255
 10
     1098.585211
 20
      981.028751
 30
       19.610251
  0
POINT
  8
Default
 62
255
 10
     1098.529084
 20
      981.051232
 30
       19.593791
  0
POINT
  8
Default
 62
255
 10
     1098.682974
 20
      980.920752
 30
       19.634057
  0
POINT
  8
Default
 62
255
 10
     1098.520223
 20
      980.882199
 30
       19.609211
  0
POINT
  8
Default
 62
255
 10
     1098.655062
 20
      981.185740
 30
       19.582150
  0
POINT
  8
Default
 62
255
 10
     1098.713616
 20
      981.263738
 30
       19.554510
  0
POINT
  8
Default
 62
255
 10
     1098.751571
 20
      981.324386
 30
       19.549176
  0
POINT
  8
Default
 62
255
 10
     1098.813461
 20
      981.102096
 30
       19.608147
  0
POINT
  8
Default
 62
255
 10
     1098.820576
 20
      981.174407
 30
       19.568809
  0
POINT
  8
Default
 62
255
 10
     1098.785535
 20
      981.241792
 30
       19.558349
  0
POINT
  8
Default
 62
255
 10
     1098.920095
 20
      981.334727
 30
       19.546106
  0
POINT
  8
Default
 62
255
 10
     1098.898745
 20
      981.416157
 30
       19.538284
  0
POINT
  8
Default
 62
255
 10
     1098.819093
 20
      981.438055
 30
       19.540413
  0
POINT
  8
Default
 62
255
 10
     1098.833744
 20
      981.342379
 30
       19.541434
  0
POINT
  8
Default
 62
255
 10
     1099.059350
 20
      981.385113
 30
       19.548112
  0
POINT
  8
Default
 62
255
 10
     1099.013295
 20
      981.445305
 30
       19.532576
  0
POINT
  8
Default
 62
255
 10
     1099.074699
 20
      981.502022
 30
       19.563356
  0
POINT
  8
Default
 62
255
 10
     1099.004144
 20
      981.597795
 30
       19.502608
  0
POINT
  8
Default
 62
255
 10
     1099.068693
 20
      981.630395
 30
       19.520698
  0
POINT
  8
Default
 62
255
 10
     1099.027684
 20
      981.555359
 30
       19.534266
  0
POINT
  8
Default
 62
255
 10
     1099.113849
 20
      981.695671
 30
       19.539196
  0
POINT
  8
Default
 62
255
 10
     1099.168025
 20
      981.642293
 30
       19.553794
  0
POINT
  8
Default
 62
255
 10
     1099.128411
 20
      981.645229
 30
       19.535161
  0
POINT
  8
Default
 62
255
 10
     1099.151424
 20
      981.715950
 30
       19.567340
  0
POINT
  8
Default
 62
255
 10
     1099.222096
 20
      981.689437
 30
       19.577206
  0
POINT
  8
Default
 62
255
 10
     1099.344297
 20
      981.875696
 30
       19.582366
  0
POINT
  8
Default
 62
255
 10
     1099.378961
 20
      981.820707
 30
       19.583712
  0
POINT
  8
Default
 62
255
 10
     1099.313454
 20
      981.705809
 30
       19.572296
  0
POINT
  8
Default
 62
255
 10
     1099.467828
 20
      981.990581
 30
       19.579845
  0
POINT
  8
Default
 62
255
 10
     1099.558625
 20
      982.008497
 30
       19.592483
  0
POINT
  8
Default
 62
255
 10
     1099.558104
 20
      982.067245
 30
       19.595056
  0
POINT
  8
Default
 62
255
 10
     1099.653791
 20
      981.891045
 30
       19.587568
  0
POINT
  8
Default
 62
255
 10
     1099.800279
 20
      982.003047
 30
       19.582372
  0
POINT
  8
Default
 62
255
 10
     1099.670384
 20
      982.136515
 30
       19.591627
  0
POINT
  8
Default
 62
255
 10
     1099.756426
 20
      982.135452
 30
       19.600189
  0
POINT
  8
Default
 62
255
 10
     1099.792994
 20
      982.077583
 30
       19.599099
  0
POINT
  8
Default
 62
255
 10
     1099.710467
 20
      982.075898
 30
       19.589837
  0
POINT
  8
Default
 62
255
 10
     1098.693369
 20
      980.765138
 30
       19.650634
  0
POINT
  8
Default
 62
255
 10
     1098.798648
 20
      980.919751
 30
       19.638593
  0
POINT
  8
Default
 62
255
 10
     1098.826358
 20
      980.993807
 30
       19.647778
  0
POINT
  8
Default
 62
255
 10
     1098.774130
 20
      981.120741
 30
       19.591953
  0
POINT
  8
Default
 62
255
 10
     1098.861973
 20
      981.133883
 30
       19.589009
  0
POINT
  8
Default
 62
255
 10
     1098.273126
 20
      981.000756
 30
       19.615027
  0
POINT
  8
Default
 62
255
 10
     1098.162161
 20
      981.085533
 30
       19.585341
  0
POINT
  8
Default
 62
255
 10
     1098.212347
 20
      981.144728
 30
       19.573740
  0
POINT
  8
Default
 62
255
 10
     1098.362996
 20
      981.184380
 30
       19.543126
  0
POINT
  8
Default
 62
255
 10
     1098.459271
 20
      981.370209
 30
       19.523921
  0
POINT
  8
Default
 62
255
 10
     1098.526285
 20
      981.291681
 30
       19.568172
  0
POINT
  8
Default
 62
255
 10
     1098.628836
 20
      981.370602
 30
       19.546175
  0
POINT
  8
Default
 62
255
 10
     1098.584366
 20
      981.399294
 30
       19.534927
  0
POINT
  8
Default
 62
255
 10
     1098.679184
 20
      981.507809
 30
       19.515832
  0
POINT
  8
Default
 62
255
 10
     1098.618487
 20
      981.555506
 30
       19.509415
  0
POINT
  8
Default
 62
255
 10
     1098.660431
 20
      981.444228
 30
       19.526482
  0
POINT
  8
Default
 62
255
 10
     1098.791156
 20
      981.577992
 30
       19.526185
  0
POINT
  8
Default
 62
255
 10
     1098.734248
 20
      981.692257
 30
       19.514325
  0
POINT
  8
Default
 62
255
 10
     1098.856169
 20
      981.653082
 30
       19.518587
  0
POINT
  8
Default
 62
255
 10
     1098.818893
 20
      981.721414
 30
       19.543315
  0
POINT
  8
Default
 62
255
 10
     1098.805118
 20
      981.785255
 30
       19.530606
  0
POINT
  8
Default
 62
255
 10
     1098.883519
 20
      981.881089
 30
       19.543939
  0
POINT
  8
Default
 62
255
 10
     1098.902619
 20
      981.836979
 30
       19.555108
  0
POINT
  8
Default
 62
255
 10
     1098.986272
 20
      981.733490
 30
       19.562405
  0
POINT
  8
Default
 62
255
 10
     1098.960408
 20
      981.962422
 30
       19.560890
  0
POINT
  8
Default
 62
255
 10
     1098.972687
 20
      981.912300
 30
       19.565762
  0
POINT
  8
Default
 62
255
 10
     1099.019322
 20
      981.829569
 30
       19.564941
  0
POINT
  8
Default
 62
255
 10
     1099.096290
 20
      981.785201
 30
       19.571256
  0
POINT
  8
Default
 62
255
 10
     1099.107921
 20
      981.839206
 30
       19.581657
  0
POINT
  8
Default
 62
255
 10
     1099.166526
 20
      981.905359
 30
       19.585637
  0
POINT
  8
Default
 62
255
 10
     1099.112129
 20
      981.971686
 30
       19.571345
  0
POINT
  8
Default
 62
255
 10
     1099.043581
 20
      981.990074
 30
       19.564628
  0
POINT
  8
Default
 62
255
 10
     1099.038044
 20
      982.088598
 30
       19.559470
  0
POINT
  8
Default
 62
255
 10
     1099.106356
 20
      982.037980
 30
       19.541850
  0
POINT
  8
Default
 62
255
 10
     1099.201855
 20
      981.987833
 30
       19.557900
  0
POINT
  8
Default
 62
255
 10
     1099.353123
 20
      982.064847
 30
       19.582486
  0
POINT
  8
Default
 62
255
 10
     1099.261190
 20
      982.117560
 30
       19.592623
  0
POINT
  8
Default
 62
255
 10
     1099.194080
 20
      982.131533
 30
       19.575619
  0
POINT
  8
Default
 62
255
 10
     1099.238580
 20
      982.186974
 30
       19.572470
  0
POINT
  8
Default
 62
255
 10
     1099.199805
 20
      982.240560
 30
       19.563067
  0
POINT
  8
Default
 62
255
 10
     1099.154266
 20
      982.191747
 30
       19.543718
  0
POINT
  8
Default
 62
255
 10
     1099.489987
 20
      982.178787
 30
       19.610471
  0
POINT
  8
Default
 62
255
 10
     1099.434360
 20
      982.195763
 30
       19.590906
  0
POINT
  8
Default
 62
255
 10
     1099.392285
 20
      982.220616
 30
       19.586104
  0
POINT
  8
Default
 62
255
 10
     1099.357505
 20
      982.149776
 30
       19.591898
  0
POINT
  8
Default
 62
255
 10
     1099.458458
 20
      982.375599
 30
       19.597327
  0
POINT
  8
Default
 62
255
 10
     1099.577787
 20
      982.295072
 30
       19.597604
  0
POINT
  8
Default
 62
255
 10
     1099.330302
 20
      982.389767
 30
       19.606462
  0
POINT
  8
Default
 62
255
 10
     1099.616731
 20
      982.480467
 30
       19.626422
  0
POINT
  8
Default
 62
255
 10
     1099.576757
 20
      982.522477
 30
       19.622159
  0
POINT
  8
Default
 62
255
 10
     1099.684394
 20
      982.504893
 30
       19.638786
  0
POINT
  8
Default
 62
255
 10
     1099.412747
 20
      982.638082
 30
       19.624057
  0
POINT
  8
Default
 62
255
 10
     1098.795878
 20
      981.966290
 30
       19.518417
  0
POINT
  8
Default
 62
255
 10
     1098.822869
 20
      982.016199
 30
       19.517451
  0
POINT
  8
Default
 62
255
 10
     1099.996826
 20
      981.995479
 30
       19.713920
  0
POINT
  8
Default
 62
255
 10
     1099.978704
 20
      981.969806
 30
       19.711854
  0
POINT
  8
Default
 62
255
 10
     1100.015189
 20
      981.933540
 30
       19.713948
  0
POINT
  8
Default
 62
255
 10
     1100.038074
 20
      981.899584
 30
       19.724425
  0
POINT
  8
Default
 62
255
 10
     1100.092568
 20
      981.863225
 30
       19.714674
  0
POINT
  8
Default
 62
255
 10
     1100.020188
 20
      982.031057
 30
       19.718370
  0
POINT
  8
Default
 62
255
 10
     1100.042853
 20
      981.976993
 30
       19.720229
  0
POINT
  8
Default
 62
255
 10
     1100.057217
 20
      981.942347
 30
       19.719560
  0
POINT
  8
Default
 62
255
 10
     1100.110630
 20
      981.964500
 30
       19.720798
  0
POINT
  8
Default
 62
255
 10
     1100.129693
 20
      981.910485
 30
       19.719436
  0
POINT
  8
Default
 62
255
 10
     1100.093024
 20
      982.081573
 30
       19.703452
  0
POINT
  8
Default
 62
255
 10
     1100.052537
 20
      982.061945
 30
       19.711078
  0
POINT
  8
Default
 62
255
 10
     1100.126225
 20
      982.059217
 30
       19.709707
  0
POINT
  8
Default
 62
255
 10
     1100.158722
 20
      982.037668
 30
       19.713522
  0
POINT
  8
Default
 62
255
 10
     1100.063980
 20
      982.023455
 30
       19.715177
  0
POINT
  8
Default
 62
255
 10
     1100.083588
 20
      981.924275
 30
       19.726547
  0
POINT
  8
Default
 62
255
 10
     1100.166906
 20
      981.987501
 30
       19.716536
  0
LINE
  8
Default
 62
255
 10
     1100.092568
 20
      981.863225
 30
       19.714674
 11
     1100.038074
 21
      981.899584
 31
       19.724425
  0
LINE
  8
Default
 62
255
 10
     1100.038074
 20
      981.899584
 30
       19.724425
 11
     1100.015189
 21
      981.933540
 31
       19.713948
  0
LINE
  8
Default
 62
255
 10
     1100.015189
 20
      981.933540
 30
       19.713948
 11
     1099.978704
 21
      981.969806
 31
       19.711854
  0
LINE
  8
Default
 62
255
 10
     1099.978704
 20
      981.969806
 30
       19.711854
 11
     1099.996826
 21
      981.995479
 31
       19.713920
  0
LINE
  8
Default
 62
255
 10
     1099.996826
 20
      981.995479
 30
       19.713920
 11
     1100.020188
 21
      982.031057
 31
       19.718370
  0
LINE
  8
Default
 62
255
 10
     1100.020188
 20
      982.031057
 30
       19.718370
 11
     1100.052537
 21
      982.061945
 31
       19.711078
  0
LINE
  8
Default
 62
255
 10
     1100.052537
 20
      982.061945
 30
       19.711078
 11
     1100.093024
 21
      982.081573
 31
       19.703452
  0
LINE
  8
Default
 62
255
 10
     1100.093024
 20
      982.081573
 30
       19.703452
 11
     1100.126225
 21
      982.059217
 31
       19.709707
  0
LINE
  8
Default
 62
255
 10
     1100.126225
 20
      982.059217
 30
       19.709707
 11
     1100.158722
 21
      982.037668
 31
       19.713522
  0
LINE
  8
Default
 62
255
 10
     1099.999518
 20
      982.119420
 30
       19.597299
 11
     1099.998019
 21
      982.040723
 31
       19.601959
  0
LINE
  8
Default
 62
255
 10
     1099.998019
 20
      982.040723
 30
       19.601959
 11
     1099.959417
 21
      981.991202
 31
       19.598674
  0
LINE
  8
Default
 62
255
 10
     1099.959417
 20
      981.991202
 30
       19.598674
 11
     1099.896691
 21
      981.916818
 31
       19.588335
  0
LINE
  8
Default
 62
255
 10
     1099.896691
 20
      981.916818
 30
       19.588335
 11
     1099.755015
 21
      981.765018
 31
       19.581173
  0
LINE
  8
Default
 62
255
 10
     1099.755015
 20
      981.765018
 30
       19.581173
 11
     1099.691501
 21
      981.686942
 31
       19.585185
  0
LINE
  8
Default
 62
255
 10
     1099.691501
 20
      981.686942
 30
       19.585185
 11
     1099.637563
 21
      981.598133
 31
       19.572184
  0
LINE
  8
Default
 62
255
 10
     1099.637563
 20
      981.598133
 30
       19.572184
 11
     1099.546689
 21
      981.511593
 31
       19.569154
  0
LINE
  8
Default
 62
255
 10
     1099.546689
 20
      981.511593
 30
       19.569154
 11
     1099.502660
 21
      981.462284
 31
       19.564028
  0
LINE
  8
Default
 62
255
 10
     1099.502660
 20
      981.462284
 30
       19.564028
 11
     1099.453209
 21
      981.407301
 31
       19.564218
  0
LINE
  8
Default
 62
255
 10
     1099.453209
 20
      981.407301
 30
       19.564218
 11
     1099.373845
 21
      981.340834
 31
       19.568587
  0
LINE
  8
Default
 62
255
 10
     1099.373845
 20
      981.340834
 30
       19.568587
 11
     1099.285132
 21
      981.259304
 31
       19.573237
  0
LINE
  8
Default
 62
255
 10
     1099.285132
 20
      981.259304
 30
       19.573237
 11
     1099.191460
 21
      981.177470
 31
       19.549297
  0
LINE
  8
Default
 62
255
 10
     1099.191460
 20
      981.177470
 30
       19.549297
 11
     1099.127696
 21
      981.163674
 31
       19.543935
  0
LINE
  8
Default
 62
255
 10
     1099.127696
 20
      981.163674
 30
       19.543935
 11
     1099.082372
 21
      981.131453
 31
       19.553717
  0
LINE
  8
Default
 62
255
 10
     1099.082372
 20
      981.131453
 30
       19.553717
 11
     1099.080369
 21
      981.106729
 31
       19.583835
  0
LINE
  8
Default
 62
255
 10
     1099.080369
 20
      981.106729
 30
       19.583835
 11
     1099.065152
 21
      981.063071
 31
       19.618855
  0
LINE
  8
Default
 62
255
 10
     1099.065152
 20
      981.063071
 30
       19.618855
 11
     1098.926084
 21
      980.866816
 31
       19.657799
  0
LINE
  8
Default
 62
255
 10
     1098.926084
 20
      980.866816
 30
       19.657799
 11
     1098.832552
 21
      980.815143
 31
       19.664761
  0
LINE
  8
Default
 62
255
 10
     1098.832552
 20
      980.815143
 30
       19.664761
 11
     1098.806748
 21
      980.777399
 31
       19.672227
  0
LINE
  8
Default
 62
255
 10
     1098.806748
 20
      980.777399
 30
       19.672227
 11
     1098.837368
 21
      980.743171
 31
       19.673747
  0
LINE
  8
Default
 62
255
 10
     1098.837368
 20
      980.743171
 30
       19.673747
 11
     1098.844375
 21
      980.700726
 31
       19.682450
  0
LINE
  8
Default
 62
255
 10
     1098.844375
 20
      980.700726
 30
       19.682450
 11
     1098.793416
 21
      980.635317
 31
       19.702396
  0
LINE
  8
Default
 62
255
 10
     1098.793416
 20
      980.635317
 30
       19.702396
 11
     1098.766343
 21
      980.590771
 31
       19.726029
  0
LINE
  8
Default
 62
255
 10
     1098.766343
 20
      980.590771
 30
       19.726029
 11
     1098.740291
 21
      980.556418
 31
       19.731921
  0
LINE
  8
Default
 62
255
 10
     1098.740291
 20
      980.556418
 30
       19.731921
 11
     1098.712759
 21
      980.549909
 31
       19.773785
  0
LINE
  8
Default
 62
255
 10
     1098.712759
 20
      980.549909
 30
       19.773785
 11
     1098.645219
 21
      980.567913
 31
       19.841758
  0
LINE
  8
Default
 62
255
 10
     1098.645219
 20
      980.567913
 30
       19.841758
 11
     1098.631591
 21
      980.590599
 31
       19.797504
  0
LINE
  8
Default
 62
255
 10
     1098.631591
 20
      980.590599
 30
       19.797504
 11
     1098.615917
 21
      980.588009
 31
       19.771787
  0
LINE
  8
Default
 62
255
 10
     1098.615917
 20
      980.588009
 30
       19.771787
 11
     1098.605393
 21
      980.587550
 31
       19.719169
  0
LINE
  8
Default
 62
255
 10
     1098.605393
 20
      980.587550
 30
       19.719169
 11
     1098.623871
 21
      980.635439
 31
       19.711011
  0
LINE
  8
Default
 62
255
 10
     1098.623871
 20
      980.635439
 30
       19.711011
 11
     1098.659562
 21
      980.707017
 31
       19.690748
  0
LINE
  8
Default
 62
255
 10
     1098.659562
 20
      980.707017
 30
       19.690748
 11
     1098.717511
 21
      980.771156
 31
       19.687388
  0
LINE
  8
Default
 62
255
 10
     1098.605393
 20
      980.587550
 30
       19.719169
 11
     1098.657344
 21
      980.614779
 31
       19.721992
  0
LINE
  8
Default
 62
255
 10
     1098.657344
 20
      980.614779
 30
       19.721992
 11
     1098.729403
 21
      980.608231
 31
       19.729780
  0
LINE
  8
Default
 62
255
 10
     1098.729403
 20
      980.608231
 30
       19.729780
 11
     1098.740291
 21
      980.556418
 31
       19.731921
  0
LINE
  8
Default
 62
255
 10
     1098.557693
 20
      980.581514
 30
       19.950800
 11
     1098.530709
 21
      980.614289
 31
       19.956422
  0
LINE
  8
Default
 62
255
 10
     1098.530709
 20
      980.614289
 30
       19.956422
 11
     1098.494788
 21
      980.622604
 31
       19.954045
  0
LINE
  8
Default
 62
255
 10
     1098.494788
 20
      980.622604
 30
       19.954045
 11
     1098.452873
 21
      980.640167
 31
       19.935361
  0
LINE
  8
Default
 62
255
 10
     1098.452873
 20
      980.640167
 30
       19.935361
 11
     1098.422148
 21
      980.660395
 31
       19.883431
  0
LINE
  8
Default
 62
255
 10
     1098.385076
 20
      980.737652
 30
       19.931009
 11
     1098.336448
 21
      980.800372
 31
       19.936278
  0
LINE
  8
Default
 62
255
 10
     1098.336448
 20
      980.800372
 30
       19.936278
 11
     1098.304791
 21
      980.840831
 31
       19.918674
  0
LINE
  8
Default
 62
255
 10
     1098.304791
 20
      980.840831
 30
       19.918674
 11
     1098.256732
 21
      980.851649
 31
       19.917974
  0
LINE
  8
Default
 62
255
 10
     1098.018654
 20
      981.098219
 30
       19.922617
 11
     1097.998596
 21
      981.131369
 31
       19.891791
  0
LINE
  8
Default
 62
255
 10
     1097.908017
 20
      981.153846
 30
       19.863354
 11
     1097.878144
 21
      981.189925
 31
       19.887339
  0
LINE
  8
Default
 62
255
 10
     1097.816988
 20
      981.242176
 30
       19.882117
 11
     1097.782535
 21
      981.259215
 31
       19.876526
  0
LINE
  8
Default
 62
255
 10
     1097.939529
 20
      981.199094
 30
       19.681432
 11
     1097.847514
 21
      981.268906
 31
       19.677798
  0
LINE
  8
Default
 62
255
 10
     1097.847514
 20
      981.268906
 30
       19.677798
 11
     1097.930665
 21
      981.386088
 31
       19.691816
  0
LINE
  8
Default
 62
255
 10
     1097.930665
 20
      981.386088
 30
       19.691816
 11
     1097.994207
 21
      981.420115
 31
       19.661185
  0
LINE
  8
Default
 62
255
 10
     1097.994207
 20
      981.420115
 30
       19.661185
 11
     1098.058212
 21
      981.496068
 31
       19.540708
  0
LINE
  8
Default
 62
255
 10
     1098.058212
 20
      981.496068
 30
       19.540708
 11
     1098.104348
 21
      981.550306
 31
       19.491019
  0
LINE
  8
Default
 62
255
 10
     1098.104348
 20
      981.550306
 30
       19.491019
 11
     1098.107278
 21
      981.597233
 31
       19.490027
  0
LINE
  8
Default
 62
255
 10
     1098.107278
 20
      981.597233
 30
       19.490027
 11
     1098.143184
 21
      981.639722
 31
       19.496614
  0
LINE
  8
Default
 62
255
 10
     1098.143184
 20
      981.639722
 30
       19.496614
 11
     1098.264258
 21
      981.701354
 31
       19.520981
  0
LINE
  8
Default
 62
255
 10
     1098.264258
 20
      981.701354
 30
       19.520981
 11
     1098.278436
 21
      981.740702
 31
       19.534207
  0
LINE
  8
Default
 62
255
 10
     1098.278436
 20
      981.740702
 30
       19.534207
 11
     1098.324757
 21
      981.797062
 31
       19.540770
  0
LINE
  8
Default
 62
255
 10
     1098.324757
 20
      981.797062
 30
       19.540770
 11
     1098.355071
 21
      981.839563
 31
       19.546529
  0
LINE
  8
Default
 62
255
 10
     1098.355071
 20
      981.839563
 30
       19.546529
 11
     1098.400475
 21
      981.873566
 31
       19.557280
  0
LINE
  8
Default
 62
255
 10
     1098.400475
 20
      981.873566
 30
       19.557280
 11
     1098.455199
 21
      981.903590
 31
       19.557469
  0
LINE
  8
Default
 62
255
 10
     1098.455199
 20
      981.903590
 30
       19.557469
 11
     1098.487302
 21
      981.898187
 31
       19.618604
  0
LINE
  8
Default
 62
255
 10
     1098.487302
 20
      981.898187
 30
       19.618604
 11
     1098.527060
 21
      981.985060
 31
       19.641808
  0
LINE
  8
Default
 62
255
 10
     1098.527060
 20
      981.985060
 30
       19.641808
 11
     1098.576092
 21
      982.041621
 31
       19.654603
  0
LINE
  8
Default
 62
255
 10
     1098.576092
 20
      982.041621
 30
       19.654603
 11
     1098.643543
 21
      982.101305
 31
       19.656266
  0
LINE
  8
Default
 62
255
 10
     1098.643543
 20
      982.101305
 30
       19.656266
 11
     1098.701803
 21
      982.140905
 31
       19.666009
  0
LINE
  8
Default
 62
255
 10
     1098.701803
 20
      982.140905
 30
       19.666009
 11
     1098.714225
 21
      982.206295
 31
       19.621105
  0
LINE
  8
Default
 62
255
 10
     1098.714225
 20
      982.206295
 30
       19.621105
 11
     1098.727441
 21
      982.246895
 31
       19.622968
  0
LINE
  8
Default
 62
255
 10
     1098.727441
 20
      982.246895
 30
       19.622968
 11
     1098.786255
 21
      982.307387
 31
       19.633178
  0
LINE
  8
Default
 62
255
 10
     1098.786255
 20
      982.307387
 30
       19.633178
 11
     1098.813733
 21
      982.333146
 31
       19.626158
  0
LINE
  8
Default
 62
255
 10
     1098.813733
 20
      982.333146
 30
       19.626158
 11
     1098.840568
 21
      982.346239
 31
       19.620984
  0
LINE
  8
Default
 62
255
 10
     1098.840568
 20
      982.346239
 30
       19.620984
 11
     1098.870204
 21
      982.367152
 31
       19.613641
  0
LINE
  8
Default
 62
255
 10
     1098.870204
 20
      982.367152
 30
       19.613641
 11
     1098.942054
 21
      982.504057
 31
       19.666154
  0
LINE
  8
Default
 62
255
 10
     1098.942054
 20
      982.504057
 30
       19.666154
 11
     1098.974636
 21
      982.551180
 31
       19.647709
  0
LINE
  8
Default
 62
255
 10
     1098.974636
 20
      982.551180
 30
       19.647709
 11
     1099.009916
 21
      982.598739
 31
       19.647984
  0
LINE
  8
Default
 62
255
 10
     1099.009916
 20
      982.598739
 30
       19.647984
 11
     1099.069270
 21
      982.626857
 31
       19.669000
  0
LINE
  8
Default
 62
255
 10
     1099.069270
 20
      982.626857
 30
       19.669000
 11
     1099.125098
 21
      982.698811
 31
       19.636642
  0
LINE
  8
Default
 62
255
 10
     1099.125098
 20
      982.698811
 30
       19.636642
 11
     1099.138747
 21
      982.743167
 31
       19.642833
  0
LINE
  8
Default
 62
255
 10
     1099.138747
 20
      982.743167
 30
       19.642833
 11
     1099.171214
 21
      982.789974
 31
       19.652286
  0
LINE
  8
Default
 62
255
 10
     1099.171214
 20
      982.789974
 30
       19.652286
 11
     1099.222020
 21
      982.823627
 31
       19.649966
  0
LINE
  8
Default
 62
255
 10
     1099.222020
 20
      982.823627
 30
       19.649966
 11
     1099.261221
 21
      982.835703
 31
       19.665854
  0
LINE
  8
Default
 62
255
 10
     1099.261221
 20
      982.835703
 30
       19.665854
 11
     1099.276947
 21
      982.804936
 31
       19.666962
  0
LINE
  8
Default
 62
255
 10
     1099.276947
 20
      982.804936
 30
       19.666962
 11
     1099.307613
 21
      982.785218
 31
       19.666712
  0
LINE
  8
Default
 62
255
 10
     1099.307613
 20
      982.785218
 30
       19.666712
 11
     1099.339905
 21
      982.749784
 31
       19.675317
  0
LINE
  8
Default
 62
255
 10
     1099.339905
 20
      982.749784
 30
       19.675317
 11
     1099.338983
 21
      982.703155
 31
       19.685066
  0
LINE
  8
Default
 62
255
 10
     1099.338983
 20
      982.703155
 30
       19.685066
 11
     1099.278144
 21
      982.644640
 31
       19.683966
  0
LINE
  8
Default
 62
255
 10
     1099.278144
 20
      982.644640
 30
       19.683966
 11
     1099.228111
 21
      982.605700
 31
       19.672927
  0
LINE
  8
Default
 62
255
 10
     1099.228111
 20
      982.605700
 30
       19.672927
 11
     1099.198816
 21
      982.596577
 31
       19.653502
  0
LINE
  8
Default
 62
255
 10
     1099.198816
 20
      982.596577
 30
       19.653502
 11
     1099.139219
 21
      982.565890
 31
       19.674298
  0
LINE
  8
Default
 62
255
 10
     1099.139219
 20
      982.565890
 30
       19.674298
 11
     1099.121987
 21
      982.526836
 31
       19.671824
  0
LINE
  8
Default
 62
255
 10
     1099.121987
 20
      982.526836
 30
       19.671824
 11
     1099.091516
 21
      982.492683
 31
       19.660783
  0
LINE
  8
Default
 62
255
 10
     1099.091516
 20
      982.492683
 30
       19.660783
 11
     1099.049922
 21
      982.459453
 31
       19.660948
  0
LINE
  8
Default
 62
255
 10
     1099.049922
 20
      982.459453
 30
       19.660948
 11
     1098.988382
 21
      982.395518
 31
       19.644189
  0
LINE
  8
Default
 62
255
 10
     1098.988382
 20
      982.395518
 30
       19.644189
 11
     1098.914957
 21
      982.360755
 31
       19.634338
  0
LINE
  8
Default
 62
255
 10
     1098.914957
 20
      982.360755
 30
       19.634338
 11
     1098.859421
 21
      982.312430
 31
       19.622557
  0
LINE
  8
Default
 62
255
 10
     1098.859421
 20
      982.312430
 30
       19.622557
 11
     1098.878248
 21
      982.246310
 31
       19.610194
  0
LINE
  8
Default
 62
255
 10
     1098.878248
 20
      982.246310
 30
       19.610194
 11
     1098.870408
 21
      982.212113
 31
       19.596866
  0
LINE
  8
Default
 62
255
 10
     1098.870408
 20
      982.212113
 30
       19.596866
 11
     1098.843473
 21
      982.176444
 31
       19.593662
  0
LINE
  8
Default
 62
255
 10
     1098.843473
 20
      982.176444
 30
       19.593662
 11
     1098.806215
 21
      982.134636
 31
       19.599705
  0
LINE
  8
Default
 62
255
 10
     1098.806215
 20
      982.134636
 30
       19.599705
 11
     1098.770333
 21
      982.101446
 31
       19.601379
  0
LINE
  8
Default
 62
255
 10
     1098.770333
 20
      982.101446
 30
       19.601379
 11
     1098.727113
 21
      982.063509
 31
       19.659307
  0
LINE
  8
Default
 62
255
 10
     1098.727113
 20
      982.063509
 30
       19.659307
 11
     1098.724241
 21
      982.005955
 31
       19.658692
  0
LINE
  8
Default
 62
255
 10
     1098.724241
 20
      982.005955
 30
       19.658692
 11
     1098.719507
 21
      981.951095
 31
       19.650970
  0
LINE
  8
Default
 62
255
 10
     1098.719507
 20
      981.951095
 30
       19.650970
 11
     1098.684142
 21
      981.924578
 31
       19.639028
  0
LINE
  8
Default
 62
255
 10
     1098.684142
 20
      981.924578
 30
       19.639028
 11
     1098.647241
 21
      981.900646
 31
       19.624700
  0
LINE
  8
Default
 62
255
 10
     1098.647241
 20
      981.900646
 30
       19.624700
 11
     1098.599993
 21
      981.872441
 31
       19.622438
  0
LINE
  8
Default
 62
255
 10
     1098.599993
 20
      981.872441
 30
       19.622438
 11
     1098.550788
 21
      981.828781
 31
       19.617599
  0
LINE
  8
Default
 62
255
 10
     1098.550788
 20
      981.828781
 30
       19.617599
 11
     1098.534400
 21
      981.847270
 31
       19.622690
  0
LINE
  8
Default
 62
255
 10
     1098.534400
 20
      981.847270
 30
       19.622690
 11
     1098.473992
 21
      981.805326
 31
       19.546843
  0
LINE
  8
Default
 62
255
 10
     1098.473992
 20
      981.805326
 30
       19.546843
 11
     1098.446652
 21
      981.741202
 31
       19.527924
  0
LINE
  8
Default
 62
255
 10
     1098.446652
 20
      981.741202
 30
       19.527924
 11
     1098.424286
 21
      981.696518
 31
       19.515131
  0
LINE
  8
Default
 62
255
 10
     1098.424286
 20
      981.696518
 30
       19.515131
 11
     1098.414835
 21
      981.652843
 31
       19.512890
  0
LINE
  8
Default
 62
255
 10
     1098.414835
 20
      981.652843
 30
       19.512890
 11
     1098.360693
 21
      981.678540
 31
       19.523838
  0
LINE
  8
Default
 62
255
 10
     1098.360693
 20
      981.678540
 30
       19.523838
 11
     1098.337309
 21
      981.644929
 31
       19.538456
  0
LINE
  8
Default
 62
255
 10
     1098.337309
 20
      981.644929
 30
       19.538456
 11
     1098.348520
 21
      981.549859
 31
       19.563917
  0
LINE
  8
Default
 62
255
 10
     1098.348520
 20
      981.549859
 30
       19.563917
 11
     1098.316509
 21
      981.497149
 31
       19.556738
  0
LINE
  8
Default
 62
255
 10
     1098.316509
 20
      981.497149
 30
       19.556738
 11
     1098.215745
 21
      981.472976
 31
       19.525570
  0
LINE
  8
Default
 62
255
 10
     1097.939529
 20
      981.199094
 30
       19.681432
 11
     1097.981499
 21
      981.273829
 31
       19.711000
  0
LINE
  8
Default
 62
255
 10
     1097.981499
 20
      981.273829
 30
       19.711000
 11
     1098.029576
 21
      981.331455
 31
       19.714377
  0
LINE
  8
Default
 62
255
 10
     1098.106787
 20
      981.395841
 30
       19.644112
 11
     1098.140300
 21
      981.406953
 31
       19.553742
  0
LINE
  8
Default
 62
255
 10
     1098.140300
 20
      981.406953
 30
       19.553742
 11
     1098.215745
 21
      981.472976
 31
       19.525570
  0
LINE
  8
Default
 62
255
 10
     1098.025093
 20
      981.144522
 30
       19.597384
 11
     1098.068071
 21
      981.223673
 31
       19.579614
  0
LINE
  8
Default
 62
255
 10
     1098.068071
 20
      981.223673
 30
       19.579614
 11
     1098.118652
 21
      981.282407
 31
       19.575518
  0
LINE
  8
Default
 62
255
 10
     1098.118652
 20
      981.282407
 30
       19.575518
 11
     1098.129105
 21
      981.342667
 31
       19.560118
  0
LINE
  8
Default
 62
255
 10
     1098.129105
 20
      981.342667
 30
       19.560118
 11
     1098.190713
 21
      981.375999
 31
       19.542972
  0
LINE
  8
Default
 62
255
 10
     1098.190713
 20
      981.375999
 30
       19.542972
 11
     1098.298192
 21
      981.424115
 31
       19.510732
  0
LINE
  8
Default
 62
255
 10
     1098.298192
 20
      981.424115
 30
       19.510732
 11
     1098.346572
 21
      981.480897
 31
       19.507175
  0
LINE
  8
Default
 62
255
 10
     1098.346572
 20
      981.480897
 30
       19.507175
 11
     1098.368859
 21
      981.559431
 31
       19.485580
  0
LINE
  8
Default
 62
255
 10
     1098.368859
 20
      981.559431
 30
       19.485580
 11
     1098.423848
 21
      981.632111
 31
       19.481437
  0
LINE
  8
Default
 62
255
 10
     1098.423848
 20
      981.632111
 30
       19.481437
 11
     1098.473347
 21
      981.661432
 31
       19.480826
  0
LINE
  8
Default
 62
255
 10
     1098.473347
 20
      981.661432
 30
       19.480826
 11
     1098.472719
 21
      981.740162
 31
       19.490185
  0
LINE
  8
Default
 62
255
 10
     1098.472719
 20
      981.740162
 30
       19.490185
 11
     1098.494089
 21
      981.778909
 31
       19.501000
  0
LINE
  8
Default
 62
255
 10
     1098.494089
 20
      981.778909
 30
       19.501000
 11
     1098.544429
 21
      981.799174
 31
       19.509912
  0
LINE
  8
Default
 62
255
 10
     1098.544429
 20
      981.799174
 30
       19.509912
 11
     1098.612996
 21
      981.801467
 31
       19.505063
  0
LINE
  8
Default
 62
255
 10
     1098.612996
 20
      981.801467
 30
       19.505063
 11
     1098.683816
 21
      981.853596
 31
       19.537568
  0
LINE
  8
Default
 62
255
 10
     1098.683816
 20
      981.853596
 30
       19.537568
 11
     1098.795878
 21
      981.966290
 31
       19.518417
  0
LINE
  8
Default
 62
255
 10
     1098.795878
 20
      981.966290
 30
       19.518417
 11
     1098.822869
 21
      982.016199
 31
       19.517451
  0
LINE
  8
Default
 62
255
 10
     1098.822869
 20
      982.016199
 30
       19.517451
 11
     1098.787750
 21
      982.054992
 31
       19.545752
  0
LINE
  8
Default
 62
255
 10
     1098.787750
 20
      982.054992
 30
       19.545752
 11
     1098.845263
 21
      982.118558
 31
       19.559689
  0
LINE
  8
Default
 62
255
 10
     1098.845263
 20
      982.118558
 30
       19.559689
 11
     1098.937393
 21
      982.173603
 31
       19.558449
  0
LINE
  8
Default
 62
255
 10
     1098.937393
 20
      982.173603
 30
       19.558449
 11
     1098.936282
 21
      982.284989
 31
       19.598205
  0
LINE
  8
Default
 62
255
 10
     1098.936282
 20
      982.284989
 30
       19.598205
 11
     1098.980654
 21
      982.324567
 31
       19.598950
  0
LINE
  8
Default
 62
255
 10
     1098.980654
 20
      982.324567
 30
       19.598950
 11
     1099.069871
 21
      982.355734
 31
       19.613565
  0
LINE
  8
Default
 62
255
 10
     1099.069871
 20
      982.355734
 30
       19.613565
 11
     1099.127574
 21
      982.393741
 31
       19.608853
  0
LINE
  8
Default
 62
255
 10
     1099.127574
 20
      982.393741
 30
       19.608853
 11
     1099.130013
 21
      982.430973
 31
       19.613424
  0
LINE
  8
Default
 62
255
 10
     1099.130013
 20
      982.430973
 30
       19.613424
 11
     1099.124871
 21
      982.469780
 31
       19.625580
  0
LINE
  8
Default
 62
255
 10
     1099.124871
 20
      982.469780
 30
       19.625580
 11
     1099.160657
 21
      982.512544
 31
       19.630731
  0
LINE
  8
Default
 62
255
 10
     1099.160657
 20
      982.512544
 30
       19.630731
 11
     1099.176196
 21
      982.536447
 31
       19.604143
  0
LINE
  8
Default
 62
255
 10
     1099.176196
 20
      982.536447
 30
       19.604143
 11
     1099.237465
 21
      982.592248
 31
       19.616368
  0
LINE
  8
Default
 62
255
 10
     1099.237465
 20
      982.592248
 30
       19.616368
 11
     1099.296475
 21
      982.624618
 31
       19.632516
  0
LINE
  8
Default
 62
255
 10
     1099.296475
 20
      982.624618
 30
       19.632516
 11
     1099.343216
 21
      982.657004
 31
       19.637987
  0
LINE
  8
Default
 62
255
 10
     1099.343216
 20
      982.657004
 30
       19.637987
 11
     1099.379525
 21
      982.707652
 31
       19.635255
  0
LINE
  8
Default
 62
255
 10
     1098.025093
 20
      981.144522
 30
       19.597384
 11
     1098.058017
 21
      981.098772
 31
       19.616823
  0
LINE
  8
Default
 62
255
 10
     1098.058017
 20
      981.098772
 30
       19.616823
 11
     1098.092933
 21
      981.066600
 31
       19.624593
  0
LINE
  8
Default
 62
255
 10
     1098.092933
 20
      981.066600
 30
       19.624593
 11
     1098.134059
 21
      981.058152
 31
       19.611406
  0
LINE
  8
Default
 62
255
 10
     1098.134059
 20
      981.058152
 30
       19.611406
 11
     1098.180655
 21
      981.052469
 31
       19.603959
  0
LINE
  8
Default
 62
255
 10
     1098.180655
 20
      981.052469
 30
       19.603959
 11
     1098.227234
 21
      981.004514
 31
       19.631956
  0
LINE
  8
Default
 62
255
 10
     1098.227234
 20
      981.004514
 30
       19.631956
 11
     1098.263936
 21
      980.931890
 31
       19.652862
  0
LINE
  8
Default
 62
255
 10
     1098.263936
 20
      980.931890
 30
       19.652862
 11
     1098.359343
 21
      980.893637
 31
       19.656408
  0
LINE
  8
Default
 62
255
 10
     1098.359343
 20
      980.893637
 30
       19.656408
 11
     1098.436232
 21
      980.804566
 31
       19.655433
  0
LINE
  8
Default
 62
255
 10
     1098.436232
 20
      980.804566
 30
       19.655433
 11
     1098.505310
 21
      980.725175
 31
       19.675061
  0
LINE
  8
Default
 62
255
 10
     1098.505310
 20
      980.725175
 30
       19.675061
 11
     1098.525083
 21
      980.653098
 31
       19.679385
  0
LINE
  8
Default
 62
255
 10
     1098.525083
 20
      980.653098
 30
       19.679385
 11
     1098.554429
 21
      980.626663
 31
       19.691183
  0
LINE
  8
Default
 62
255
 10
     1098.554429
 20
      980.626663
 30
       19.691183
 11
     1098.593810
 21
      980.601557
 31
       19.694747
  0
LINE
  8
Default
 62
255
 10
     1098.593810
 20
      980.601557
 30
       19.694747
 11
     1098.625592
 21
      980.656833
 31
       19.672655
  0
LINE
  8
Default
 62
255
 10
     1098.625592
 20
      980.656833
 30
       19.672655
 11
     1098.632153
 21
      980.695987
 31
       19.665017
  0
LINE
  8
Default
 62
255
 10
     1098.632153
 20
      980.695987
 30
       19.665017
 11
     1098.693369
 21
      980.765138
 31
       19.650634
  0
LINE
  8
Default
 62
255
 10
     1098.693369
 20
      980.765138
 30
       19.650634
 11
     1098.780320
 21
      980.860319
 31
       19.636887
  0
LINE
  8
Default
 62
255
 10
     1098.422148
 20
      980.660395
 30
       19.883431
 11
     1098.385076
 21
      980.737652
 31
       19.931009
  0
LINE
  8
Default
 62
255
 10
     1098.256732
 20
      980.851649
 30
       19.917974
 11
     1098.214239
 21
      980.903120
 31
       19.964652
  0
LINE
  8
Default
 62
255
 10
     1098.092394
 20
      981.068045
 30
       19.888996
 11
     1098.018654
 21
      981.098219
 31
       19.922617
  0
LINE
  8
Default
 62
255
 10
     1097.816988
 20
      981.242176
 30
       19.882117
 11
     1097.878144
 21
      981.189925
 31
       19.887339
  0
LINE
  8
Default
 62
255
 10
     1097.908017
 20
      981.153846
 30
       19.863354
 11
     1097.998596
 21
      981.131369
 31
       19.891791
  0
LINE
  8
Default
 62
255
 10
     1098.214239
 20
      980.903120
 30
       19.964652
 11
     1098.172838
 21
      980.968363
 31
       19.915258
  0
LINE
  8
Default
 62
255
 10
     1098.172838
 20
      980.968363
 30
       19.915258
 11
     1098.110620
 21
      981.004516
 31
       19.910187
  0
LINE
  8
Default
 62
255
 10
     1098.110620
 20
      981.004516
 30
       19.910187
 11
     1098.092394
 21
      981.068045
 31
       19.888996
  0
LINE
  8
Default
 62
255
 10
     1098.029576
 20
      981.331455
 30
       19.714377
 11
     1098.090374
 21
      981.326095
 31
       19.684653
  0
LINE
  8
Default
 62
255
 10
     1098.090374
 20
      981.326095
 30
       19.684653
 11
     1098.106787
 21
      981.395841
 31
       19.644112
  0
ENDSEC
  0
EOF
