  0
SECTION
  2
HEADER
  9
$PDMODE
 70
   34
  9
$PDSIZE
 40
   -3.0
  0
ENDSEC
  0
SECTION
  2
TABLES
  0
TABLE
  2
LTYPE
 70
 1
  0
LTYPE
  2
CONTINUOUS
  70
 64
  3
Solid line
  72
 65
 73
 0
  40
 0.0
  0
ENDTAB
  0
TABLE
  2
LAYER
 70
 1
 0
LAYER
  2
Default
  70
 0
 62
 7
  6
CONTINUOUS
  0
ENDTAB
  0 
ENDSEC
  0
SECTION
  2
ENTITIES
  0
POINT
  8
Default
 62
255
 10
     1100.617872
 20
      981.973267
 30
       19.384950
  0
POINT
  8
Default
 62
255
 10
     1099.036035
 20
      983.828398
 30
       19.354824
  0
POINT
  8
Default
 62
255
 10
     1100.427455
 20
      984.817423
 30
       19.527403
  0
POINT
  8
Default
 62
255
 10
     1101.346484
 20
      983.771116
 30
       19.432030
  0
POINT
  8
Default
 62
255
 10
     1100.081252
 20
      982.318150
 30
       19.400629
  0
POINT
  8
Default
 62
255
 10
     1100.675330
 20
      982.334403
 30
       19.427500
  0
POINT
  8
Default
 62
255
 10
     1101.090622
 20
      982.175247
 30
       19.440163
  0
POINT
  8
Default
 62
255
 10
     1101.289483
 20
      982.456560
 30
       19.416594
  0
POINT
  8
Default
 62
255
 10
     1101.272850
 20
      983.119006
 30
       19.426906
  0
POINT
  8
Default
 62
255
 10
     1100.991426
 20
      983.313084
 30
       19.436455
  0
POINT
  8
Default
 62
255
 10
     1101.045502
 20
      982.759566
 30
       19.421872
  0
POINT
  8
Default
 62
255
 10
     1100.605060
 20
      982.799756
 30
       19.414692
  0
POINT
  8
Default
 62
255
 10
     1100.105406
 20
      982.670894
 30
       19.429837
  0
POINT
  8
Default
 62
255
 10
     1100.269490
 20
      983.104376
 30
       19.416293
  0
POINT
  8
Default
 62
255
 10
     1100.627418
 20
      983.575361
 30
       19.392836
  0
POINT
  8
Default
 62
255
 10
     1100.659458
 20
      983.287189
 30
       19.379674
  0
POINT
  8
Default
 62
255
 10
     1100.802687
 20
      983.902278
 30
       19.411477
  0
POINT
  8
Default
 62
255
 10
     1099.610919
 20
      982.773422
 30
       19.429206
  0
POINT
  8
Default
 62
255
 10
     1099.728238
 20
      982.936886
 30
       19.400499
  0
POINT
  8
Default
 62
255
 10
     1099.671183
 20
      983.174297
 30
       19.403202
  0
POINT
  8
Default
 62
255
 10
     1099.845707
 20
      983.402896
 30
       19.390364
  0
POINT
  8
Default
 62
255
 10
     1100.314165
 20
      983.691557
 30
       19.409049
  0
POINT
  8
Default
 62
255
 10
     1099.413907
 20
      983.475703
 30
       19.333807
  0
POINT
  8
Default
 62
255
 10
     1099.545198
 20
      983.675357
 30
       19.360638
  0
POINT
  8
Default
 62
255
 10
     1099.973312
 20
      983.796231
 30
       19.414078
  0
POINT
  8
Default
 62
255
 10
     1099.672059
 20
      984.160386
 30
       19.405434
  0
POINT
  8
Default
 62
255
 10
     1099.210057
 20
      983.718007
 30
       19.362972
  0
POINT
  8
Default
 62
255
 10
     1099.088475
 20
      984.028822
 30
       19.416833
  0
POINT
  8
Default
 62
255
 10
     1100.183711
 20
      984.522773
 30
       19.472896
  0
POINT
  8
Default
 62
255
 10
     1101.244915
 20
      982.554880
 30
       19.440464
  0
POINT
  8
Default
 62
255
 10
     1101.211495
 20
      982.523049
 30
       19.437404
  0
POINT
  8
Default
 62
255
 10
     1101.179650
 20
      982.488167
 30
       19.435659
  0
POINT
  8
Default
 62
255
 10
     1101.144817
 20
      982.456994
 30
       19.435558
  0
POINT
  8
Default
 62
255
 10
     1101.122077
 20
      982.415298
 30
       19.439936
  0
POINT
  8
Default
 62
255
 10
     1101.090677
 20
      982.375420
 30
       19.445579
  0
POINT
  8
Default
 62
255
 10
     1101.066394
 20
      982.335107
 30
       19.439701
  0
POINT
  8
Default
 62
255
 10
     1101.036411
 20
      982.296790
 30
       19.431793
  0
POINT
  8
Default
 62
255
 10
     1101.013317
 20
      982.259136
 30
       19.424578
  0
POINT
  8
Default
 62
255
 10
     1100.981649
 20
      982.217639
 30
       19.413603
  0
POINT
  8
Default
 62
255
 10
     1100.954770
 20
      982.183096
 30
       19.408623
  0
POINT
  8
Default
 62
255
 10
     1100.933923
 20
      982.142409
 30
       19.409760
  0
POINT
  8
Default
 62
255
 10
     1100.898627
 20
      982.103869
 30
       19.414245
  0
POINT
  8
Default
 62
255
 10
     1100.873928
 20
      982.063487
 30
       19.420678
  0
POINT
  8
Default
 62
255
 10
     1100.850561
 20
      982.022893
 30
       19.417935
  0
POINT
  8
Default
 62
255
 10
     1100.824741
 20
      981.986135
 30
       19.414070
  0
POINT
  8
Default
 62
255
 10
     1100.794793
 20
      981.945714
 30
       19.408897
  0
POINT
  8
Default
 62
255
 10
     1100.770438
 20
      981.910325
 30
       19.409434
  0
POINT
  8
Default
 62
255
 10
     1100.742295
 20
      981.871763
 30
       19.404959
  0
POINT
  8
Default
 62
255
 10
     1100.701629
 20
      981.866920
 30
       19.394081
  0
POINT
  8
Default
 62
255
 10
     1100.654283
 20
      981.866180
 30
       19.387357
  0
POINT
  8
Default
 62
255
 10
     1100.611863
 20
      981.880378
 30
       19.381200
  0
POINT
  8
Default
 62
255
 10
     1100.576545
 20
      981.906400
 30
       19.379386
  0
POINT
  8
Default
 62
255
 10
     1100.537708
 20
      981.932159
 30
       19.379432
  0
POINT
  8
Default
 62
255
 10
     1100.503436
 20
      981.951273
 30
       19.372590
  0
POINT
  8
Default
 62
255
 10
     1100.484389
 20
      981.988123
 30
       19.376741
  0
POINT
  8
Default
 62
255
 10
     1100.456430
 20
      982.012367
 30
       19.385058
  0
POINT
  8
Default
 62
255
 10
     1100.466726
 20
      982.050517
 30
       19.377372
  0
POINT
  8
Default
 62
255
 10
     1100.503058
 20
      982.081219
 30
       19.378363
  0
POINT
  8
Default
 62
255
 10
     1100.540761
 20
      982.102381
 30
       19.391061
  0
POINT
  8
Default
 62
255
 10
     1100.575630
 20
      982.132308
 30
       19.404508
  0
POINT
  8
Default
 62
255
 10
     1100.610057
 20
      982.168599
 30
       19.412507
  0
POINT
  8
Default
 62
255
 10
     1100.647827
 20
      982.192109
 30
       19.417778
  0
POINT
  8
Default
 62
255
 10
     1100.686496
 20
      982.219906
 30
       19.424581
  0
POINT
  8
Default
 62
255
 10
     1100.723324
 20
      982.250545
 30
       19.429131
  0
POINT
  8
Default
 62
255
 10
     1100.759080
 20
      982.278363
 30
       19.428850
  0
POINT
  8
Default
 62
255
 10
     1100.799580
 20
      982.306518
 30
       19.427606
  0
POINT
  8
Default
 62
255
 10
     1100.839803
 20
      982.336884
 30
       19.428139
  0
POINT
  8
Default
 62
255
 10
     1100.874209
 20
      982.363495
 30
       19.429332
  0
POINT
  8
Default
 62
255
 10
     1100.912745
 20
      982.392866
 30
       19.431616
  0
POINT
  8
Default
 62
255
 10
     1100.949482
 20
      982.425826
 30
       19.436214
  0
POINT
  8
Default
 62
255
 10
     1100.985104
 20
      982.456667
 30
       19.437244
  0
POINT
  8
Default
 62
255
 10
     1101.021509
 20
      982.495309
 30
       19.439698
  0
POINT
  8
Default
 62
255
 10
     1101.050547
 20
      982.526777
 30
       19.431504
  0
POINT
  8
Default
 62
255
 10
     1101.081563
 20
      982.563362
 30
       19.430069
  0
POINT
  8
Default
 62
255
 10
     1101.112116
 20
      982.601986
 30
       19.429351
  0
POINT
  8
Default
 62
255
 10
     1101.146182
 20
      982.639040
 30
       19.433549
  0
POINT
  8
Default
 62
255
 10
     1101.180801
 20
      982.675169
 30
       19.436574
  0
POINT
  8
Default
 62
255
 10
     1101.209407
 20
      982.706201
 30
       19.436990
  0
POINT
  8
Default
 62
255
 10
     1101.242258
 20
      982.742697
 30
       19.430539
  0
POINT
  8
Default
 62
255
 10
     1101.276770
 20
      982.773298
 30
       19.424287
  0
POINT
  8
Default
 62
255
 10
     1101.319395
 20
      982.805238
 30
       19.424283
  0
POINT
  8
Default
 62
255
 10
     1101.357096
 20
      982.829113
 30
       19.417828
  0
POINT
  8
Default
 62
255
 10
     1101.384318
 20
      982.861238
 30
       19.419639
  0
POINT
  8
Default
 62
255
 10
     1101.357830
 20
      982.882026
 30
       19.431034
  0
POINT
  8
Default
 62
255
 10
     1101.330437
 20
      982.911124
 30
       19.418316
  0
POINT
  8
Default
 62
255
 10
     1101.306416
 20
      982.957289
 30
       19.413394
  0
POINT
  8
Default
 62
255
 10
     1101.278796
 20
      982.990608
 30
       19.412087
  0
POINT
  8
Default
 62
255
 10
     1101.259803
 20
      983.029663
 30
       19.413675
  0
POINT
  8
Default
 62
255
 10
     1101.226021
 20
      983.063169
 30
       19.416569
  0
POINT
  8
Default
 62
255
 10
     1101.190893
 20
      983.094657
 30
       19.410304
  0
POINT
  8
Default
 62
255
 10
     1101.151046
 20
      983.087950
 30
       19.420409
  0
POINT
  8
Default
 62
255
 10
     1101.122087
 20
      983.057590
 30
       19.415192
  0
POINT
  8
Default
 62
255
 10
     1101.091525
 20
      983.029500
 30
       19.402433
  0
POINT
  8
Default
 62
255
 10
     1101.057789
 20
      983.009841
 30
       19.388614
  0
POINT
  8
Default
 62
255
 10
     1101.023845
 20
      982.971486
 30
       19.382037
  0
POINT
  8
Default
 62
255
 10
     1100.990625
 20
      982.937163
 30
       19.388920
  0
POINT
  8
Default
 62
255
 10
     1100.961899
 20
      982.909501
 30
       19.404985
  0
POINT
  8
Default
 62
255
 10
     1100.932114
 20
      982.873999
 30
       19.429860
  0
POINT
  8
Default
 62
255
 10
     1100.902196
 20
      982.837348
 30
       19.436139
  0
POINT
  8
Default
 62
255
 10
     1100.878041
 20
      982.799472
 30
       19.434266
  0
POINT
  8
Default
 62
255
 10
     1100.851527
 20
      982.757073
 30
       19.431665
  0
POINT
  8
Default
 62
255
 10
     1100.821828
 20
      982.715672
 30
       19.424173
  0
POINT
  8
Default
 62
255
 10
     1100.798027
 20
      982.678560
 30
       19.408975
  0
POINT
  8
Default
 62
255
 10
     1100.767700
 20
      982.639749
 30
       19.409626
  0
POINT
  8
Default
 62
255
 10
     1100.739466
 20
      982.603158
 30
       19.423848
  0
POINT
  8
Default
 62
255
 10
     1100.708280
 20
      982.569692
 30
       19.434367
  0
POINT
  8
Default
 62
255
 10
     1100.681072
 20
      982.528649
 30
       19.439910
  0
POINT
  8
Default
 62
255
 10
     1100.644826
 20
      982.494590
 30
       19.431410
  0
POINT
  8
Default
 62
255
 10
     1100.612810
 20
      982.461809
 30
       19.420087
  0
POINT
  8
Default
 62
255
 10
     1100.574754
 20
      982.429836
 30
       19.410742
  0
POINT
  8
Default
 62
255
 10
     1100.540933
 20
      982.396741
 30
       19.409719
  0
POINT
  8
Default
 62
255
 10
     1100.508087
 20
      982.364177
 30
       19.405987
  0
POINT
  8
Default
 62
255
 10
     1100.470603
 20
      982.323692
 30
       19.406816
  0
POINT
  8
Default
 62
255
 10
     1100.435255
 20
      982.293271
 30
       19.408645
  0
POINT
  8
Default
 62
255
 10
     1100.400479
 20
      982.266442
 30
       19.411802
  0
POINT
  8
Default
 62
255
 10
     1100.365050
 20
      982.234712
 30
       19.405689
  0
POINT
  8
Default
 62
255
 10
     1100.325705
 20
      982.206923
 30
       19.407431
  0
POINT
  8
Default
 62
255
 10
     1100.288795
 20
      982.181902
 30
       19.405515
  0
POINT
  8
Default
 62
255
 10
     1100.261704
 20
      982.143172
 30
       19.397161
  0
POINT
  8
Default
 62
255
 10
     1100.461168
 20
      983.705723
 30
       19.407172
  0
POINT
  8
Default
 62
255
 10
     1100.413844
 20
      983.675249
 30
       19.403326
  0
POINT
  8
Default
 62
255
 10
     1100.383514
 20
      983.651609
 30
       19.406495
  0
POINT
  8
Default
 62
255
 10
     1100.350903
 20
      983.616313
 30
       19.405328
  0
POINT
  8
Default
 62
255
 10
     1100.322924
 20
      983.577338
 30
       19.400792
  0
POINT
  8
Default
 62
255
 10
     1100.296616
 20
      983.535669
 30
       19.404976
  0
POINT
  8
Default
 62
255
 10
     1100.272841
 20
      983.490403
 30
       19.406990
  0
POINT
  8
Default
 62
255
 10
     1100.240341
 20
      983.451531
 30
       19.398561
  0
POINT
  8
Default
 62
255
 10
     1100.211608
 20
      983.418739
 30
       19.400406
  0
POINT
  8
Default
 62
255
 10
     1100.191787
 20
      983.374250
 30
       19.397518
  0
POINT
  8
Default
 62
255
 10
     1100.162972
 20
      983.333799
 30
       19.385863
  0
POINT
  8
Default
 62
255
 10
     1100.128802
 20
      983.296657
 30
       19.383641
  0
POINT
  8
Default
 62
255
 10
     1100.103512
 20
      983.260226
 30
       19.384288
  0
POINT
  8
Default
 62
255
 10
     1100.073078
 20
      983.220394
 30
       19.379243
  0
POINT
  8
Default
 62
255
 10
     1100.045538
 20
      983.177168
 30
       19.383556
  0
POINT
  8
Default
 62
255
 10
     1100.022106
 20
      983.141449
 30
       19.386951
  0
POINT
  8
Default
 62
255
 10
     1099.992399
 20
      983.102153
 30
       19.401165
  0
POINT
  8
Default
 62
255
 10
     1099.964530
 20
      983.068879
 30
       19.419995
  0
POINT
  8
Default
 62
255
 10
     1099.941927
 20
      983.030024
 30
       19.433941
  0
POINT
  8
Default
 62
255
 10
     1099.911845
 20
      982.989151
 30
       19.430703
  0
POINT
  8
Default
 62
255
 10
     1099.891478
 20
      982.952714
 30
       19.416577
  0
POINT
  8
Default
 62
255
 10
     1099.862404
 20
      982.916277
 30
       19.397201
  0
POINT
  8
Default
 62
255
 10
     1099.833352
 20
      982.876753
 30
       19.390045
  0
POINT
  8
Default
 62
255
 10
     1099.812369
 20
      982.844038
 30
       19.394626
  0
POINT
  8
Default
 62
255
 10
     1099.785566
 20
      982.803348
 30
       19.405485
  0
POINT
  8
Default
 62
255
 10
     1099.767795
 20
      982.759351
 30
       19.416337
  0
POINT
  8
Default
 62
255
 10
     1099.742951
 20
      982.724568
 30
       19.420367
  0
POINT
  8
Default
 62
255
 10
     1099.721825
 20
      982.680524
 30
       19.418767
  0
POINT
  8
Default
 62
255
 10
     1099.734705
 20
      982.638375
 30
       19.423445
  0
POINT
  8
Default
 62
255
 10
     1099.768414
 20
      982.599037
 30
       19.429737
  0
POINT
  8
Default
 62
255
 10
     1099.808413
 20
      982.571390
 30
       19.430983
  0
POINT
  8
Default
 62
255
 10
     1099.843304
 20
      982.542309
 30
       19.429978
  0
POINT
  8
Default
 62
255
 10
     1099.880800
 20
      982.512414
 30
       19.428395
  0
POINT
  8
Default
 62
255
 10
     1099.911100
 20
      982.473434
 30
       19.423408
  0
POINT
  8
Default
 62
255
 10
     1099.947198
 20
      982.441967
 30
       19.417792
  0
POINT
  8
Default
 62
255
 10
     1099.980385
 20
      982.406498
 30
       19.408024
  0
POINT
  8
Default
 62
255
 10
     1100.017416
 20
      982.379426
 30
       19.402874
  0
POINT
  8
Default
 62
255
 10
     1100.055638
 20
      982.358372
 30
       19.404552
  0
POINT
  8
Default
 62
255
 10
     1100.089186
 20
      982.387092
 30
       19.409522
  0
POINT
  8
Default
 62
255
 10
     1100.116037
 20
      982.425142
 30
       19.412774
  0
POINT
  8
Default
 62
255
 10
     1100.150375
 20
      982.455592
 30
       19.414897
  0
POINT
  8
Default
 62
255
 10
     1100.183561
 20
      982.487921
 30
       19.425870
  0
POINT
  8
Default
 62
255
 10
     1100.213446
 20
      982.526373
 30
       19.420904
  0
POINT
  8
Default
 62
255
 10
     1100.244657
 20
      982.561836
 30
       19.421224
  0
POINT
  8
Default
 62
255
 10
     1100.281965
 20
      982.599839
 30
       19.424353
  0
POINT
  8
Default
 62
255
 10
     1100.311931
 20
      982.633147
 30
       19.423594
  0
POINT
  8
Default
 62
255
 10
     1100.353935
 20
      982.664658
 30
       19.418856
  0
POINT
  8
Default
 62
255
 10
     1100.388160
 20
      982.688553
 30
       19.420176
  0
POINT
  8
Default
 62
255
 10
     1100.426602
 20
      982.719707
 30
       19.429651
  0
POINT
  8
Default
 62
255
 10
     1100.458918
 20
      982.757604
 30
       19.433305
  0
POINT
  8
Default
 62
255
 10
     1100.488694
 20
      982.792006
 30
       19.426701
  0
POINT
  8
Default
 62
255
 10
     1100.517327
 20
      982.830537
 30
       19.421929
  0
POINT
  8
Default
 62
255
 10
     1100.545800
 20
      982.868108
 30
       19.416943
  0
POINT
  8
Default
 62
255
 10
     1100.570717
 20
      982.910085
 30
       19.413163
  0
POINT
  8
Default
 62
255
 10
     1100.592191
 20
      982.951099
 30
       19.407357
  0
POINT
  8
Default
 62
255
 10
     1100.615794
 20
      982.994931
 30
       19.408860
  0
POINT
  8
Default
 62
255
 10
     1100.641978
 20
      983.040059
 30
       19.409132
  0
POINT
  8
Default
 62
255
 10
     1100.666430
 20
      983.077795
 30
       19.405657
  0
POINT
  8
Default
 62
255
 10
     1100.693553
 20
      983.120343
 30
       19.400762
  0
POINT
  8
Default
 62
255
 10
     1100.715996
 20
      983.160312
 30
       19.391093
  0
POINT
  8
Default
 62
255
 10
     1100.737548
 20
      983.193770
 30
       19.383526
  0
POINT
  8
Default
 62
255
 10
     1100.763502
 20
      983.239753
 30
       19.379483
  0
POINT
  8
Default
 62
255
 10
     1100.789502
 20
      983.281678
 30
       19.377589
  0
POINT
  8
Default
 62
255
 10
     1100.815734
 20
      983.321822
 30
       19.384578
  0
POINT
  8
Default
 62
255
 10
     1100.840636
 20
      983.361783
 30
       19.388019
  0
POINT
  8
Default
 62
255
 10
     1100.867840
 20
      983.398855
 30
       19.393861
  0
POINT
  8
Default
 62
255
 10
     1100.894776
 20
      983.439811
 30
       19.396830
  0
POINT
  8
Default
 62
255
 10
     1100.922691
 20
      983.478008
 30
       19.401028
  0
POINT
  8
Default
 62
255
 10
     1100.947866
 20
      983.515174
 30
       19.408176
  0
POINT
  8
Default
 62
255
 10
     1100.978774
 20
      983.557019
 30
       19.417152
  0
POINT
  8
Default
 62
255
 10
     1101.010943
 20
      983.591967
 30
       19.420874
  0
POINT
  8
Default
 62
255
 10
     1101.044074
 20
      983.628148
 30
       19.423579
  0
POINT
  8
Default
 62
255
 10
     1101.076181
 20
      983.665548
 30
       19.411216
  0
POINT
  8
Default
 62
255
 10
     1101.106959
 20
      983.699185
 30
       19.398031
  0
POINT
  8
Default
 62
255
 10
     1101.139910
 20
      983.733583
 30
       19.387761
  0
POINT
  8
Default
 62
255
 10
     1101.174573
 20
      983.773568
 30
       19.381369
  0
POINT
  8
Default
 62
255
 10
     1101.206618
 20
      983.802032
 30
       19.395258
  0
POINT
  8
Default
 62
255
 10
     1101.237380
 20
      983.834071
 30
       19.414452
  0
POINT
  8
Default
 62
255
 10
     1101.268298
 20
      983.862285
 30
       19.428774
  0
POINT
  8
Default
 62
255
 10
     1100.740989
 20
      984.861888
 30
       19.567810
  0
POINT
  8
Default
 62
255
 10
     1100.530690
 20
      984.700631
 30
       19.533063
  0
POINT
  8
Default
 62
255
 10
     1100.460567
 20
      984.640998
 30
       19.546924
  0
POINT
  8
Default
 62
255
 10
     1100.403215
 20
      984.571824
 30
       19.519732
  0
POINT
  8
Default
 62
255
 10
     1100.349544
 20
      984.501678
 30
       19.484007
  0
POINT
  8
Default
 62
255
 10
     1100.295423
 20
      984.429308
 30
       19.465392
  0
POINT
  8
Default
 62
255
 10
     1100.242598
 20
      984.348429
 30
       19.449546
  0
POINT
  8
Default
 62
255
 10
     1100.188244
 20
      984.269900
 30
       19.451048
  0
POINT
  8
Default
 62
255
 10
     1100.133189
 20
      984.192641
 30
       19.430418
  0
POINT
  8
Default
 62
255
 10
     1100.078615
 20
      984.112879
 30
       19.417361
  0
POINT
  8
Default
 62
255
 10
     1100.015161
 20
      984.040157
 30
       19.414533
  0
POINT
  8
Default
 62
255
 10
     1099.955682
 20
      983.965421
 30
       19.419618
  0
POINT
  8
Default
 62
255
 10
     1099.897744
 20
      983.889919
 30
       19.414333
  0
POINT
  8
Default
 62
255
 10
     1099.835571
 20
      983.815871
 30
       19.415672
  0
POINT
  8
Default
 62
255
 10
     1099.770773
 20
      983.741126
 30
       19.395904
  0
POINT
  8
Default
 62
255
 10
     1099.704137
 20
      983.666882
 30
       19.380878
  0
POINT
  8
Default
 62
255
 10
     1099.644690
 20
      983.597248
 30
       19.372841
  0
POINT
  8
Default
 62
255
 10
     1099.582203
 20
      983.532994
 30
       19.339589
  0
POINT
  8
Default
 62
255
 10
     1099.520007
 20
      983.462222
 30
       19.330522
  0
POINT
  8
Default
 62
255
 10
     1099.455948
 20
      983.389130
 30
       19.331981
  0
POINT
  8
Default
 62
255
 10
     1099.398998
 20
      983.316329
 30
       19.349891
  0
POINT
  8
Default
 62
255
 10
     1099.427528
 20
      983.242454
 30
       19.362624
  0
POINT
  8
Default
 62
255
 10
     1099.508910
 20
      983.210353
 30
       19.381375
  0
POINT
  8
Default
 62
255
 10
     1099.574830
 20
      983.279921
 30
       19.387951
  0
POINT
  8
Default
 62
255
 10
     1099.651563
 20
      983.335247
 30
       19.392538
  0
POINT
  8
Default
 62
255
 10
     1099.716554
 20
      983.401121
 30
       19.398344
  0
POINT
  8
Default
 62
255
 10
     1099.784965
 20
      983.472086
 30
       19.386977
  0
POINT
  8
Default
 62
255
 10
     1099.863659
 20
      983.532332
 30
       19.381172
  0
POINT
  8
Default
 62
255
 10
     1099.923860
 20
      983.593918
 30
       19.366685
  0
POINT
  8
Default
 62
255
 10
     1099.990304
 20
      983.665173
 30
       19.387017
  0
POINT
  8
Default
 62
255
 10
     1100.057416
 20
      983.729339
 30
       19.403879
  0
POINT
  8
Default
 62
255
 10
     1100.119822
 20
      983.797809
 30
       19.421441
  0
POINT
  8
Default
 62
255
 10
     1100.185016
 20
      983.867268
 30
       19.421856
  0
POINT
  8
Default
 62
255
 10
     1100.252050
 20
      983.938766
 30
       19.428309
  0
POINT
  8
Default
 62
255
 10
     1100.313411
 20
      984.010261
 30
       19.425403
  0
POINT
  8
Default
 62
255
 10
     1100.377191
 20
      984.078373
 30
       19.422619
  0
POINT
  8
Default
 62
255
 10
     1100.443707
 20
      984.151793
 30
       19.435352
  0
POINT
  8
Default
 62
255
 10
     1100.506122
 20
      984.221307
 30
       19.449892
  0
POINT
  8
Default
 62
255
 10
     1100.567913
 20
      984.291150
 30
       19.472340
  0
POINT
  8
Default
 62
255
 10
     1100.627486
 20
      984.363168
 30
       19.478980
  0
POINT
  8
Default
 62
255
 10
     1100.691859
 20
      984.440109
 30
       19.479915
  0
POINT
  8
Default
 62
255
 10
     1100.756953
 20
      984.517452
 30
       19.482011
  0
POINT
  8
Default
 62
255
 10
     1100.812094
 20
      984.589751
 30
       19.492929
  0
POINT
  8
Default
 62
255
 10
     1100.878825
 20
      984.664251
 30
       19.494273
  0
POINT
  8
Default
 62
255
 10
     1100.954167
 20
      984.750732
 30
       19.499520
  0
POINT
  8
Default
 62
255
 10
     1099.343503
 20
      983.765615
 30
       19.391709
  0
POINT
  8
Default
 62
255
 10
     1099.367317
 20
      983.811571
 30
       19.386364
  0
POINT
  8
Default
 62
255
 10
     1099.398212
 20
      983.845150
 30
       19.387086
  0
POINT
  8
Default
 62
255
 10
     1099.442404
 20
      983.875822
 30
       19.381577
  0
POINT
  8
Default
 62
255
 10
     1099.468055
 20
      983.906100
 30
       19.379147
  0
POINT
  8
Default
 62
255
 10
     1099.466517
 20
      983.951118
 30
       19.380373
  0
POINT
  8
Default
 62
255
 10
     1099.447859
 20
      984.000915
 30
       19.385366
  0
POINT
  8
Default
 62
255
 10
     1099.432545
 20
      984.043653
 30
       19.392809
  0
POINT
  8
Default
 62
255
 10
     1099.416952
 20
      984.090660
 30
       19.399097
  0
POINT
  8
Default
 62
255
 10
     1099.391924
 20
      984.129502
 30
       19.398186
  0
POINT
  8
Default
 62
255
 10
     1099.370255
 20
      984.170116
 30
       19.401787
  0
POINT
  8
Default
 62
255
 10
     1099.346949
 20
      984.215697
 30
       19.403220
  0
POINT
  8
Default
 62
255
 10
     1099.342643
 20
      984.260443
 30
       19.395465
  0
POINT
  8
Default
 62
255
 10
     1099.372132
 20
      984.290097
 30
       19.397116
  0
POINT
  8
Default
 62
255
 10
     1099.422385
 20
      984.297745
 30
       19.395097
  0
POINT
  8
Default
 62
255
 10
     1099.453272
 20
      984.319623
 30
       19.392415
  0
POINT
  8
Default
 62
255
 10
     1099.495541
 20
      984.335904
 30
       19.390082
  0
POINT
  8
Default
 62
255
 10
     1099.545903
 20
      984.347529
 30
       19.393225
  0
POINT
  8
Default
 62
255
 10
     1099.589365
 20
      984.353634
 30
       19.399039
  0
POINT
  8
Default
 62
255
 10
     1099.642545
 20
      984.356206
 30
       19.409916
  0
POINT
  8
Default
 62
255
 10
     1099.689901
 20
      984.345778
 30
       19.407100
  0
POINT
  8
Default
 62
255
 10
     1099.736517
 20
      984.326742
 30
       19.408172
  0
POINT
  8
Default
 62
255
 10
     1099.780051
 20
      984.313531
 30
       19.411896
  0
POINT
  8
Default
 62
255
 10
     1099.826286
 20
      984.296296
 30
       19.417228
  0
POINT
  8
Default
 62
255
 10
     1099.851775
 20
      984.263192
 30
       19.427272
  0
POINT
  8
Default
 62
255
 10
     1099.848697
 20
      984.215164
 30
       19.422269
  0
POINT
  8
Default
 62
255
 10
     1099.845572
 20
      984.170908
 30
       19.421542
  0
POINT
  8
Default
 62
255
 10
     1099.872762
 20
      984.133648
 30
       19.423981
  0
POINT
  8
Default
 62
255
 10
     1099.916984
 20
      984.141239
 30
       19.425113
  0
POINT
  8
Default
 62
255
 10
     1099.966257
 20
      984.145855
 30
       19.418800
  0
POINT
  8
Default
 62
255
 10
     1100.018203
 20
      984.153918
 30
       19.423201
  0
POINT
  8
Default
 62
255
 10
     1100.053662
 20
      984.191215
 30
       19.423387
  0
POINT
  8
Default
 62
255
 10
     1100.066577
 20
      984.230643
 30
       19.431258
  0
POINT
  8
Default
 62
255
 10
     1100.073125
 20
      984.275805
 30
       19.449886
  0
POINT
  8
Default
 62
255
 10
     1100.095213
 20
      984.313008
 30
       19.456851
  0
POINT
  8
Default
 62
255
 10
     1100.143992
 20
      984.329206
 30
       19.455128
  0
POINT
  8
Default
 62
255
 10
     1100.194763
 20
      984.316246
 30
       19.448286
  0
POINT
  8
Default
 62
255
 10
     1100.235771
 20
      984.285080
 30
       19.442395
  0
POINT
  8
Default
 62
255
 10
     1100.268313
 20
      984.255138
 30
       19.437118
  0
POINT
  8
Default
 62
255
 10
     1100.301198
 20
      984.227106
 30
       19.435811
  0
POINT
  8
Default
 62
255
 10
     1100.341247
 20
      984.191169
 30
       19.432166
  0
POINT
  8
Default
 62
255
 10
     1100.377261
 20
      984.157261
 30
       19.427541
  0
POINT
  8
Default
 62
255
 10
     1100.414362
 20
      984.124448
 30
       19.429793
  0
POINT
  8
Default
 62
255
 10
     1099.327884
 20
      983.704062
 30
       19.395338
  0
POINT
  8
Default
 62
255
 10
     1099.371126
 20
      983.681017
 30
       19.374774
  0
POINT
  8
Default
 62
255
 10
     1099.412382
 20
      983.654231
 30
       19.367799
  0
POINT
  8
Default
 62
255
 10
     1099.446341
 20
      983.628199
 30
       19.362634
  0
POINT
  8
Default
 62
255
 10
     1099.485759
 20
      983.602222
 30
       19.352481
  0
POINT
  8
Default
 62
255
 10
     1099.526619
 20
      983.579784
 30
       19.342721
  0
POINT
  8
Default
 62
255
 10
     1099.567022
 20
      983.557366
 30
       19.342967
  0
POINT
  8
Default
 62
255
 10
     1099.605559
 20
      983.535535
 30
       19.358268
  0
POINT
  8
Default
 62
255
 10
     1099.649120
 20
      983.519144
 30
       19.381603
  0
POINT
  8
Default
 62
255
 10
     1099.692771
 20
      983.489938
 30
       19.391375
  0
POINT
  8
Default
 62
255
 10
     1099.728505
 20
      983.462717
 30
       19.396522
  0
POINT
  8
Default
 62
255
 10
     1099.765461
 20
      983.427155
 30
       19.399328
  0
POINT
  8
Default
 62
255
 10
     1099.795249
 20
      983.391639
 30
       19.396465
  0
POINT
  8
Default
 62
255
 10
     1099.824345
 20
      983.354868
 30
       19.393434
  0
POINT
  8
Default
 62
255
 10
     1099.857287
 20
      983.312972
 30
       19.391263
  0
POINT
  8
Default
 62
255
 10
     1099.884728
 20
      983.270937
 30
       19.381248
  0
POINT
  8
Default
 62
255
 10
     1099.906052
 20
      983.227735
 30
       19.376085
  0
POINT
  8
Default
 62
255
 10
     1099.927907
 20
      983.183528
 30
       19.379745
  0
POINT
  8
Default
 62
255
 10
     1099.946191
 20
      983.145027
 30
       19.386354
  0
POINT
  8
Default
 62
255
 10
     1099.971295
 20
      983.105341
 30
       19.401928
  0
POINT
  8
Default
 62
255
 10
     1099.933135
 20
      983.789334
 30
       19.407661
  0
POINT
  8
Default
 62
255
 10
     1099.960426
 20
      983.755347
 30
       19.404067
  0
POINT
  8
Default
 62
255
 10
     1099.991006
 20
      983.719278
 30
       19.401422
  0
POINT
  8
Default
 62
255
 10
     1100.023819
 20
      983.677677
 30
       19.397151
  0
POINT
  8
Default
 62
255
 10
     1100.054303
 20
      983.639684
 30
       19.388918
  0
POINT
  8
Default
 62
255
 10
     1100.083476
 20
      983.603195
 30
       19.385497
  0
POINT
  8
Default
 62
255
 10
     1100.112174
 20
      983.563030
 30
       19.387386
  0
POINT
  8
Default
 62
255
 10
     1100.143054
 20
      983.527977
 30
       19.393729
  0
POINT
  8
Default
 62
255
 10
     1100.171951
 20
      983.488140
 30
       19.397626
  0
POINT
  8
Default
 62
255
 10
     1100.204282
 20
      983.449169
 30
       19.401370
  0
POINT
  8
Default
 62
255
 10
     1100.448918
 20
      984.091872
 30
       19.431972
  0
POINT
  8
Default
 62
255
 10
     1100.491322
 20
      984.054767
 30
       19.437561
  0
POINT
  8
Default
 62
255
 10
     1100.528030
 20
      984.022865
 30
       19.447894
  0
POINT
  8
Default
 62
255
 10
     1100.568496
 20
      983.991114
 30
       19.448866
  0
POINT
  8
Default
 62
255
 10
     1100.604818
 20
      983.971525
 30
       19.437895
  0
POINT
  8
Default
 62
255
 10
     1100.642904
 20
      983.948529
 30
       19.426612
  0
POINT
  8
Default
 62
255
 10
     1100.685473
 20
      983.924186
 30
       19.419051
  0
POINT
  8
Default
 62
255
 10
     1100.728933
 20
      983.902685
 30
       19.414785
  0
POINT
  8
Default
 62
255
 10
     1100.769905
 20
      983.878448
 30
       19.404482
  0
POINT
  8
Default
 62
255
 10
     1100.812051
 20
      983.849961
 30
       19.393029
  0
POINT
  8
Default
 62
255
 10
     1100.847102
 20
      983.820715
 30
       19.391253
  0
POINT
  8
Default
 62
255
 10
     1100.881394
 20
      983.787436
 30
       19.392817
  0
POINT
  8
Default
 62
255
 10
     1100.918340
 20
      983.756147
 30
       19.392128
  0
POINT
  8
Default
 62
255
 10
     1100.953688
 20
      983.729304
 30
       19.395848
  0
POINT
  8
Default
 62
255
 10
     1100.994923
 20
      983.697155
 30
       19.405307
  0
POINT
  8
Default
 62
255
 10
     1100.229750
 20
      983.410686
 30
       19.401482
  0
POINT
  8
Default
 62
255
 10
     1100.257950
 20
      983.366066
 30
       19.401063
  0
POINT
  8
Default
 62
255
 10
     1100.291804
 20
      983.332068
 30
       19.393617
  0
POINT
  8
Default
 62
255
 10
     1100.323946
 20
      983.299533
 30
       19.389825
  0
POINT
  8
Default
 62
255
 10
     1100.357044
 20
      983.263669
 30
       19.396491
  0
POINT
  8
Default
 62
255
 10
     1100.391939
 20
      983.229367
 30
       19.399758
  0
POINT
  8
Default
 62
255
 10
     1100.425161
 20
      983.195739
 30
       19.405735
  0
POINT
  8
Default
 62
255
 10
     1100.464189
 20
      983.166952
 30
       19.404179
  0
POINT
  8
Default
 62
255
 10
     1100.501766
 20
      983.133264
 30
       19.400773
  0
POINT
  8
Default
 62
255
 10
     1100.541025
 20
      983.109540
 30
       19.397340
  0
POINT
  8
Default
 62
255
 10
     1100.580334
 20
      983.081177
 30
       19.398448
  0
POINT
  8
Default
 62
255
 10
     1100.622371
 20
      983.061281
 30
       19.405501
  0
POINT
  8
Default
 62
255
 10
     1100.660517
 20
      983.034150
 30
       19.414503
  0
POINT
  8
Default
 62
255
 10
     1100.688364
 20
      982.997997
 30
       19.421062
  0
POINT
  8
Default
 62
255
 10
     1100.717821
 20
      982.960433
 30
       19.418280
  0
POINT
  8
Default
 62
255
 10
     1100.756013
 20
      982.931369
 30
       19.420113
  0
POINT
  8
Default
 62
255
 10
     1100.787361
 20
      982.895959
 30
       19.425348
  0
POINT
  8
Default
 62
255
 10
     1100.821534
 20
      982.862844
 30
       19.425080
  0
POINT
  8
Default
 62
255
 10
     1100.849909
 20
      982.821612
 30
       19.429375
  0
POINT
  8
Default
 62
255
 10
     1099.998366
 20
      983.071288
 30
       19.417831
  0
POINT
  8
Default
 62
255
 10
     1100.025906
 20
      983.033918
 30
       19.435510
  0
POINT
  8
Default
 62
255
 10
     1100.055176
 20
      982.994075
 30
       19.446706
  0
POINT
  8
Default
 62
255
 10
     1100.081767
 20
      982.959855
 30
       19.456307
  0
POINT
  8
Default
 62
255
 10
     1100.117576
 20
      982.918086
 30
       19.457246
  0
POINT
  8
Default
 62
255
 10
     1100.142549
 20
      982.874631
 30
       19.449656
  0
POINT
  8
Default
 62
255
 10
     1100.167364
 20
      982.836085
 30
       19.450886
  0
POINT
  8
Default
 62
255
 10
     1100.193608
 20
      982.797313
 30
       19.445032
  0
POINT
  8
Default
 62
255
 10
     1100.224029
 20
      982.757578
 30
       19.447248
  0
POINT
  8
Default
 62
255
 10
     1100.253038
 20
      982.727832
 30
       19.441087
  0
POINT
  8
Default
 62
255
 10
     1100.280742
 20
      982.695090
 30
       19.427085
  0
POINT
  8
Default
 62
255
 10
     1100.306716
 20
      982.655955
 30
       19.426693
  0
POINT
  8
Default
 62
255
 10
     1100.345504
 20
      982.627953
 30
       19.420050
  0
POINT
  8
Default
 62
255
 10
     1100.377285
 20
      982.597747
 30
       19.427044
  0
POINT
  8
Default
 62
255
 10
     1100.412109
 20
      982.560731
 30
       19.420278
  0
POINT
  8
Default
 62
255
 10
     1100.445147
 20
      982.526654
 30
       19.409775
  0
POINT
  8
Default
 62
255
 10
     1100.482145
 20
      982.503123
 30
       19.406720
  0
POINT
  8
Default
 62
255
 10
     1100.524385
 20
      982.473424
 30
       19.407141
  0
POINT
  8
Default
 62
255
 10
     1100.561102
 20
      982.447946
 30
       19.409583
  0
POINT
  8
Default
 62
255
 10
     1100.919821
 20
      982.759896
 30
       19.435473
  0
POINT
  8
Default
 62
255
 10
     1100.944296
 20
      982.721453
 30
       19.439247
  0
POINT
  8
Default
 62
255
 10
     1100.982579
 20
      982.688702
 30
       19.434614
  0
POINT
  8
Default
 62
255
 10
     1101.014539
 20
      982.653902
 30
       19.431477
  0
POINT
  8
Default
 62
255
 10
     1101.040327
 20
      982.615344
 30
       19.432405
  0
POINT
  8
Default
 62
255
 10
     1101.061565
 20
      982.567739
 30
       19.434032
  0
POINT
  8
Default
 62
255
 10
     1101.080887
 20
      982.531217
 30
       19.430590
  0
POINT
  8
Default
 62
255
 10
     1101.091746
 20
      982.485844
 30
       19.433209
  0
POINT
  8
Default
 62
255
 10
     1101.107797
 20
      982.441807
 30
       19.435695
  0
POINT
  8
Default
 62
255
 10
     1101.117605
 20
      982.399160
 30
       19.442353
  0
POINT
  8
Default
 62
255
 10
     1101.126650
 20
      982.353778
 30
       19.452073
  0
POINT
  8
Default
 62
255
 10
     1101.143183
 20
      982.312125
 30
       19.449572
  0
POINT
  8
Default
 62
255
 10
     1101.125813
 20
      982.270793
 30
       19.442073
  0
POINT
  8
Default
 62
255
 10
     1101.093513
 20
      982.236080
 30
       19.438360
  0
POINT
  8
Default
 62
255
 10
     1101.047095
 20
      982.233046
 30
       19.429242
  0
POINT
  8
Default
 62
255
 10
     1101.003698
 20
      982.246773
 30
       19.421190
  0
POINT
  8
Default
 62
255
 10
     1100.600745
 20
      982.431598
 30
       19.416428
  0
POINT
  8
Default
 62
255
 10
     1100.647386
 20
      982.403597
 30
       19.424547
  0
POINT
  8
Default
 62
255
 10
     1100.691051
 20
      982.379867
 30
       19.427101
  0
POINT
  8
Default
 62
255
 10
     1100.737542
 20
      982.357207
 30
       19.428434
  0
POINT
  8
Default
 62
255
 10
     1100.773957
 20
      982.333108
 30
       19.427923
  0
POINT
  8
Default
 62
255
 10
     1100.817517
 20
      982.314822
 30
       19.430883
  0
POINT
  8
Default
 62
255
 10
     1100.852208
 20
      982.300018
 30
       19.421586
  0
POINT
  8
Default
 62
255
 10
     1100.895618
 20
      982.284417
 30
       19.419731
  0
POINT
  8
Default
 62
255
 10
     1100.938539
 20
      982.268892
 30
       19.418835
  0
POINT
  8
Default
 62
255
 10
     1100.978586
 20
      982.256085
 30
       19.419549
  0
POINT
  8
Default
 62
255
 10
     1101.057425
 20
      983.238598
 30
       19.418136
  0
POINT
  8
Default
 62
255
 10
     1101.132602
 20
      983.198960
 30
       19.403772
  0
POINT
  8
Default
 62
255
 10
     1101.208620
 20
      983.157315
 30
       19.400470
  0
POINT
  8
Default
 62
255
 10
     1101.333791
 20
      983.063964
 30
       19.433688
  0
POINT
  8
Default
 62
255
 10
     1101.422062
 20
      982.986786
 30
       19.440560
  0
POINT
  8
Default
 62
255
 10
     1101.489139
 20
      982.901663
 30
       19.453762
  0
POINT
  8
Default
 62
255
 10
     1101.489159
 20
      982.800140
 30
       19.418648
  0
POINT
  8
Default
 62
255
 10
     1101.458940
 20
      982.707482
 30
       19.432470
  0
POINT
  8
Default
 62
255
 10
     1101.417532
 20
      982.620917
 30
       19.447472
  0
POINT
  8
Default
 62
255
 10
     1101.356072
 20
      982.630321
 30
       19.441053
  0
POINT
  8
Default
 62
255
 10
     1101.356070
 20
      982.529577
 30
       19.422422
  0
POINT
  8
Default
 62
255
 10
     1101.257505
 20
      982.374870
 30
       19.435296
  0
POINT
  8
Default
 62
255
 10
     1101.214030
 20
      982.326424
 30
       19.444526
  0
POINT
  8
Default
 62
255
 10
     1101.179124
 20
      982.271075
 30
       19.437054
  0
POINT
  8
Default
 62
255
 10
     1101.152815
 20
      982.212292
 30
       19.429749
  0
POINT
  8
Default
 62
255
 10
     1101.057278
 20
      982.130472
 30
       19.442056
  0
POINT
  8
Default
 62
255
 10
     1101.015215
 20
      982.096744
 30
       19.420569
  0
POINT
  8
Default
 62
255
 10
     1100.957939
 20
      982.009395
 30
       19.421321
  0
POINT
  8
Default
 62
255
 10
     1100.903403
 20
      981.956669
 30
       19.412877
  0
POINT
  8
Default
 62
255
 10
     1100.858125
 20
      981.904281
 30
       19.411740
  0
POINT
  8
Default
 62
255
 10
     1100.791504
 20
      981.854558
 30
       19.404972
  0
POINT
  8
Default
 62
255
 10
     1100.669433
 20
      981.773838
 30
       19.388443
  0
POINT
  8
Default
 62
255
 10
     1100.652975
 20
      981.748854
 30
       19.426541
  0
POINT
  8
Default
 62
255
 10
     1100.579036
 20
      981.769596
 30
       19.403281
  0
POINT
  8
Default
 62
255
 10
     1100.447218
 20
      981.839399
 30
       19.405167
  0
POINT
  8
Default
 62
255
 10
     1100.356579
 20
      981.895437
 30
       19.376602
  0
POINT
  8
Default
 62
255
 10
     1100.214269
 20
      982.010703
 30
       19.401317
  0
POINT
  8
Default
 62
255
 10
     1100.270636
 20
      981.952442
 30
       19.390013
  0
POINT
  8
Default
 62
255
 10
     1100.127691
 20
      982.079394
 30
       19.465626
  0
POINT
  8
Default
 62
255
 10
     1100.129676
 20
      982.139419
 30
       19.401769
  0
POINT
  8
Default
 62
255
 10
     1100.062240
 20
      982.167905
 30
       19.459088
  0
POINT
  8
Default
 62
255
 10
     1100.043916
 20
      982.226808
 30
       19.445022
  0
POINT
  8
Default
 62
255
 10
     1099.994596
 20
      982.201916
 30
       19.473142
  0
POINT
  8
Default
 62
255
 10
     1099.944806
 20
      982.244253
 30
       19.462974
  0
POINT
  8
Default
 62
255
 10
     1100.102426
 20
      982.205427
 30
       19.409854
  0
POINT
  8
Default
 62
255
 10
     1099.995189
 20
      982.243181
 30
       19.466027
  0
POINT
  8
Default
 62
255
 10
     1099.897312
 20
      982.303134
 30
       19.481432
  0
POINT
  8
Default
 62
255
 10
     1099.850624
 20
      982.324695
 30
       19.498249
  0
POINT
  8
Default
 62
255
 10
     1099.816411
 20
      982.414606
 30
       19.492637
  0
POINT
  8
Default
 62
255
 10
     1099.854110
 20
      982.376457
 30
       19.468951
  0
POINT
  8
Default
 62
255
 10
     1099.850197
 20
      982.473721
 30
       19.472973
  0
POINT
  8
Default
 62
255
 10
     1099.918536
 20
      982.357923
 30
       19.441209
  0
POINT
  8
Default
 62
255
 10
     1099.744005
 20
      982.460755
 30
       19.513609
  0
POINT
  8
Default
 62
255
 10
     1099.754302
 20
      982.560541
 30
       19.462068
  0
POINT
  8
Default
 62
255
 10
     1099.811934
 20
      982.501238
 30
       19.457978
  0
POINT
  8
Default
 62
255
 10
     1099.776687
 20
      982.485091
 30
       19.477895
  0
POINT
  8
Default
 62
255
 10
     1099.624745
 20
      982.650975
 30
       19.464832
  0
POINT
  8
Default
 62
255
 10
     1099.660092
 20
      982.847965
 30
       19.425254
  0
POINT
  8
Default
 62
255
 10
     1099.569971
 20
      982.711869
 30
       19.454881
  0
POINT
  8
Default
 62
255
 10
     1099.685099
 20
      982.950354
 30
       19.421511
  0
POINT
  8
Default
 62
255
 10
     1099.644992
 20
      983.054053
 30
       19.425599
  0
POINT
  8
Default
 62
255
 10
     1099.537232
 20
      983.096246
 30
       19.462157
  0
POINT
  8
Default
 62
255
 10
     1099.409005
 20
      983.162745
 30
       19.421014
  0
POINT
  8
Default
 62
255
 10
     1099.337627
 20
      983.306458
 30
       19.373528
  0
POINT
  8
Default
 62
255
 10
     1099.329770
 20
      983.414139
 30
       19.367531
  0
POINT
  8
Default
 62
255
 10
     1099.275347
 20
      983.528424
 30
       19.394319
  0
POINT
  8
Default
 62
255
 10
     1099.206680
 20
      983.595694
 30
       19.384327
  0
POINT
  8
Default
 62
255
 10
     1099.124704
 20
      983.651849
 30
       19.382415
  0
POINT
  8
Default
 62
255
 10
     1099.037570
 20
      983.660898
 30
       19.373869
  0
POINT
  8
Default
 62
255
 10
     1098.938143
 20
      983.751570
 30
       19.360946
  0
POINT
  8
Default
 62
255
 10
     1098.839566
 20
      983.745836
 30
       19.394277
  0
POINT
  8
Default
 62
255
 10
     1098.947391
 20
      983.892838
 30
       19.417794
  0
POINT
  8
Default
 62
255
 10
     1099.226167
 20
      984.114300
 30
       19.406969
  0
POINT
  8
Default
 62
255
 10
     1099.284388
 20
      984.216218
 30
       19.394138
  0
POINT
  8
Default
 62
255
 10
     1099.453944
 20
      984.384494
 30
       19.389839
  0
POINT
  8
Default
 62
255
 10
     1099.491936
 20
      984.444080
 30
       19.396552
  0
POINT
  8
Default
 62
255
 10
     1099.573469
 20
      984.459911
 30
       19.391068
  0
POINT
  8
Default
 62
255
 10
     1099.549437
 20
      984.533938
 30
       19.401344
  0
POINT
  8
Default
 62
255
 10
     1099.697392
 20
      984.406964
 30
       19.413916
  0
POINT
  8
Default
 62
255
 10
     1099.654090
 20
      984.491150
 30
       19.389841
  0
POINT
  8
Default
 62
255
 10
     1099.790484
 20
      984.384063
 30
       19.410248
  0
POINT
  8
Default
 62
255
 10
     1099.916025
 20
      984.344927
 30
       19.450709
  0
POINT
  8
Default
 62
255
 10
     1099.904545
 20
      984.288900
 30
       19.423500
  0
POINT
  8
Default
 62
255
 10
     1099.985461
 20
      984.429744
 30
       19.451111
  0
POINT
  8
Default
 62
255
 10
     1100.098271
 20
      984.564029
 30
       19.478997
  0
POINT
  8
Default
 62
255
 10
     1100.159179
 20
      984.640724
 30
       19.518164
  0
POINT
  8
Default
 62
255
 10
     1100.221185
 20
      984.710459
 30
       19.541342
  0
POINT
  8
Default
 62
255
 10
     1100.272278
 20
      984.795934
 30
       19.544655
  0
POINT
  8
Default
 62
255
 10
     1100.350949
 20
      984.867232
 30
       19.538177
  0
POINT
  8
Default
 62
255
 10
     1100.440199
 20
      984.912968
 30
       19.547612
  0
POINT
  8
Default
 62
255
 10
     1100.509466
 20
      984.929800
 30
       19.547310
  0
POINT
  8
Default
 62
255
 10
     1100.607190
 20
      984.929542
 30
       19.552718
  0
POINT
  8
Default
 62
255
 10
     1100.682526
 20
      984.914837
 30
       19.562542
  0
POINT
  8
Default
 62
255
 10
     1100.796678
 20
      984.870946
 30
       19.576480
  0
POINT
  8
Default
 62
255
 10
     1100.927975
 20
      984.830958
 30
       19.513199
  0
POINT
  8
Default
 62
255
 10
     1101.060819
 20
      984.781860
 30
       19.510512
  0
POINT
  8
Default
 62
255
 10
     1100.993715
 20
      984.698157
 30
       19.495634
  0
POINT
  8
Default
 62
255
 10
     1100.935038
 20
      984.627795
 30
       19.478844
  0
POINT
  8
Default
 62
255
 10
     1100.834505
 20
      984.509440
 30
       19.471917
  0
POINT
  8
Default
 62
255
 10
     1100.777936
 20
      984.432295
 30
       19.463984
  0
POINT
  8
Default
 62
255
 10
     1100.677686
 20
      984.308297
 30
       19.463509
  0
POINT
  8
Default
 62
255
 10
     1100.646374
 20
      984.232481
 30
       19.460962
  0
POINT
  8
Default
 62
255
 10
     1100.712712
 20
      984.159793
 30
       19.465517
  0
POINT
  8
Default
 62
255
 10
     1100.845337
 20
      984.035743
 30
       19.432335
  0
POINT
  8
Default
 62
255
 10
     1100.979504
 20
      983.933183
 30
       19.428552
  0
POINT
  8
Default
 62
255
 10
     1101.014776
 20
      983.973228
 30
       19.451514
  0
POINT
  8
Default
 62
255
 10
     1101.090925
 20
      983.907508
 30
       19.444234
  0
POINT
  8
Default
 62
255
 10
     1101.148853
 20
      983.875726
 30
       19.431175
  0
POINT
  8
Default
 62
255
 10
     1101.185674
 20
      983.901948
 30
       19.442815
  0
POINT
  8
Default
 62
255
 10
     1101.239015
 20
      983.912889
 30
       19.434653
  0
POINT
  8
Default
 62
255
 10
     1101.292454
 20
      983.987232
 30
       19.446490
  0
POINT
  8
Default
 62
255
 10
     1101.345059
 20
      984.085678
 30
       19.436956
  0
POINT
  8
Default
 62
255
 10
     1101.301501
 20
      983.896950
 30
       19.440639
  0
POINT
  8
Default
 62
255
 10
     1101.332679
 20
      983.939387
 30
       19.439871
  0
POINT
  8
Default
 62
255
 10
     1101.357278
 20
      983.980884
 30
       19.431974
  0
POINT
  8
Default
 62
255
 10
     1101.379028
 20
      984.019618
 30
       19.425740
  0
POINT
  8
Default
 62
255
 10
     1101.404498
 20
      984.062255
 30
       19.421214
  0
POINT
  8
Default
 62
255
 10
     1101.429193
 20
      984.102712
 30
       19.417077
  0
POINT
  8
Default
 62
255
 10
     1101.450364
 20
      984.142335
 30
       19.415164
  0
POINT
  8
Default
 62
255
 10
     1101.471693
 20
      984.181681
 30
       19.411782
  0
POINT
  8
Default
 62
255
 10
     1101.493988
 20
      984.224535
 30
       19.415336
  0
POINT
  8
Default
 62
255
 10
     1101.538147
 20
      984.158788
 30
       19.397703
  0
POINT
  8
Default
 62
255
 10
     1101.557102
 20
      984.093310
 30
       19.415591
  0
POINT
  8
Default
 62
255
 10
     1101.588459
 20
      984.057676
 30
       19.427518
  0
POINT
  8
Default
 62
255
 10
     1101.608149
 20
      984.018989
 30
       19.434931
  0
POINT
  8
Default
 62
255
 10
     1101.584583
 20
      983.979806
 30
       19.424326
  0
POINT
  8
Default
 62
255
 10
     1101.552167
 20
      983.945498
 30
       19.426401
  0
POINT
  8
Default
 62
255
 10
     1101.513248
 20
      983.918103
 30
       19.421575
  0
POINT
  8
Default
 62
255
 10
     1101.518527
 20
      983.873881
 30
       19.421590
  0
POINT
  8
Default
 62
255
 10
     1101.544148
 20
      983.835006
 30
       19.424192
  0
POINT
  8
Default
 62
255
 10
     1101.550120
 20
      983.787111
 30
       19.422954
  0
POINT
  8
Default
 62
255
 10
     1101.564681
 20
      983.741438
 30
       19.413808
  0
POINT
  8
Default
 62
255
 10
     1101.524859
 20
      983.684556
 30
       19.422694
  0
POINT
  8
Default
 62
255
 10
     1101.480601
 20
      983.679335
 30
       19.431601
  0
POINT
  8
Default
 62
255
 10
     1101.442329
 20
      983.653056
 30
       19.436970
  0
POINT
  8
Default
 62
255
 10
     1101.442218
 20
      983.610053
 30
       19.435078
  0
POINT
  8
Default
 62
255
 10
     1101.453418
 20
      983.560786
 30
       19.434150
  0
POINT
  8
Default
 62
255
 10
     1101.448157
 20
      983.515811
 30
       19.431682
  0
POINT
  8
Default
 62
255
 10
     1101.412436
 20
      983.480359
 30
       19.433638
  0
POINT
  8
Default
 62
255
 10
     1101.372678
 20
      983.498136
 30
       19.431037
  0
POINT
  8
Default
 62
255
 10
     1101.349848
 20
      983.530523
 30
       19.430211
  0
POINT
  8
Default
 62
255
 10
     1101.314303
 20
      983.567139
 30
       19.433211
  0
POINT
  8
Default
 62
255
 10
     1101.279020
 20
      983.576654
 30
       19.434284
  0
POINT
  8
Default
 62
255
 10
     1101.249007
 20
      983.611640
 30
       19.434408
  0
POINT
  8
Default
 62
255
 10
     1101.202319
 20
      983.632595
 30
       19.435078
  0
POINT
  8
Default
 62
255
 10
     1101.155643
 20
      983.646393
 30
       19.423950
  0
POINT
  8
Default
 62
255
 10
     1101.109032
 20
      983.661509
 30
       19.413043
  0
POINT
  8
Default
 62
255
 10
     1101.680734
 20
      984.018938
 30
       19.420985
  0
POINT
  8
Default
 62
255
 10
     1101.685139
 20
      983.893453
 30
       19.419702
  0
POINT
  8
Default
 62
255
 10
     1101.658055
 20
      983.810105
 30
       19.399968
  0
POINT
  8
Default
 62
255
 10
     1101.643016
 20
      983.711286
 30
       19.408553
  0
POINT
  8
Default
 62
255
 10
     1101.596051
 20
      983.666715
 30
       19.409243
  0
POINT
  8
Default
 62
255
 10
     1101.564513
 20
      983.579633
 30
       19.423583
  0
POINT
  8
Default
 62
255
 10
     1101.489128
 20
      983.475588
 30
       19.421664
  0
POINT
  8
Default
 62
255
 10
     1101.408693
 20
      983.415238
 30
       19.455782
  0
POINT
  8
Default
 62
255
 10
     1101.355620
 20
      983.451851
 30
       19.426275
  0
POINT
  8
Default
 62
255
 10
     1101.259467
 20
      983.486312
 30
       19.429384
  0
POINT
  8
Default
 62
255
 10
     1101.151234
 20
      983.565553
 30
       19.436702
  0
POINT
  8
Default
 62
255
 10
     1101.064025
 20
      983.492077
 30
       19.428346
  0
POINT
  8
Default
 62
255
 10
     1100.952615
 20
      983.373879
 30
       19.432308
  0
POINT
  8
Default
 62
255
 10
     1101.017018
 20
      983.434318
 30
       19.436839
  0
POINT
  8
Default
 62
255
 10
     1101.443063
 20
      984.291627
 30
       19.413305
  0
POINT
  8
Default
 62
255
 10
     1101.030929
 20
      982.168227
 30
       19.419220
  0
POINT
  8
Default
 62
255
 10
     1100.950790
 20
      982.102993
 30
       19.409436
  0
POINT
  8
Default
 62
255
 10
     1100.920640
 20
      982.040388
 30
       19.416827
  0
POINT
  8
Default
 62
255
 10
     1100.883706
 20
      982.227613
 30
       19.414160
  0
POINT
  8
Default
 62
255
 10
     1100.831090
 20
      982.150019
 30
       19.408024
  0
POINT
  8
Default
 62
255
 10
     1100.758177
 20
      982.073793
 30
       19.409953
  0
POINT
  8
Default
 62
255
 10
     1100.702528
 20
      981.986022
 30
       19.391712
  0
POINT
  8
Default
 62
255
 10
     1100.669896
 20
      981.922803
 30
       19.380344
  0
POINT
  8
Default
 62
255
 10
     1100.530951
 20
      982.011026
 30
       19.377266
  0
POINT
  8
Default
 62
255
 10
     1100.645394
 20
      982.042845
 30
       19.391826
  0
POINT
  8
Default
 62
255
 10
     1100.573136
 20
      982.055623
 30
       19.389354
  0
POINT
  8
Default
 62
255
 10
     1100.806728
 20
      982.240748
 30
       19.416541
  0
POINT
  8
Default
 62
255
 10
     1100.711995
 20
      982.151565
 30
       19.413417
  0
POINT
  8
Default
 62
255
 10
     1100.605954
 20
      982.278222
 30
       19.419720
  0
POINT
  8
Default
 62
255
 10
     1100.534355
 20
      982.226758
 30
       19.420900
  0
POINT
  8
Default
 62
255
 10
     1100.393556
 20
      982.176648
 30
       19.394559
  0
POINT
  8
Default
 62
255
 10
     1100.492713
 20
      982.165765
 30
       19.409369
  0
POINT
  8
Default
 62
255
 10
     1100.381144
 20
      982.091891
 30
       19.391007
  0
POINT
  8
Default
 62
255
 10
     1100.272324
 20
      982.096203
 30
       19.391882
  0
POINT
  8
Default
 62
255
 10
     1100.335777
 20
      982.025207
 30
       19.385612
  0
POINT
  8
Default
 62
255
 10
     1100.421472
 20
      981.951769
 30
       19.377634
  0
POINT
  8
Default
 62
255
 10
     1101.080728
 20
      982.290074
 30
       19.435208
  0
POINT
  8
Default
 62
255
 10
     1101.174342
 20
      982.389345
 30
       19.441231
  0
POINT
  8
Default
 62
255
 10
     1101.231480
 20
      982.458300
 30
       19.431252
  0
POINT
  8
Default
 62
255
 10
     1101.305384
 20
      982.555150
 30
       19.431104
  0
POINT
  8
Default
 62
255
 10
     1101.315881
 20
      982.726067
 30
       19.423489
  0
POINT
  8
Default
 62
255
 10
     1101.227123
 20
      982.642270
 30
       19.434511
  0
POINT
  8
Default
 62
255
 10
     1101.156646
 20
      982.564783
 30
       19.435452
  0
POINT
  8
Default
 62
255
 10
     1101.058604
 20
      982.443629
 30
       19.434726
  0
POINT
  8
Default
 62
255
 10
     1101.002863
 20
      982.386839
 30
       19.433789
  0
POINT
  8
Default
 62
255
 10
     1100.962766
 20
      982.341384
 30
       19.421640
  0
POINT
  8
Default
 62
255
 10
     1101.392457
 20
      982.768783
 30
       19.420512
  0
POINT
  8
Default
 62
255
 10
     1101.431721
 20
      982.902604
 30
       19.420556
  0
POINT
  8
Default
 62
255
 10
     1101.362816
 20
      982.973304
 30
       19.424806
  0
POINT
  8
Default
 62
255
 10
     1101.307211
 20
      983.015278
 30
       19.419047
  0
POINT
  8
Default
 62
255
 10
     1101.260730
 20
      983.081629
 30
       19.435769
  0
POINT
  8
Default
 62
255
 10
     1101.290904
 20
      983.054826
 30
       19.430647
  0
POINT
  8
Default
 62
255
 10
     1101.219082
 20
      982.858790
 30
       19.412328
  0
POINT
  8
Default
 62
255
 10
     1101.142192
 20
      982.812654
 30
       19.397300
  0
POINT
  8
Default
 62
255
 10
     1101.175452
 20
      982.993636
 30
       19.398187
  0
POINT
  8
Default
 62
255
 10
     1101.130525
 20
      982.952380
 30
       19.395511
  0
POINT
  8
Default
 62
255
 10
     1101.093634
 20
      982.897047
 30
       19.384051
  0
POINT
  8
Default
 62
255
 10
     1100.990260
 20
      982.822646
 30
       19.422033
  0
POINT
  8
Default
 62
255
 10
     1101.007455
 20
      982.609118
 30
       19.434974
  0
POINT
  8
Default
 62
255
 10
     1100.975219
 20
      982.555191
 30
       19.438835
  0
POINT
  8
Default
 62
255
 10
     1100.951025
 20
      982.524139
 30
       19.436188
  0
POINT
  8
Default
 62
255
 10
     1100.906694
 20
      982.486174
 30
       19.441524
  0
POINT
  8
Default
 62
255
 10
     1100.774736
 20
      982.404055
 30
       19.417441
  0
POINT
  8
Default
 62
255
 10
     1100.822798
 20
      982.487706
 30
       19.421367
  0
POINT
  8
Default
 62
255
 10
     1100.716545
 20
      982.485549
 30
       19.431542
  0
POINT
  8
Default
 62
255
 10
     1100.804164
 20
      982.581035
 30
       19.420089
  0
POINT
  8
Default
 62
255
 10
     1100.900630
 20
      982.579426
 30
       19.406624
  0
POINT
  8
Default
 62
255
 10
     1100.891020
 20
      982.669150
 30
       19.427956
  0
POINT
  8
Default
 62
255
 10
     1101.063958
 20
      983.142098
 30
       19.419453
  0
POINT
  8
Default
 62
255
 10
     1101.036553
 20
      983.094344
 30
       19.400496
  0
POINT
  8
Default
 62
255
 10
     1100.999427
 20
      983.149327
 30
       19.419967
  0
POINT
  8
Default
 62
255
 10
     1100.969491
 20
      983.237655
 30
       19.425242
  0
POINT
  8
Default
 62
255
 10
     1100.962104
 20
      983.066390
 30
       19.386383
  0
POINT
  8
Default
 62
255
 10
     1100.927461
 20
      983.193421
 30
       19.394938
  0
POINT
  8
Default
 62
255
 10
     1100.905306
 20
      982.980258
 30
       19.411189
  0
POINT
  8
Default
 62
255
 10
     1100.788323
 20
      983.010932
 30
       19.417925
  0
POINT
  8
Default
 62
255
 10
     1100.827977
 20
      983.112539
 30
       19.384290
  0
POINT
  8
Default
 62
255
 10
     1100.893654
 20
      983.325269
 30
       19.376191
  0
POINT
  8
Default
 62
255
 10
     1100.827686
 20
      983.230185
 30
       19.366839
  0
POINT
  8
Default
 62
255
 10
     1100.638671
 20
      982.595391
 30
       19.438815
  0
POINT
  8
Default
 62
255
 10
     1100.527900
 20
      982.540249
 30
       19.412019
  0
POINT
  8
Default
 62
255
 10
     1100.545103
 20
      982.653746
 30
       19.426780
  0
POINT
  8
Default
 62
255
 10
     1100.655702
 20
      982.705695
 30
       19.405891
  0
POINT
  8
Default
 62
255
 10
     1100.683001
 20
      982.644576
 30
       19.425767
  0
POINT
  8
Default
 62
255
 10
     1100.576899
 20
      982.753069
 30
       19.415454
  0
POINT
  8
Default
 62
255
 10
     1100.602442
 20
      982.707922
 30
       19.420386
  0
POINT
  8
Default
 62
255
 10
     1100.724513
 20
      982.672343
 30
       19.406868
  0
POINT
  8
Default
 62
255
 10
     1100.696841
 20
      982.762283
 30
       19.410248
  0
POINT
  8
Default
 62
255
 10
     1100.769322
 20
      982.796734
 30
       19.415234
  0
POINT
  8
Default
 62
255
 10
     1100.661303
 20
      982.920753
 30
       19.422936
  0
POINT
  8
Default
 62
255
 10
     1100.709647
 20
      982.861987
 30
       19.412800
  0
POINT
  8
Default
 62
255
 10
     1100.646857
 20
      982.856698
 30
       19.413345
  0
POINT
  8
Default
 62
255
 10
     1100.451095
 20
      982.616375
 30
       19.424909
  0
POINT
  8
Default
 62
255
 10
     1100.531290
 20
      982.780365
 30
       19.415640
  0
POINT
  8
Default
 62
255
 10
     1100.486215
 20
      982.703551
 30
       19.434267
  0
POINT
  8
Default
 62
255
 10
     1100.432210
 20
      982.458607
 30
       19.403920
  0
POINT
  8
Default
 62
255
 10
     1100.373076
 20
      982.390012
 30
       19.409377
  0
POINT
  8
Default
 62
255
 10
     1100.304562
 20
      982.317729
 30
       19.403183
  0
POINT
  8
Default
 62
255
 10
     1100.246123
 20
      982.271229
 30
       19.398189
  0
POINT
  8
Default
 62
255
 10
     1100.171843
 20
      982.213263
 30
       19.392327
  0
POINT
  8
Default
 62
255
 10
     1100.139163
 20
      982.168395
 30
       19.404721
  0
POINT
  8
Default
 62
255
 10
     1100.345874
 20
      982.523358
 30
       19.410687
  0
POINT
  8
Default
 62
255
 10
     1100.299540
 20
      982.480968
 30
       19.422923
  0
POINT
  8
Default
 62
255
 10
     1100.253033
 20
      982.445170
 30
       19.424184
  0
POINT
  8
Default
 62
255
 10
     1100.211022
 20
      982.408054
 30
       19.425368
  0
POINT
  8
Default
 62
255
 10
     1100.190811
 20
      982.349277
 30
       19.403039
  0
POINT
  8
Default
 62
255
 10
     1100.150011
 20
      982.285889
 30
       19.395239
  0
POINT
  8
Default
 62
255
 10
     1100.225388
 20
      982.192817
 30
       19.397874
  0
POINT
  8
Default
 62
255
 10
     1100.181140
 20
      982.106899
 30
       19.394667
  0
POINT
  8
Default
 62
255
 10
     1100.159824
 20
      982.066042
 30
       19.415013
  0
POINT
  8
Default
 62
255
 10
     1099.970526
 20
      982.334916
 30
       19.411382
  0
POINT
  8
Default
 62
255
 10
     1100.024875
 20
      982.292290
 30
       19.408251
  0
POINT
  8
Default
 62
255
 10
     1099.918322
 20
      982.418690
 30
       19.424404
  0
POINT
  8
Default
 62
255
 10
     1099.862919
 20
      982.402859
 30
       19.458988
  0
POINT
  8
Default
 62
255
 10
     1100.881883
 20
      983.642595
 30
       19.394906
  0
POINT
  8
Default
 62
255
 10
     1100.768589
 20
      983.538362
 30
       19.395637
  0
POINT
  8
Default
 62
255
 10
     1100.750859
 20
      983.466414
 30
       19.396965
  0
POINT
  8
Default
 62
255
 10
     1100.668323
 20
      983.449765
 30
       19.360225
  0
POINT
  8
Default
 62
255
 10
     1100.722234
 20
      983.625498
 30
       19.398339
  0
POINT
  8
Default
 62
255
 10
     1100.800233
 20
      983.710911
 30
       19.385008
  0
POINT
  8
Default
 62
255
 10
     1100.608670
 20
      983.430531
 30
       19.356875
  0
POINT
  8
Default
 62
255
 10
     1100.549582
 20
      983.197886
 30
       19.390263
  0
POINT
  8
Default
 62
255
 10
     1100.541112
 20
      983.271745
 30
       19.385032
  0
POINT
  8
Default
 62
255
 10
     1100.454109
 20
      983.258469
 30
       19.398816
  0
POINT
  8
Default
 62
255
 10
     1100.522560
 20
      983.488310
 30
       19.389582
  0
POINT
  8
Default
 62
255
 10
     1100.476774
 20
      983.373258
 30
       19.393370
  0
POINT
  8
Default
 62
255
 10
     1100.574078
 20
      983.351792
 30
       19.382076
  0
POINT
  8
Default
 62
255
 10
     1100.362710
 20
      983.360748
 30
       19.383915
  0
POINT
  8
Default
 62
255
 10
     1100.362014
 20
      983.459664
 30
       19.389442
  0
POINT
  8
Default
 62
255
 10
     1100.399220
 20
      983.557824
 30
       19.392952
  0
POINT
  8
Default
 62
255
 10
     1100.512724
 20
      983.649289
 30
       19.399059
  0
POINT
  8
Default
 62
255
 10
     1100.540774
 20
      983.740500
 30
       19.389714
  0
POINT
  8
Default
 62
255
 10
     1100.629376
 20
      983.724222
 30
       19.388261
  0
POINT
  8
Default
 62
255
 10
     1100.668094
 20
      983.845003
 30
       19.402811
  0
POINT
  8
Default
 62
255
 10
     1100.744603
 20
      983.807404
 30
       19.388120
  0
POINT
  8
Default
 62
255
 10
     1100.728018
 20
      983.712145
 30
       19.387664
  0
POINT
  8
Default
 62
255
 10
     1100.587042
 20
      983.845751
 30
       19.392872
  0
POINT
  8
Default
 62
255
 10
     1100.514620
 20
      983.030919
 30
       19.387557
  0
POINT
  8
Default
 62
255
 10
     1100.437717
 20
      983.047782
 30
       19.403188
  0
POINT
  8
Default
 62
255
 10
     1100.501077
 20
      982.955439
 30
       19.394012
  0
POINT
  8
Default
 62
255
 10
     1100.377649
 20
      982.888429
 30
       19.422035
  0
POINT
  8
Default
 62
255
 10
     1100.461867
 20
      982.898690
 30
       19.409887
  0
POINT
  8
Default
 62
255
 10
     1100.389601
 20
      982.977266
 30
       19.421814
  0
POINT
  8
Default
 62
255
 10
     1100.416580
 20
      983.090838
 30
       19.391151
  0
POINT
  8
Default
 62
255
 10
     1100.229973
 20
      983.303528
 30
       19.396030
  0
POINT
  8
Default
 62
255
 10
     1100.164154
 20
      983.189262
 30
       19.390909
  0
POINT
  8
Default
 62
255
 10
     1100.296640
 20
      983.183154
 30
       19.409625
  0
POINT
  8
Default
 62
255
 10
     1100.359913
 20
      983.169518
 30
       19.401660
  0
POINT
  8
Default
 62
255
 10
     1100.296743
 20
      982.931291
 30
       19.434907
  0
POINT
  8
Default
 62
255
 10
     1100.224015
 20
      983.045838
 30
       19.425256
  0
POINT
  8
Default
 62
255
 10
     1100.334613
 20
      983.023568
 30
       19.426965
  0
POINT
  8
Default
 62
255
 10
     1100.329888
 20
      982.742073
 30
       19.438436
  0
POINT
  8
Default
 62
255
 10
     1100.392799
 20
      982.795407
 30
       19.442369
  0
POINT
  8
Default
 62
255
 10
     1100.294407
 20
      982.859767
 30
       19.449246
  0
POINT
  8
Default
 62
255
 10
     1100.250234
 20
      982.803555
 30
       19.445620
  0
POINT
  8
Default
 62
255
 10
     1100.198306
 20
      982.907161
 30
       19.453039
  0
POINT
  8
Default
 62
255
 10
     1100.226713
 20
      982.963710
 30
       19.447341
  0
POINT
  8
Default
 62
255
 10
     1100.147881
 20
      983.012109
 30
       19.452608
  0
POINT
  8
Default
 62
255
 10
     1100.100916
 20
      983.002922
 30
       19.446412
  0
POINT
  8
Default
 62
255
 10
     1100.085701
 20
      983.096230
 30
       19.393859
  0
POINT
  8
Default
 62
255
 10
     1100.170308
 20
      983.097652
 30
       19.411613
  0
POINT
  8
Default
 62
255
 10
     1100.108259
 20
      983.151111
 30
       19.379130
  0
POINT
  8
Default
 62
255
 10
     1100.183238
 20
      983.032207
 30
       19.438018
  0
POINT
  8
Default
 62
255
 10
     1100.132459
 20
      983.050714
 30
       19.439781
  0
POINT
  8
Default
 62
255
 10
     1100.152159
 20
      982.730181
 30
       19.435205
  0
POINT
  8
Default
 62
255
 10
     1100.058813
 20
      982.627299
 30
       19.436433
  0
POINT
  8
Default
 62
255
 10
     1100.184757
 20
      982.628793
 30
       19.423246
  0
POINT
  8
Default
 62
255
 10
     1100.106829
 20
      982.536964
 30
       19.419268
  0
POINT
  8
Default
 62
255
 10
     1100.055352
 20
      982.539464
 30
       19.422302
  0
POINT
  8
Default
 62
255
 10
     1099.990682
 20
      982.596826
 30
       19.430291
  0
POINT
  8
Default
 62
255
 10
     1100.093377
 20
      982.852023
 30
       19.448041
  0
POINT
  8
Default
 62
255
 10
     1100.014705
 20
      982.852999
 30
       19.434398
  0
POINT
  8
Default
 62
255
 10
     1100.039921
 20
      982.759178
 30
       19.429443
  0
POINT
  8
Default
 62
255
 10
     1099.973743
 20
      982.701606
 30
       19.430918
  0
POINT
  8
Default
 62
255
 10
     1099.935532
 20
      982.660304
 30
       19.426774
  0
POINT
  8
Default
 62
255
 10
     1099.895370
 20
      982.715700
 30
       19.425086
  0
POINT
  8
Default
 62
255
 10
     1099.839055
 20
      982.785286
 30
       19.409112
  0
POINT
  8
Default
 62
255
 10
     1099.918774
 20
      982.809104
 30
       19.419672
  0
POINT
  8
Default
 62
255
 10
     1099.935285
 20
      982.889662
 30
       19.414426
  0
POINT
  8
Default
 62
255
 10
     1099.850596
 20
      982.836794
 30
       19.408336
  0
POINT
  8
Default
 62
255
 10
     1099.972849
 20
      982.961427
 30
       19.434574
  0
POINT
  8
Default
 62
255
 10
     1099.863392
 20
      983.111662
 30
       19.410363
  0
POINT
  8
Default
 62
255
 10
     1099.820031
 20
      983.210239
 30
       19.385053
  0
POINT
  8
Default
 62
255
 10
     1099.792576
 20
      983.014086
 30
       19.419945
  0
POINT
  8
Default
 62
255
 10
     1099.796945
 20
      982.949993
 30
       19.400721
  0
POINT
  8
Default
 62
255
 10
     1099.737969
 20
      982.862839
 30
       19.417638
  0
POINT
  8
Default
 62
255
 10
     1099.707382
 20
      983.064685
 30
       19.415193
  0
POINT
  8
Default
 62
255
 10
     1099.752232
 20
      983.127219
 30
       19.393305
  0
POINT
  8
Default
 62
255
 10
     1099.749442
 20
      983.346289
 30
       19.392278
  0
POINT
  8
Default
 62
255
 10
     1099.743330
 20
      983.264076
 30
       19.378442
  0
POINT
  8
Default
 62
255
 10
     1099.611043
 20
      983.147692
 30
       19.410345
  0
POINT
  8
Default
 62
255
 10
     1099.598987
 20
      983.229522
 30
       19.402349
  0
POINT
  8
Default
 62
255
 10
     1099.556681
 20
      983.193662
 30
       19.398526
  0
POINT
  8
Default
 62
255
 10
     1099.561250
 20
      983.124561
 30
       19.425438
  0
POINT
  8
Default
 62
255
 10
     1099.497436
 20
      983.146677
 30
       19.404624
  0
POINT
  8
Default
 62
255
 10
     1099.430406
 20
      983.188573
 30
       19.384277
  0
POINT
  8
Default
 62
255
 10
     1099.663868
 20
      983.252290
 30
       19.393305
  0
POINT
  8
Default
 62
255
 10
     1099.983264
 20
      983.282636
 30
       19.370893
  0
POINT
  8
Default
 62
255
 10
     1100.093045
 20
      983.365344
 30
       19.381746
  0
POINT
  8
Default
 62
255
 10
     1100.135710
 20
      983.445125
 30
       19.387630
  0
POINT
  8
Default
 62
255
 10
     1099.971814
 20
      983.411719
 30
       19.381074
  0
POINT
  8
Default
 62
255
 10
     1100.041941
 20
      983.487384
 30
       19.364957
  0
POINT
  8
Default
 62
255
 10
     1099.949796
 20
      983.522302
 30
       19.372396
  0
POINT
  8
Default
 62
255
 10
     1100.236112
 20
      983.621434
 30
       19.391625
  0
POINT
  8
Default
 62
255
 10
     1100.156264
 20
      983.694429
 30
       19.418996
  0
POINT
  8
Default
 62
255
 10
     1100.253130
 20
      983.759726
 30
       19.411055
  0
POINT
  8
Default
 62
255
 10
     1100.329345
 20
      983.849579
 30
       19.410035
  0
POINT
  8
Default
 62
255
 10
     1100.422043
 20
      983.810088
 30
       19.391537
  0
POINT
  8
Default
 62
255
 10
     1100.385208
 20
      983.998400
 30
       19.417998
  0
POINT
  8
Default
 62
255
 10
     1100.485543
 20
      983.944842
 30
       19.406401
  0
POINT
  8
Default
 62
255
 10
     1100.560262
 20
      983.933043
 30
       19.427102
  0
POINT
  8
Default
 62
255
 10
     1100.457686
 20
      983.992702
 30
       19.424058
  0
POINT
  8
Default
 62
255
 10
     1100.712813
 20
      983.998001
 30
       19.438025
  0
POINT
  8
Default
 62
255
 10
     1100.565264
 20
      984.106118
 30
       19.439638
  0
POINT
  8
Default
 62
255
 10
     1100.642241
 20
      984.134892
 30
       19.454079
  0
POINT
  8
Default
 62
255
 10
     1100.760853
 20
      984.083959
 30
       19.442874
  0
POINT
  8
Default
 62
255
 10
     1099.488006
 20
      983.312180
 30
       19.338941
  0
POINT
  8
Default
 62
255
 10
     1099.582889
 20
      983.372203
 30
       19.341927
  0
POINT
  8
Default
 62
255
 10
     1099.626970
 20
      983.450436
 30
       19.359885
  0
POINT
  8
Default
 62
255
 10
     1099.748583
 20
      983.579095
 30
       19.373606
  0
POINT
  8
Default
 62
255
 10
     1099.814024
 20
      983.632594
 30
       19.378593
  0
POINT
  8
Default
 62
255
 10
     1099.900043
 20
      983.698551
 30
       19.380964
  0
POINT
  8
Default
 62
255
 10
     1100.035365
 20
      983.893320
 30
       19.424627
  0
POINT
  8
Default
 62
255
 10
     1100.125147
 20
      984.005067
 30
       19.426746
  0
POINT
  8
Default
 62
255
 10
     1100.238876
 20
      984.127988
 30
       19.426239
  0
POINT
  8
Default
 62
255
 10
     1099.352286
 20
      983.469128
 30
       19.352271
  0
POINT
  8
Default
 62
255
 10
     1099.468735
 20
      983.537414
 30
       19.334863
  0
POINT
  8
Default
 62
255
 10
     1099.391094
 20
      983.585555
 30
       19.368570
  0
POINT
  8
Default
 62
255
 10
     1099.350332
 20
      983.547215
 30
       19.368946
  0
POINT
  8
Default
 62
255
 10
     1099.383693
 20
      983.384275
 30
       19.352027
  0
POINT
  8
Default
 62
255
 10
     1099.422230
 20
      983.416508
 30
       19.337153
  0
POINT
  8
Default
 62
255
 10
     1099.651997
 20
      983.728959
 30
       19.377289
  0
POINT
  8
Default
 62
255
 10
     1099.728279
 20
      983.843840
 30
       19.396901
  0
POINT
  8
Default
 62
255
 10
     1099.636882
 20
      983.856115
 30
       19.386385
  0
POINT
  8
Default
 62
255
 10
     1099.440874
 20
      983.730589
 30
       19.375736
  0
POINT
  8
Default
 62
255
 10
     1099.503797
 20
      983.775285
 30
       19.363282
  0
POINT
  8
Default
 62
255
 10
     1099.818469
 20
      984.061143
 30
       19.399108
  0
POINT
  8
Default
 62
255
 10
     1099.790940
 20
      983.937768
 30
       19.413723
  0
POINT
  8
Default
 62
255
 10
     1099.934811
 20
      984.033914
 30
       19.407742
  0
POINT
  8
Default
 62
255
 10
     1099.747618
 20
      984.227519
 30
       19.404647
  0
POINT
  8
Default
 62
255
 10
     1099.739324
 20
      984.119769
 30
       19.412041
  0
POINT
  8
Default
 62
255
 10
     1099.634770
 20
      984.263658
 30
       19.403194
  0
POINT
  8
Default
 62
255
 10
     1099.536771
 20
      984.157984
 30
       19.400493
  0
POINT
  8
Default
 62
255
 10
     1099.425878
 20
      984.202261
 30
       19.400720
  0
POINT
  8
Default
 62
255
 10
     1099.535004
 20
      984.272638
 30
       19.386948
  0
POINT
  8
Default
 62
255
 10
     1099.574012
 20
      984.046025
 30
       19.400204
  0
POINT
  8
Default
 62
255
 10
     1099.680897
 20
      983.983045
 30
       19.392998
  0
POINT
  8
Default
 62
255
 10
     1099.524083
 20
      984.408187
 30
       19.397348
  0
POINT
  8
Default
 62
255
 10
     1099.325971
 20
      984.127592
 30
       19.396768
  0
POINT
  8
Default
 62
255
 10
     1099.298975
 20
      984.032338
 30
       19.379664
  0
POINT
  8
Default
 62
255
 10
     1099.204972
 20
      984.025844
 30
       19.396027
  0
POINT
  8
Default
 62
255
 10
     1099.376563
 20
      983.939094
 30
       19.379696
  0
POINT
  8
Default
 62
255
 10
     1099.321197
 20
      983.895915
 30
       19.382111
  0
POINT
  8
Default
 62
255
 10
     1099.239613
 20
      983.832285
 30
       19.377807
  0
POINT
  8
Default
 62
255
 10
     1099.308957
 20
      983.636924
 30
       19.379071
  0
POINT
  8
Default
 62
255
 10
     1099.260475
 20
      983.622994
 30
       19.377547
  0
POINT
  8
Default
 62
255
 10
     1099.187657
 20
      983.775604
 30
       19.368273
  0
POINT
  8
Default
 62
255
 10
     1099.155724
 20
      983.695841
 30
       19.369009
  0
POINT
  8
Default
 62
255
 10
     1099.079266
 20
      983.738076
 30
       19.354784
  0
POINT
  8
Default
 62
255
 10
     1099.145487
 20
      983.822404
 30
       19.353337
  0
POINT
  8
Default
 62
255
 10
     1099.232857
 20
      983.927062
 30
       19.379485
  0
POINT
  8
Default
 62
255
 10
     1099.156978
 20
      983.942962
 30
       19.377840
  0
POINT
  8
Default
 62
255
 10
     1098.982468
 20
      983.870768
 30
       19.374568
  0
POINT
  8
Default
 62
255
 10
     1099.051404
 20
      983.887098
 30
       19.355601
  0
POINT
  8
Default
 62
255
 10
     1100.778874
 20
      984.728710
 30
       19.537446
  0
POINT
  8
Default
 62
255
 10
     1100.710476
 20
      984.642261
 30
       19.522161
  0
POINT
  8
Default
 62
255
 10
     1100.598704
 20
      984.605729
 30
       19.534627
  0
POINT
  8
Default
 62
255
 10
     1100.609509
 20
      984.493344
 30
       19.523072
  0
POINT
  8
Default
 62
255
 10
     1100.506645
 20
      984.561128
 30
       19.526415
  0
POINT
  8
Default
 62
255
 10
     1100.531437
 20
      984.413420
 30
       19.485248
  0
POINT
  8
Default
 62
255
 10
     1100.423601
 20
      984.297970
 30
       19.449940
  0
POINT
  8
Default
 62
255
 10
     1100.405894
 20
      984.441888
 30
       19.470119
  0
POINT
  8
Default
 62
255
 10
     1100.473921
 20
      984.743706
 30
       19.541066
  0
POINT
  8
Default
 62
255
 10
     1100.394813
 20
      984.728003
 30
       19.531052
  0
POINT
  8
Default
 62
255
 10
     1100.354142
 20
      984.795858
 30
       19.540051
  0
POINT
  8
Default
 62
255
 10
     1100.334516
 20
      984.684884
 30
       19.522288
  0
POINT
  8
Default
 62
255
 10
     1100.299560
 20
      984.570680
 30
       19.489161
  0
POINT
  8
Default
 62
255
 10
     1100.085633
 20
      984.418792
 30
       19.450523
  0
POINT
  8
Default
 62
255
 10
     1100.004828
 20
      984.351492
 30
       19.445496
  0
POINT
  8
Default
 62
255
 10
     1099.938871
 20
      984.205885
 30
       19.417498
  0
POINT
  8
Default
 62
255
 10
     1099.976501
 20
      984.255103
 30
       19.421736
  0
POINT
  8
Default
 62
255
 10
     1101.500503
 20
      984.049210
 30
       19.410290
  0
POINT
  8
Default
 62
255
 10
     1101.460730
 20
      983.982247
 30
       19.416992
  0
POINT
  8
Default
 62
255
 10
     1101.426146
 20
      983.931455
 30
       19.417211
  0
POINT
  8
Default
 62
255
 10
     1101.398576
 20
      983.849917
 30
       19.431089
  0
POINT
  8
Default
 62
255
 10
     1101.381058
 20
      983.709508
 30
       19.433878
  0
POINT
  8
Default
 62
255
 10
     1101.437757
 20
      983.744465
 30
       19.425090
  0
POINT
  8
Default
 62
255
 10
     1101.485772
 20
      983.796981
 30
       19.428350
  0
POINT
  8
Default
 62
255
 10
     1101.387156
 20
      983.612324
 30
       19.433332
  0
POINT
  8
Default
 62
255
 10
     1101.292130
 20
      983.669227
 30
       19.428800
  0
POINT
  8
Default
 62
255
 10
     1101.213750
 20
      983.703320
 30
       19.417617
  0
POINT
  8
Default
 62
255
 10
     1101.292717
 20
      983.778444
 30
       19.430451
  0
POINT
  8
Default
 62
255
 10
     1101.325230
 20
      983.849053
 30
       19.436873
  0
POINT
  8
Default
 62
255
 10
     1100.892282
 20
      983.894358
 30
       19.419073
  0
POINT
  8
Default
 62
255
 10
     1100.807877
 20
      983.981060
 30
       19.423838
  0
POINT
  8
Default
 62
255
 10
     1101.001792
 20
      983.797822
 30
       19.409167
  0
POINT
  8
Default
 62
255
 10
     1100.948072
 20
      983.847137
 30
       19.416395
  0
POINT
  8
Default
 62
255
 10
     1101.034767
 20
      983.862630
 30
       19.423721
  0
POINT
  8
Default
 62
255
 10
     1101.087500
 20
      983.775653
 30
       19.404991
  0
POINT
  8
Default
 62
255
 10
     1101.137881
 20
      983.819145
 30
       19.403201
  0
POINT
  8
Default
 62
255
 10
     1101.178776
 20
      984.708896
 30
       19.979149
  0
POINT
  8
Default
 62
255
 10
     1101.102412
 20
      984.633258
 30
       20.026340
  0
POINT
  8
Default
 62
255
 10
     1101.067586
 20
      984.577165
 30
       20.061938
  0
POINT
  8
Default
 62
255
 10
     1101.045056
 20
      984.528096
 30
       20.056791
  0
POINT
  8
Default
 62
255
 10
     1100.995847
 20
      984.476575
 30
       20.062261
  0
POINT
  8
Default
 62
255
 10
     1100.948634
 20
      984.419090
 30
       20.066338
  0
POINT
  8
Default
 62
255
 10
     1100.909034
 20
      984.349580
 30
       20.075564
  0
POINT
  8
Default
 62
255
 10
     1100.868319
 20
      984.301033
 30
       20.064349
  0
POINT
  8
Default
 62
255
 10
     1100.821639
 20
      984.247319
 30
       20.057288
  0
POINT
  8
Default
 62
255
 10
     1100.807932
 20
      984.213664
 30
       20.059360
  0
POINT
  8
Default
 62
255
 10
     1100.854890
 20
      984.159889
 30
       20.070078
  0
POINT
  8
Default
 62
255
 10
     1100.910585
 20
      984.117172
 30
       20.067093
  0
POINT
  8
Default
 62
255
 10
     1100.956814
 20
      984.072891
 30
       20.048190
  0
POINT
  8
Default
 62
255
 10
     1101.020499
 20
      984.022621
 30
       20.036855
  0
POINT
  8
Default
 62
255
 10
     1101.142900
 20
      983.941271
 30
       19.964395
  0
POINT
  8
Default
 62
255
 10
     1101.091351
 20
      983.972221
 30
       20.024423
  0
POINT
  8
Default
 62
255
 10
     1101.257415
 20
      984.652203
 30
       19.989452
  0
POINT
  8
Default
 62
255
 10
     1101.345454
 20
      984.579067
 30
       19.998483
  0
POINT
  8
Default
 62
255
 10
     1101.428537
 20
      984.525023
 30
       19.962260
  0
POINT
  8
Default
 62
255
 10
     1101.511524
 20
      984.457698
 30
       19.908753
  0
POINT
  8
Default
 62
255
 10
     1101.463766
 20
      984.377066
 30
       19.935803
  0
POINT
  8
Default
 62
255
 10
     1101.414798
 20
      984.298408
 30
       19.936542
  0
POINT
  8
Default
 62
255
 10
     1101.354054
 20
      984.209095
 30
       19.943017
  0
POINT
  8
Default
 62
255
 10
     1101.326418
 20
      984.158016
 30
       19.946987
  0
POINT
  8
Default
 62
255
 10
     1101.284007
 20
      984.072271
 30
       19.927873
  0
POINT
  8
Default
 62
255
 10
     1101.226658
 20
      984.009557
 30
       19.952692
  0
POINT
  8
Default
 62
255
 10
     1101.186561
 20
      983.964342
 30
       19.965916
  0
POINT
  8
Default
 62
255
 10
     1101.149296
 20
      984.545697
 30
       20.051695
  0
POINT
  8
Default
 62
255
 10
     1101.204710
 20
      984.515285
 30
       20.040748
  0
POINT
  8
Default
 62
255
 10
     1101.262264
 20
      984.477247
 30
       20.033213
  0
POINT
  8
Default
 62
255
 10
     1101.387133
 20
      984.383233
 30
       19.986058
  0
POINT
  8
Default
 62
255
 10
     1101.333587
 20
      984.418795
 30
       20.018383
  0
POINT
  8
Default
 62
255
 10
     1101.356426
 20
      984.335231
 30
       20.000971
  0
POINT
  8
Default
 62
255
 10
     1101.318929
 20
      984.268121
 30
       20.001698
  0
POINT
  8
Default
 62
255
 10
     1101.284796
 20
      984.217094
 30
       20.013845
  0
POINT
  8
Default
 62
255
 10
     1101.251793
 20
      984.175449
 30
       19.997989
  0
POINT
  8
Default
 62
255
 10
     1101.190358
 20
      984.100856
 30
       20.024157
  0
POINT
  8
Default
 62
255
 10
     1101.141654
 20
      984.128413
 30
       19.969277
  0
POINT
  8
Default
 62
255
 10
     1101.054701
 20
      984.198525
 30
       20.048138
  0
POINT
  8
Default
 62
255
 10
     1100.992350
 20
      984.245322
 30
       20.040894
  0
POINT
  8
Default
 62
255
 10
     1100.924022
 20
      984.295380
 30
       20.080386
  0
POINT
  8
Default
 62
255
 10
     1100.969303
 20
      984.351374
 30
       20.067127
  0
POINT
  8
Default
 62
255
 10
     1101.018435
 20
      984.431866
 30
       20.061170
  0
POINT
  8
Default
 62
255
 10
     1101.084266
 20
      984.515975
 30
       20.064102
  0
POINT
  8
Default
 62
255
 10
     1101.062061
 20
      984.482585
 30
       20.061145
  0
POINT
  8
Default
 62
255
 10
     1101.119486
 20
      984.562953
 30
       20.068420
  0
POINT
  8
Default
 62
255
 10
     1101.232676
 20
      984.608455
 30
       20.026457
  0
POINT
  8
Default
 62
255
 10
     1101.159066
 20
      984.621830
 30
       20.043623
  0
POINT
  8
Default
 62
255
 10
     1101.214000
 20
      984.547287
 30
       20.050742
  0
POINT
  8
Default
 62
255
 10
     1101.299122
 20
      984.532645
 30
       20.026192
  0
POINT
  8
Default
 62
255
 10
     1101.297476
 20
      984.489101
 30
       20.033328
  0
POINT
  8
Default
 62
255
 10
     1101.387887
 20
      984.465903
 30
       19.994595
  0
POINT
  8
Default
 62
255
 10
     1101.446146
 20
      984.470555
 30
       19.974754
  0
POINT
  8
Default
 62
255
 10
     1101.421163
 20
      984.409823
 30
       19.982099
  0
POINT
  8
Default
 62
255
 10
     1100.875880
 20
      984.224318
 30
       20.058366
  0
POINT
  8
Default
 62
255
 10
     1100.932406
 20
      984.168510
 30
       20.058434
  0
POINT
  8
Default
 62
255
 10
     1101.001658
 20
      984.176181
 30
       20.048926
  0
POINT
  8
Default
 62
255
 10
     1100.993475
 20
      984.113940
 30
       20.051933
  0
POINT
  8
Default
 62
255
 10
     1101.078090
 20
      984.121330
 30
       20.040724
  0
POINT
  8
Default
 62
255
 10
     1101.092510
 20
      984.038823
 30
       20.034951
  0
POINT
  8
Default
 62
255
 10
     1101.170900
 20
      984.034667
 30
       20.023251
  0
POINT
  8
Default
 62
255
 10
     1100.994820
 20
      984.270646
 30
       19.839537
  0
POINT
  8
Default
 62
255
 10
     1101.055662
 20
      984.219720
 30
       19.852781
  0
POINT
  8
Default
 62
255
 10
     1101.121296
 20
      984.160932
 30
       19.869902
  0
POINT
  8
Default
 62
255
 10
     1101.167861
 20
      984.131041
 30
       19.860937
  0
POINT
  8
Default
 62
255
 10
     1101.206502
 20
      984.170710
 30
       19.836383
  0
POINT
  8
Default
 62
255
 10
     1101.229215
 20
      984.204386
 30
       19.832091
  0
POINT
  8
Default
 62
255
 10
     1101.265536
 20
      984.238463
 30
       19.795277
  0
POINT
  8
Default
 62
255
 10
     1101.278732
 20
      984.273829
 30
       19.815925
  0
POINT
  8
Default
 62
255
 10
     1101.291112
 20
      984.300916
 30
       19.817239
  0
POINT
  8
Default
 62
255
 10
     1101.340390
 20
      984.364615
 30
       19.818768
  0
POINT
  8
Default
 62
255
 10
     1101.315148
 20
      984.393159
 30
       19.813260
  0
POINT
  8
Default
 62
255
 10
     1101.254210
 20
      984.449117
 30
       19.818072
  0
POINT
  8
Default
 62
255
 10
     1101.201174
 20
      984.486423
 30
       19.816057
  0
POINT
  8
Default
 62
255
 10
     1101.155316
 20
      984.522271
 30
       19.811705
  0
POINT
  8
Default
 62
255
 10
     1100.960786
 20
      984.300957
 30
       19.850034
  0
POINT
  8
Default
 62
255
 10
     1100.990202
 20
      984.347595
 30
       19.836137
  0
POINT
  8
Default
 62
255
 10
     1101.030776
 20
      984.421714
 30
       19.826498
  0
POINT
  8
Default
 62
255
 10
     1101.059917
 20
      984.455089
 30
       19.824953
  0
POINT
  8
Default
 62
255
 10
     1101.097301
 20
      984.501382
 30
       19.824820
  0
POINT
  8
Default
 62
255
 10
     1101.043713
 20
      984.319745
 30
       19.826639
  0
POINT
  8
Default
 62
255
 10
     1101.130972
 20
      984.243220
 30
       19.839846
  0
POINT
  8
Default
 62
255
 10
     1101.109793
 20
      984.340643
 30
       19.811735
  0
POINT
  8
Default
 62
255
 10
     1101.077718
 20
      984.397377
 30
       19.810817
  0
POINT
  8
Default
 62
255
 10
     1101.200766
 20
      984.240237
 30
       19.825699
  0
POINT
  8
Default
 62
255
 10
     1101.198765
 20
      984.312676
 30
       19.828052
  0
POINT
  8
Default
 62
255
 10
     1101.252236
 20
      984.351956
 30
       19.810009
  0
POINT
  8
Default
 62
255
 10
     1101.129655
 20
      984.475538
 30
       19.811787
  0
POINT
  8
Default
 62
255
 10
     1101.185759
 20
      984.402350
 30
       19.809756
  0
POINT
  8
Default
 62
255
 10
     1101.144646
 20
      984.383998
 30
       19.812803
  0
LINE
  8
Default
 62
255
 10
     1100.652975
 20
      981.748854
 30
       19.426541
 11
     1100.579036
 21
      981.769596
 31
       19.403281
  0
LINE
  8
Default
 62
255
 10
     1100.579036
 20
      981.769596
 30
       19.403281
 11
     1100.447218
 21
      981.839399
 31
       19.405167
  0
LINE
  8
Default
 62
255
 10
     1100.447218
 20
      981.839399
 30
       19.405167
 11
     1100.356579
 21
      981.895437
 31
       19.376602
  0
LINE
  8
Default
 62
255
 10
     1100.356579
 20
      981.895437
 30
       19.376602
 11
     1100.270636
 21
      981.952442
 31
       19.390013
  0
LINE
  8
Default
 62
255
 10
     1100.270636
 20
      981.952442
 30
       19.390013
 11
     1100.127691
 21
      982.079394
 31
       19.465626
  0
LINE
  8
Default
 62
255
 10
     1100.127691
 20
      982.079394
 30
       19.465626
 11
     1099.994596
 21
      982.201916
 31
       19.473142
  0
LINE
  8
Default
 62
255
 10
     1099.994596
 20
      982.201916
 30
       19.473142
 11
     1099.850624
 21
      982.324695
 31
       19.498249
  0
LINE
  8
Default
 62
255
 10
     1099.850624
 20
      982.324695
 30
       19.498249
 11
     1099.744005
 21
      982.460755
 31
       19.513609
  0
LINE
  8
Default
 62
255
 10
     1099.744005
 20
      982.460755
 30
       19.513609
 11
     1099.569971
 21
      982.711869
 31
       19.454881
  0
LINE
  8
Default
 62
255
 10
     1099.569971
 20
      982.711869
 30
       19.454881
 11
     1099.610919
 21
      982.773422
 31
       19.429206
  0
LINE
  8
Default
 62
255
 10
     1099.610919
 20
      982.773422
 30
       19.429206
 11
     1099.660092
 21
      982.847965
 31
       19.425254
  0
LINE
  8
Default
 62
255
 10
     1099.660092
 20
      982.847965
 30
       19.425254
 11
     1099.685099
 21
      982.950354
 31
       19.421511
  0
LINE
  8
Default
 62
255
 10
     1099.685099
 20
      982.950354
 30
       19.421511
 11
     1099.537232
 21
      983.096246
 31
       19.462157
  0
LINE
  8
Default
 62
255
 10
     1099.537232
 20
      983.096246
 30
       19.462157
 11
     1099.409005
 21
      983.162745
 31
       19.421014
  0
LINE
  8
Default
 62
255
 10
     1099.409005
 20
      983.162745
 30
       19.421014
 11
     1099.337627
 21
      983.306458
 31
       19.373528
  0
LINE
  8
Default
 62
255
 10
     1099.337627
 20
      983.306458
 30
       19.373528
 11
     1099.329770
 21
      983.414139
 31
       19.367531
  0
LINE
  8
Default
 62
255
 10
     1099.329770
 20
      983.414139
 30
       19.367531
 11
     1099.275347
 21
      983.528424
 31
       19.394319
  0
LINE
  8
Default
 62
255
 10
     1099.275347
 20
      983.528424
 30
       19.394319
 11
     1099.206680
 21
      983.595694
 31
       19.384327
  0
LINE
  8
Default
 62
255
 10
     1099.206680
 20
      983.595694
 30
       19.384327
 11
     1099.124704
 21
      983.651849
 31
       19.382415
  0
LINE
  8
Default
 62
255
 10
     1099.124704
 20
      983.651849
 30
       19.382415
 11
     1099.037570
 21
      983.660898
 31
       19.373869
  0
LINE
  8
Default
 62
255
 10
     1099.037570
 20
      983.660898
 30
       19.373869
 11
     1098.839566
 21
      983.745836
 31
       19.394277
  0
LINE
  8
Default
 62
255
 10
     1098.839566
 20
      983.745836
 30
       19.394277
 11
     1098.947391
 21
      983.892838
 31
       19.417794
  0
LINE
  8
Default
 62
255
 10
     1098.947391
 20
      983.892838
 30
       19.417794
 11
     1099.088475
 21
      984.028822
 31
       19.416833
  0
LINE
  8
Default
 62
255
 10
     1099.088475
 20
      984.028822
 30
       19.416833
 11
     1099.284388
 21
      984.216218
 31
       19.394138
  0
LINE
  8
Default
 62
255
 10
     1099.284388
 20
      984.216218
 30
       19.394138
 11
     1099.342643
 21
      984.260443
 31
       19.395465
  0
LINE
  8
Default
 62
255
 10
     1099.342643
 20
      984.260443
 30
       19.395465
 11
     1099.372132
 21
      984.290097
 31
       19.397116
  0
LINE
  8
Default
 62
255
 10
     1099.372132
 20
      984.290097
 30
       19.397116
 11
     1099.453944
 21
      984.384494
 31
       19.389839
  0
LINE
  8
Default
 62
255
 10
     1099.453944
 20
      984.384494
 30
       19.389839
 11
     1099.491936
 21
      984.444080
 31
       19.396552
  0
LINE
  8
Default
 62
255
 10
     1099.491936
 20
      984.444080
 30
       19.396552
 11
     1099.549437
 21
      984.533938
 31
       19.401344
  0
LINE
  8
Default
 62
255
 10
     1099.549437
 20
      984.533938
 30
       19.401344
 11
     1099.654090
 21
      984.491150
 31
       19.389841
  0
LINE
  8
Default
 62
255
 10
     1099.654090
 20
      984.491150
 30
       19.389841
 11
     1099.790484
 21
      984.384063
 31
       19.410248
  0
LINE
  8
Default
 62
255
 10
     1099.790484
 20
      984.384063
 30
       19.410248
 11
     1099.916025
 21
      984.344927
 31
       19.450709
  0
LINE
  8
Default
 62
255
 10
     1099.916025
 20
      984.344927
 30
       19.450709
 11
     1099.985461
 21
      984.429744
 31
       19.451111
  0
LINE
  8
Default
 62
255
 10
     1099.985461
 20
      984.429744
 30
       19.451111
 11
     1100.098271
 21
      984.564029
 31
       19.478997
  0
LINE
  8
Default
 62
255
 10
     1100.098271
 20
      984.564029
 30
       19.478997
 11
     1100.159179
 21
      984.640724
 31
       19.518164
  0
LINE
  8
Default
 62
255
 10
     1100.159179
 20
      984.640724
 30
       19.518164
 11
     1100.221185
 21
      984.710459
 31
       19.541342
  0
LINE
  8
Default
 62
255
 10
     1100.221185
 20
      984.710459
 30
       19.541342
 11
     1100.272278
 21
      984.795934
 31
       19.544655
  0
LINE
  8
Default
 62
255
 10
     1100.272278
 20
      984.795934
 30
       19.544655
 11
     1100.350949
 21
      984.867232
 31
       19.538177
  0
LINE
  8
Default
 62
255
 10
     1100.350949
 20
      984.867232
 30
       19.538177
 11
     1100.440199
 21
      984.912968
 31
       19.547612
  0
LINE
  8
Default
 62
255
 10
     1100.440199
 20
      984.912968
 30
       19.547612
 11
     1100.509466
 21
      984.929800
 31
       19.547310
  0
LINE
  8
Default
 62
255
 10
     1100.509466
 20
      984.929800
 30
       19.547310
 11
     1100.607190
 21
      984.929542
 31
       19.552718
  0
LINE
  8
Default
 62
255
 10
     1100.607190
 20
      984.929542
 30
       19.552718
 11
     1100.682526
 21
      984.914837
 31
       19.562542
  0
LINE
  8
Default
 62
255
 10
     1100.682526
 20
      984.914837
 30
       19.562542
 11
     1100.796678
 21
      984.870946
 31
       19.576480
  0
LINE
  8
Default
 62
255
 10
     1100.796678
 20
      984.870946
 30
       19.576480
 11
     1100.927975
 21
      984.830958
 31
       19.513199
  0
LINE
  8
Default
 62
255
 10
     1100.652975
 20
      981.748854
 30
       19.426541
 11
     1100.791504
 21
      981.854558
 31
       19.404972
  0
LINE
  8
Default
 62
255
 10
     1100.791504
 20
      981.854558
 30
       19.404972
 11
     1100.858125
 21
      981.904281
 31
       19.411740
  0
LINE
  8
Default
 62
255
 10
     1100.858125
 20
      981.904281
 30
       19.411740
 11
     1100.903403
 21
      981.956669
 31
       19.412877
  0
LINE
  8
Default
 62
255
 10
     1100.903403
 20
      981.956669
 30
       19.412877
 11
     1100.957939
 21
      982.009395
 31
       19.421321
  0
LINE
  8
Default
 62
255
 10
     1100.957939
 20
      982.009395
 30
       19.421321
 11
     1101.015215
 21
      982.096744
 31
       19.420569
  0
LINE
  8
Default
 62
255
 10
     1101.015215
 20
      982.096744
 30
       19.420569
 11
     1101.057278
 21
      982.130472
 31
       19.442056
  0
LINE
  8
Default
 62
255
 10
     1101.057278
 20
      982.130472
 30
       19.442056
 11
     1101.090622
 21
      982.175247
 31
       19.440163
  0
LINE
  8
Default
 62
255
 10
     1101.090622
 20
      982.175247
 30
       19.440163
 11
     1101.152815
 21
      982.212292
 31
       19.429749
  0
LINE
  8
Default
 62
255
 10
     1101.152815
 20
      982.212292
 30
       19.429749
 11
     1101.179124
 21
      982.271075
 31
       19.437054
  0
LINE
  8
Default
 62
255
 10
     1101.179124
 20
      982.271075
 30
       19.437054
 11
     1101.214030
 21
      982.326424
 31
       19.444526
  0
LINE
  8
Default
 62
255
 10
     1101.214030
 20
      982.326424
 30
       19.444526
 11
     1101.257505
 21
      982.374870
 31
       19.435296
  0
LINE
  8
Default
 62
255
 10
     1101.257505
 20
      982.374870
 30
       19.435296
 11
     1101.289483
 21
      982.456560
 31
       19.416594
  0
LINE
  8
Default
 62
255
 10
     1101.289483
 20
      982.456560
 30
       19.416594
 11
     1101.356070
 21
      982.529577
 31
       19.422422
  0
LINE
  8
Default
 62
255
 10
     1101.356070
 20
      982.529577
 30
       19.422422
 11
     1101.417532
 21
      982.620917
 31
       19.447472
  0
LINE
  8
Default
 62
255
 10
     1101.417532
 20
      982.620917
 30
       19.447472
 11
     1101.458940
 21
      982.707482
 31
       19.432470
  0
LINE
  8
Default
 62
255
 10
     1101.458940
 20
      982.707482
 30
       19.432470
 11
     1101.489159
 21
      982.800140
 31
       19.418648
  0
LINE
  8
Default
 62
255
 10
     1101.489159
 20
      982.800140
 30
       19.418648
 11
     1101.489139
 21
      982.901663
 31
       19.453762
  0
LINE
  8
Default
 62
255
 10
     1101.489139
 20
      982.901663
 30
       19.453762
 11
     1101.422062
 21
      982.986786
 31
       19.440560
  0
LINE
  8
Default
 62
255
 10
     1101.422062
 20
      982.986786
 30
       19.440560
 11
     1101.333791
 21
      983.063964
 31
       19.433688
  0
LINE
  8
Default
 62
255
 10
     1101.333791
 20
      983.063964
 30
       19.433688
 11
     1101.272850
 21
      983.119006
 31
       19.426906
  0
LINE
  8
Default
 62
255
 10
     1101.272850
 20
      983.119006
 30
       19.426906
 11
     1101.208620
 21
      983.157315
 31
       19.400470
  0
LINE
  8
Default
 62
255
 10
     1101.208620
 20
      983.157315
 30
       19.400470
 11
     1101.132602
 21
      983.198960
 31
       19.403772
  0
LINE
  8
Default
 62
255
 10
     1101.132602
 20
      983.198960
 30
       19.403772
 11
     1101.057425
 21
      983.238598
 31
       19.418136
  0
LINE
  8
Default
 62
255
 10
     1101.057425
 20
      983.238598
 30
       19.418136
 11
     1100.991426
 21
      983.313084
 31
       19.436455
  0
LINE
  8
Default
 62
255
 10
     1100.991426
 20
      983.313084
 30
       19.436455
 11
     1100.952615
 21
      983.373879
 31
       19.432308
  0
LINE
  8
Default
 62
255
 10
     1100.952615
 20
      983.373879
 30
       19.432308
 11
     1101.017018
 21
      983.434318
 31
       19.436839
  0
LINE
  8
Default
 62
255
 10
     1101.017018
 20
      983.434318
 30
       19.436839
 11
     1101.064025
 21
      983.492077
 31
       19.428346
  0
LINE
  8
Default
 62
255
 10
     1101.064025
 20
      983.492077
 30
       19.428346
 11
     1101.151234
 21
      983.565553
 31
       19.436702
  0
LINE
  8
Default
 62
255
 10
     1101.151234
 20
      983.565553
 30
       19.436702
 11
     1101.259467
 21
      983.486312
 31
       19.429384
  0
LINE
  8
Default
 62
255
 10
     1101.259467
 20
      983.486312
 30
       19.429384
 11
     1101.355620
 21
      983.451851
 31
       19.426275
  0
LINE
  8
Default
 62
255
 10
     1101.355620
 20
      983.451851
 30
       19.426275
 11
     1101.408693
 21
      983.415238
 31
       19.455782
  0
LINE
  8
Default
 62
255
 10
     1101.408693
 20
      983.415238
 30
       19.455782
 11
     1101.489128
 21
      983.475588
 31
       19.421664
  0
LINE
  8
Default
 62
255
 10
     1101.489128
 20
      983.475588
 30
       19.421664
 11
     1101.564513
 21
      983.579633
 31
       19.423583
  0
LINE
  8
Default
 62
255
 10
     1101.564513
 20
      983.579633
 30
       19.423583
 11
     1101.596051
 21
      983.666715
 31
       19.409243
  0
LINE
  8
Default
 62
255
 10
     1101.596051
 20
      983.666715
 30
       19.409243
 11
     1101.643016
 21
      983.711286
 31
       19.408553
  0
LINE
  8
Default
 62
255
 10
     1101.643016
 20
      983.711286
 30
       19.408553
 11
     1101.658055
 21
      983.810105
 31
       19.399968
  0
LINE
  8
Default
 62
255
 10
     1101.658055
 20
      983.810105
 30
       19.399968
 11
     1101.685139
 21
      983.893453
 31
       19.419702
  0
LINE
  8
Default
 62
255
 10
     1101.685139
 20
      983.893453
 30
       19.419702
 11
     1101.680734
 21
      984.018938
 31
       19.420985
  0
LINE
  8
Default
 62
255
 10
     1101.680734
 20
      984.018938
 30
       19.420985
 11
     1101.493988
 21
      984.224535
 31
       19.415336
  0
LINE
  8
Default
 62
255
 10
     1101.493988
 20
      984.224535
 30
       19.415336
 11
     1101.443063
 21
      984.291627
 31
       19.413305
  0
LINE
  8
Default
 62
255
 10
     1101.443063
 20
      984.291627
 30
       19.413305
 11
     1101.345059
 21
      984.085678
 31
       19.436956
  0
LINE
  8
Default
 62
255
 10
     1101.345059
 20
      984.085678
 30
       19.436956
 11
     1101.292454
 21
      983.987232
 31
       19.446490
  0
LINE
  8
Default
 62
255
 10
     1101.292454
 20
      983.987232
 30
       19.446490
 11
     1101.239015
 21
      983.912889
 31
       19.434653
  0
LINE
  8
Default
 62
255
 10
     1101.239015
 20
      983.912889
 30
       19.434653
 11
     1101.185674
 21
      983.901948
 31
       19.442815
  0
LINE
  8
Default
 62
255
 10
     1101.185674
 20
      983.901948
 30
       19.442815
 11
     1101.148853
 21
      983.875726
 31
       19.431175
  0
LINE
  8
Default
 62
255
 10
     1101.148853
 20
      983.875726
 30
       19.431175
 11
     1101.090925
 21
      983.907508
 31
       19.444234
  0
LINE
  8
Default
 62
255
 10
     1101.090925
 20
      983.907508
 30
       19.444234
 11
     1101.014776
 21
      983.973228
 31
       19.451514
  0
LINE
  8
Default
 62
255
 10
     1101.014776
 20
      983.973228
 30
       19.451514
 11
     1100.979504
 21
      983.933183
 31
       19.428552
  0
LINE
  8
Default
 62
255
 10
     1100.979504
 20
      983.933183
 30
       19.428552
 11
     1100.845337
 21
      984.035743
 31
       19.432335
  0
LINE
  8
Default
 62
255
 10
     1100.845337
 20
      984.035743
 30
       19.432335
 11
     1100.712712
 21
      984.159793
 31
       19.465517
  0
LINE
  8
Default
 62
255
 10
     1100.712712
 20
      984.159793
 30
       19.465517
 11
     1100.646374
 21
      984.232481
 31
       19.460962
  0
LINE
  8
Default
 62
255
 10
     1100.646374
 20
      984.232481
 30
       19.460962
 11
     1100.677686
 21
      984.308297
 31
       19.463509
  0
LINE
  8
Default
 62
255
 10
     1100.677686
 20
      984.308297
 30
       19.463509
 11
     1100.777936
 21
      984.432295
 31
       19.463984
  0
LINE
  8
Default
 62
255
 10
     1100.777936
 20
      984.432295
 30
       19.463984
 11
     1100.834505
 21
      984.509440
 31
       19.471917
  0
LINE
  8
Default
 62
255
 10
     1100.834505
 20
      984.509440
 30
       19.471917
 11
     1100.935038
 21
      984.627795
 31
       19.478844
  0
LINE
  8
Default
 62
255
 10
     1100.935038
 20
      984.627795
 30
       19.478844
 11
     1100.993715
 21
      984.698157
 31
       19.495634
  0
LINE
  8
Default
 62
255
 10
     1100.993715
 20
      984.698157
 30
       19.495634
 11
     1101.060819
 21
      984.781860
 31
       19.510512
  0
LINE
  8
Default
 62
255
 10
     1101.060819
 20
      984.781860
 30
       19.510512
 11
     1100.927975
 21
      984.830958
 31
       19.513199
  0
LINE
  8
Default
 62
255
 10
     1101.178776
 20
      984.708896
 30
       19.979149
 11
     1101.102412
 21
      984.633258
 31
       20.026340
  0
LINE
  8
Default
 62
255
 10
     1101.102412
 20
      984.633258
 30
       20.026340
 11
     1101.067586
 21
      984.577165
 31
       20.061938
  0
LINE
  8
Default
 62
255
 10
     1101.067586
 20
      984.577165
 30
       20.061938
 11
     1101.045056
 21
      984.528096
 31
       20.056791
  0
LINE
  8
Default
 62
255
 10
     1101.045056
 20
      984.528096
 30
       20.056791
 11
     1100.995847
 21
      984.476575
 31
       20.062261
  0
LINE
  8
Default
 62
255
 10
     1100.995847
 20
      984.476575
 30
       20.062261
 11
     1100.948634
 21
      984.419090
 31
       20.066338
  0
LINE
  8
Default
 62
255
 10
     1100.948634
 20
      984.419090
 30
       20.066338
 11
     1100.909034
 21
      984.349580
 31
       20.075564
  0
LINE
  8
Default
 62
255
 10
     1100.909034
 20
      984.349580
 30
       20.075564
 11
     1100.868319
 21
      984.301033
 31
       20.064349
  0
LINE
  8
Default
 62
255
 10
     1100.868319
 20
      984.301033
 30
       20.064349
 11
     1100.821639
 21
      984.247319
 31
       20.057288
  0
LINE
  8
Default
 62
255
 10
     1100.821639
 20
      984.247319
 30
       20.057288
 11
     1100.807932
 21
      984.213664
 31
       20.059360
  0
LINE
  8
Default
 62
255
 10
     1100.807932
 20
      984.213664
 30
       20.059360
 11
     1100.854890
 21
      984.159889
 31
       20.070078
  0
LINE
  8
Default
 62
255
 10
     1100.854890
 20
      984.159889
 30
       20.070078
 11
     1100.910585
 21
      984.117172
 31
       20.067093
  0
LINE
  8
Default
 62
255
 10
     1100.910585
 20
      984.117172
 30
       20.067093
 11
     1100.956814
 21
      984.072891
 31
       20.048190
  0
LINE
  8
Default
 62
255
 10
     1100.956814
 20
      984.072891
 30
       20.048190
 11
     1101.020499
 21
      984.022621
 31
       20.036855
  0
LINE
  8
Default
 62
255
 10
     1101.020499
 20
      984.022621
 30
       20.036855
 11
     1101.091351
 21
      983.972221
 31
       20.024423
  0
LINE
  8
Default
 62
255
 10
     1101.091351
 20
      983.972221
 30
       20.024423
 11
     1101.142900
 21
      983.941271
 31
       19.964395
  0
LINE
  8
Default
 62
255
 10
     1101.142900
 20
      983.941271
 30
       19.964395
 11
     1101.186561
 21
      983.964342
 31
       19.965916
  0
LINE
  8
Default
 62
255
 10
     1101.186561
 20
      983.964342
 30
       19.965916
 11
     1101.226658
 21
      984.009557
 31
       19.952692
  0
LINE
  8
Default
 62
255
 10
     1101.226658
 20
      984.009557
 30
       19.952692
 11
     1101.284007
 21
      984.072271
 31
       19.927873
  0
LINE
  8
Default
 62
255
 10
     1101.284007
 20
      984.072271
 30
       19.927873
 11
     1101.326418
 21
      984.158016
 31
       19.946987
  0
LINE
  8
Default
 62
255
 10
     1101.326418
 20
      984.158016
 30
       19.946987
 11
     1101.354054
 21
      984.209095
 31
       19.943017
  0
LINE
  8
Default
 62
255
 10
     1101.354054
 20
      984.209095
 30
       19.943017
 11
     1101.414798
 21
      984.298408
 31
       19.936542
  0
LINE
  8
Default
 62
255
 10
     1101.414798
 20
      984.298408
 30
       19.936542
 11
     1101.463766
 21
      984.377066
 31
       19.935803
  0
LINE
  8
Default
 62
255
 10
     1101.511524
 20
      984.457698
 30
       19.908753
 11
     1101.428537
 21
      984.525023
 31
       19.962260
  0
LINE
  8
Default
 62
255
 10
     1101.428537
 20
      984.525023
 30
       19.962260
 11
     1101.345454
 21
      984.579067
 31
       19.998483
  0
LINE
  8
Default
 62
255
 10
     1101.345454
 20
      984.579067
 30
       19.998483
 11
     1101.257415
 21
      984.652203
 31
       19.989452
  0
LINE
  8
Default
 62
255
 10
     1101.257415
 20
      984.652203
 30
       19.989452
 11
     1101.178776
 21
      984.708896
 31
       19.979149
  0
LINE
  8
Default
 62
255
 10
     1101.119486
 20
      984.562953
 30
       20.068420
 11
     1101.149296
 21
      984.545697
 31
       20.051695
  0
LINE
  8
Default
 62
255
 10
     1101.149296
 20
      984.545697
 30
       20.051695
 11
     1101.204710
 21
      984.515285
 31
       20.040748
  0
LINE
  8
Default
 62
255
 10
     1101.204710
 20
      984.515285
 30
       20.040748
 11
     1101.262264
 21
      984.477247
 31
       20.033213
  0
LINE
  8
Default
 62
255
 10
     1101.262264
 20
      984.477247
 30
       20.033213
 11
     1101.333587
 21
      984.418795
 31
       20.018383
  0
LINE
  8
Default
 62
255
 10
     1101.333587
 20
      984.418795
 30
       20.018383
 11
     1101.387133
 21
      984.383233
 31
       19.986058
  0
LINE
  8
Default
 62
255
 10
     1101.387133
 20
      984.383233
 30
       19.986058
 11
     1101.356426
 21
      984.335231
 31
       20.000971
  0
LINE
  8
Default
 62
255
 10
     1101.356426
 20
      984.335231
 30
       20.000971
 11
     1101.318929
 21
      984.268121
 31
       20.001698
  0
LINE
  8
Default
 62
255
 10
     1101.318929
 20
      984.268121
 30
       20.001698
 11
     1101.284796
 21
      984.217094
 31
       20.013845
  0
LINE
  8
Default
 62
255
 10
     1101.284796
 20
      984.217094
 30
       20.013845
 11
     1101.251793
 21
      984.175449
 31
       19.997989
  0
LINE
  8
Default
 62
255
 10
     1101.251793
 20
      984.175449
 30
       19.997989
 11
     1101.190358
 21
      984.100856
 31
       20.024157
  0
LINE
  8
Default
 62
255
 10
     1101.190358
 20
      984.100856
 30
       20.024157
 11
     1101.141654
 21
      984.128413
 31
       19.969277
  0
LINE
  8
Default
 62
255
 10
     1101.141654
 20
      984.128413
 30
       19.969277
 11
     1101.054701
 21
      984.198525
 31
       20.048138
  0
LINE
  8
Default
 62
255
 10
     1101.054701
 20
      984.198525
 30
       20.048138
 11
     1100.992350
 21
      984.245322
 31
       20.040894
  0
LINE
  8
Default
 62
255
 10
     1100.992350
 20
      984.245322
 30
       20.040894
 11
     1100.924022
 21
      984.295380
 31
       20.080386
  0
LINE
  8
Default
 62
255
 10
     1100.924022
 20
      984.295380
 30
       20.080386
 11
     1100.969303
 21
      984.351374
 31
       20.067127
  0
LINE
  8
Default
 62
255
 10
     1100.969303
 20
      984.351374
 30
       20.067127
 11
     1101.018435
 21
      984.431866
 31
       20.061170
  0
LINE
  8
Default
 62
255
 10
     1101.018435
 20
      984.431866
 30
       20.061170
 11
     1101.062061
 21
      984.482585
 31
       20.061145
  0
LINE
  8
Default
 62
255
 10
     1101.062061
 20
      984.482585
 30
       20.061145
 11
     1101.084266
 21
      984.515975
 31
       20.064102
  0
LINE
  8
Default
 62
255
 10
     1101.084266
 20
      984.515975
 30
       20.064102
 11
     1101.119486
 21
      984.562953
 31
       20.068420
  0
LINE
  8
Default
 62
255
 10
     1101.315148
 20
      984.393159
 30
       19.813260
 11
     1101.254210
 21
      984.449117
 31
       19.818072
  0
LINE
  8
Default
 62
255
 10
     1101.254210
 20
      984.449117
 30
       19.818072
 11
     1101.201174
 21
      984.486423
 31
       19.816057
  0
LINE
  8
Default
 62
255
 10
     1101.201174
 20
      984.486423
 30
       19.816057
 11
     1101.155316
 21
      984.522271
 31
       19.811705
  0
LINE
  8
Default
 62
255
 10
     1101.155316
 20
      984.522271
 30
       19.811705
 11
     1101.097301
 21
      984.501382
 31
       19.824820
  0
LINE
  8
Default
 62
255
 10
     1101.097301
 20
      984.501382
 30
       19.824820
 11
     1101.059917
 21
      984.455089
 31
       19.824953
  0
LINE
  8
Default
 62
255
 10
     1101.059917
 20
      984.455089
 30
       19.824953
 11
     1101.030776
 21
      984.421714
 31
       19.826498
  0
LINE
  8
Default
 62
255
 10
     1101.030776
 20
      984.421714
 30
       19.826498
 11
     1100.990202
 21
      984.347595
 31
       19.836137
  0
LINE
  8
Default
 62
255
 10
     1100.990202
 20
      984.347595
 30
       19.836137
 11
     1100.960786
 21
      984.300957
 31
       19.850034
  0
LINE
  8
Default
 62
255
 10
     1100.960786
 20
      984.300957
 30
       19.850034
 11
     1100.994820
 21
      984.270646
 31
       19.839537
  0
LINE
  8
Default
 62
255
 10
     1100.994820
 20
      984.270646
 30
       19.839537
 11
     1101.055662
 21
      984.219720
 31
       19.852781
  0
LINE
  8
Default
 62
255
 10
     1101.055662
 20
      984.219720
 30
       19.852781
 11
     1101.121296
 21
      984.160932
 31
       19.869902
  0
LINE
  8
Default
 62
255
 10
     1101.121296
 20
      984.160932
 30
       19.869902
 11
     1101.167861
 21
      984.131041
 31
       19.860937
  0
LINE
  8
Default
 62
255
 10
     1101.167861
 20
      984.131041
 30
       19.860937
 11
     1101.206502
 21
      984.170710
 31
       19.836383
  0
LINE
  8
Default
 62
255
 10
     1101.206502
 20
      984.170710
 30
       19.836383
 11
     1101.229215
 21
      984.204386
 31
       19.832091
  0
LINE
  8
Default
 62
255
 10
     1101.229215
 20
      984.204386
 30
       19.832091
 11
     1101.265536
 21
      984.238463
 31
       19.795277
  0
LINE
  8
Default
 62
255
 10
     1101.265536
 20
      984.238463
 30
       19.795277
 11
     1101.278732
 21
      984.273829
 31
       19.815925
  0
LINE
  8
Default
 62
255
 10
     1101.278732
 20
      984.273829
 30
       19.815925
 11
     1101.340390
 21
      984.364615
 31
       19.818768
  0
LINE
  8
Default
 62
255
 10
     1101.340390
 20
      984.364615
 30
       19.818768
 11
     1101.315148
 21
      984.393159
 31
       19.813260
  0
ENDSEC
  0
EOF
