  0
SECTION
  2
HEADER
  9
$PDMODE
 70
   34
  9
$PDSIZE
 40
   -3.0
  0
ENDSEC
  0
SECTION
  2
TABLES
  0
TABLE
  2
LTYPE
 70
 1
  0
LTYPE
  2
CONTINUOUS
  70
 64
  3
Solid line
  72
 65
 73
 0
  40
 0.0
  0
ENDTAB
  0
TABLE
  2
LAYER
 70
 1
 0
LAYER
  2
Default
  70
 0
 62
 7
  6
CONTINUOUS
  0
ENDTAB
  0 
ENDSEC
  0
SECTION
  2
ENTITIES
  0
POINT
  8
Default
 62
255
 10
     1094.554000
 20
     1002.875000
 30
       16.762000
  0
POINT
  8
Default
 62
255
 10
     1095.331000
 20
     1002.579000
 30
       16.806000
  0
POINT
  8
Default
 62
255
 10
     1094.478000
 20
     1001.537000
 30
       16.817000
  0
POINT
  8
Default
 62
255
 10
     1093.764000
 20
     1001.837000
 30
       16.687000
  0
POINT
  8
Default
 62
255
 10
     1093.982519
 20
     1001.626842
 30
       16.858809
  0
POINT
  8
Default
 62
255
 10
     1094.169365
 20
     1001.739534
 30
       16.840448
  0
POINT
  8
Default
 62
255
 10
     1094.302282
 20
     1001.864358
 30
       16.824423
  0
POINT
  8
Default
 62
255
 10
     1094.415767
 20
     1001.987493
 30
       16.822485
  0
POINT
  8
Default
 62
255
 10
     1094.732963
 20
     1001.975828
 30
       16.826351
  0
POINT
  8
Default
 62
255
 10
     1094.705791
 20
     1002.435105
 30
       16.748018
  0
POINT
  8
Default
 62
255
 10
     1094.706377
 20
     1002.580256
 30
       16.730962
  0
POINT
  8
Default
 62
255
 10
     1095.208340
 20
     1002.495547
 30
       16.794982
  0
POINT
  8
Default
 62
255
 10
     1095.124395
 20
     1002.730157
 30
       16.772823
  0
POINT
  8
Default
 62
255
 10
     1094.896395
 20
     1002.800363
 30
       16.762466
  0
POINT
  8
Default
 62
255
 10
     1094.646792
 20
     1002.754127
 30
       16.767910
  0
POINT
  8
Default
 62
255
 10
     1094.466190
 20
     1002.757358
 30
       16.775571
  0
POINT
  8
Default
 62
255
 10
     1094.382342
 20
     1002.654761
 30
       16.554041
  0
POINT
  8
Default
 62
255
 10
     1094.330037
 20
     1002.468119
 30
       16.514972
  0
POINT
  8
Default
 62
255
 10
     1094.573447
 20
     1002.513045
 30
       16.579558
  0
POINT
  8
Default
 62
255
 10
     1093.972439
 20
     1002.315150
 30
       16.554825
  0
POINT
  8
Default
 62
255
 10
     1094.009856
 20
     1002.167639
 30
       16.530117
  0
POINT
  8
Default
 62
255
 10
     1093.936038
 20
     1002.088971
 30
       16.526272
  0
POINT
  8
Default
 62
255
 10
     1093.984249
 20
     1001.831710
 30
       16.753310
  0
POINT
  8
Default
 62
255
 10
     1093.867495
 20
     1001.696631
 30
       16.847168
  0
POINT
  8
Default
 62
255
 10
     1093.711565
 20
     1001.732399
 30
       16.940099
  0
POINT
  8
Default
 62
255
 10
     1093.686171
 20
     1001.865682
 30
       16.891671
  0
POINT
  8
Default
 62
255
 10
     1093.758864
 20
     1002.067024
 30
       16.878771
  0
POINT
  8
Default
 62
255
 10
     1094.195715
 20
     1001.575382
 30
       16.837971
  0
POINT
  8
Default
 62
255
 10
     1094.221812
 20
     1001.612806
 30
       16.829521
  0
POINT
  8
Default
 62
255
 10
     1094.251087
 20
     1001.648332
 30
       16.818550
  0
POINT
  8
Default
 62
255
 10
     1094.278222
 20
     1001.682539
 30
       16.815117
  0
POINT
  8
Default
 62
255
 10
     1094.309283
 20
     1001.712140
 30
       16.810273
  0
POINT
  8
Default
 62
255
 10
     1094.339967
 20
     1001.746744
 30
       16.812442
  0
POINT
  8
Default
 62
255
 10
     1094.364623
 20
     1001.785532
 30
       16.815384
  0
POINT
  8
Default
 62
255
 10
     1094.392948
 20
     1001.823673
 30
       16.820321
  0
POINT
  8
Default
 62
255
 10
     1094.420848
 20
     1001.860670
 30
       16.819644
  0
POINT
  8
Default
 62
255
 10
     1094.448973
 20
     1001.899529
 30
       16.818274
  0
POINT
  8
Default
 62
255
 10
     1094.474900
 20
     1001.938735
 30
       16.825944
  0
POINT
  8
Default
 62
255
 10
     1094.502551
 20
     1001.977273
 30
       16.831084
  0
POINT
  8
Default
 62
255
 10
     1094.534916
 20
     1002.012010
 30
       16.833156
  0
POINT
  8
Default
 62
255
 10
     1094.558459
 20
     1002.051314
 30
       16.832242
  0
POINT
  8
Default
 62
255
 10
     1094.580103
 20
     1002.093456
 30
       16.822318
  0
POINT
  8
Default
 62
255
 10
     1094.604423
 20
     1002.132416
 30
       16.822914
  0
POINT
  8
Default
 62
255
 10
     1094.637346
 20
     1002.170955
 30
       16.824920
  0
POINT
  8
Default
 62
255
 10
     1094.668069
 20
     1002.206685
 30
       16.823998
  0
POINT
  8
Default
 62
255
 10
     1094.702074
 20
     1002.241935
 30
       16.813013
  0
POINT
  8
Default
 62
255
 10
     1094.729809
 20
     1002.278677
 30
       16.804939
  0
POINT
  8
Default
 62
255
 10
     1094.758454
 20
     1002.315306
 30
       16.801542
  0
POINT
  8
Default
 62
255
 10
     1094.786803
 20
     1002.345908
 30
       16.785771
  0
POINT
  8
Default
 62
255
 10
     1094.819759
 20
     1002.381691
 30
       16.781555
  0
POINT
  8
Default
 62
255
 10
     1094.852887
 20
     1002.415049
 30
       16.773650
  0
POINT
  8
Default
 62
255
 10
     1094.889723
 20
     1002.448394
 30
       16.769815
  0
POINT
  8
Default
 62
255
 10
     1094.923968
 20
     1002.481954
 30
       16.768614
  0
POINT
  8
Default
 62
255
 10
     1094.952533
 20
     1002.509307
 30
       16.761105
  0
POINT
  8
Default
 62
255
 10
     1094.990569
 20
     1002.540731
 30
       16.763138
  0
POINT
  8
Default
 62
255
 10
     1095.029496
 20
     1002.566660
 30
       16.764684
  0
POINT
  8
Default
 62
255
 10
     1095.065237
 20
     1002.589545
 30
       16.767458
  0
POINT
  8
Default
 62
255
 10
     1095.099860
 20
     1002.620869
 30
       16.772718
  0
POINT
  8
Default
 62
255
 10
     1095.133025
 20
     1002.654342
 30
       16.772427
  0
POINT
  8
Default
 62
255
 10
     1095.170001
 20
     1002.683727
 30
       16.780023
  0
POINT
  8
Default
 62
255
 10
     1095.206460
 20
     1002.713978
 30
       16.789609
  0
POINT
  8
Default
 62
255
 10
     1095.237175
 20
     1002.744900
 30
       16.788168
  0
POINT
  8
Default
 62
255
 10
     1095.093371
 20
     1002.891578
 30
       16.793811
  0
POINT
  8
Default
 62
255
 10
     1095.052128
 20
     1002.874199
 30
       16.784256
  0
POINT
  8
Default
 62
255
 10
     1094.824137
 20
     1002.821335
 30
       16.773278
  0
POINT
  8
Default
 62
255
 10
     1094.776685
 20
     1002.812706
 30
       16.777977
  0
POINT
  8
Default
 62
255
 10
     1094.729422
 20
     1002.807164
 30
       16.782019
  0
POINT
  8
Default
 62
255
 10
     1094.685970
 20
     1002.808798
 30
       16.783219
  0
POINT
  8
Default
 62
255
 10
     1094.631420
 20
     1002.816074
 30
       16.782227
  0
POINT
  8
Default
 62
255
 10
     1094.590057
 20
     1002.811873
 30
       16.783767
  0
POINT
  8
Default
 62
255
 10
     1094.560724
 20
     1002.782727
 30
       16.780464
  0
POINT
  8
Default
 62
255
 10
     1094.557008
 20
     1002.734780
 30
       16.761136
  0
POINT
  8
Default
 62
255
 10
     1094.557687
 20
     1002.696910
 30
       16.730930
  0
POINT
  8
Default
 62
255
 10
     1094.550917
 20
     1002.673705
 30
       16.683239
  0
POINT
  8
Default
 62
255
 10
     1094.544329
 20
     1002.651739
 30
       16.642718
  0
POINT
  8
Default
 62
255
 10
     1094.522540
 20
     1002.641201
 30
       16.604579
  0
POINT
  8
Default
 62
255
 10
     1094.490165
 20
     1002.640227
 30
       16.572688
  0
POINT
  8
Default
 62
255
 10
     1094.455914
 20
     1002.611585
 30
       16.550348
  0
POINT
  8
Default
 62
255
 10
     1094.429398
 20
     1002.576824
 30
       16.533693
  0
POINT
  8
Default
 62
255
 10
     1094.383713
 20
     1002.560389
 30
       16.528210
  0
POINT
  8
Default
 62
255
 10
     1094.341045
 20
     1002.561922
 30
       16.540955
  0
POINT
  8
Default
 62
255
 10
     1094.308078
 20
     1002.561329
 30
       16.572588
  0
POINT
  8
Default
 62
255
 10
     1094.286329
 20
     1002.564673
 30
       16.614953
  0
POINT
  8
Default
 62
255
 10
     1094.266667
 20
     1002.562589
 30
       16.657474
  0
POINT
  8
Default
 62
255
 10
     1094.241650
 20
     1002.544356
 30
       16.684274
  0
POINT
  8
Default
 62
255
 10
     1094.214712
 20
     1002.505247
 30
       16.679388
  0
POINT
  8
Default
 62
255
 10
     1094.186747
 20
     1002.467423
 30
       16.659393
  0
POINT
  8
Default
 62
255
 10
     1094.136310
 20
     1002.460732
 30
       16.389024
  0
POINT
  8
Default
 62
255
 10
     1094.113411
 20
     1002.427364
 30
       16.397407
  0
POINT
  8
Default
 62
255
 10
     1094.059846
 20
     1002.343008
 30
       16.384984
  0
POINT
  8
Default
 62
255
 10
     1094.033470
 20
     1002.310901
 30
       16.399361
  0
POINT
  8
Default
 62
255
 10
     1094.027860
 20
     1002.271787
 30
       16.528327
  0
POINT
  8
Default
 62
255
 10
     1093.998799
 20
     1002.240919
 30
       16.540571
  0
POINT
  8
Default
 62
255
 10
     1093.961500
 20
     1002.207535
 30
       16.548319
  0
POINT
  8
Default
 62
255
 10
     1093.911933
 20
     1002.157353
 30
       16.500474
  0
POINT
  8
Default
 62
255
 10
     1093.901917
 20
     1002.135486
 30
       16.530504
  0
POINT
  8
Default
 62
255
 10
     1093.888292
 20
     1002.098861
 30
       16.563440
  0
POINT
  8
Default
 62
255
 10
     1093.883648
 20
     1002.062105
 30
       16.589279
  0
POINT
  8
Default
 62
255
 10
     1093.869970
 20
     1002.015383
 30
       16.619462
  0
POINT
  8
Default
 62
255
 10
     1094.362406
 20
     1001.623925
 30
       16.817454
  0
POINT
  8
Default
 62
255
 10
     1094.319285
 20
     1001.655083
 30
       16.813987
  0
POINT
  8
Default
 62
255
 10
     1094.265888
 20
     1001.720275
 30
       16.820477
  0
POINT
  8
Default
 62
255
 10
     1094.241483
 20
     1001.758502
 30
       16.830582
  0
POINT
  8
Default
 62
255
 10
     1094.215109
 20
     1001.795000
 30
       16.844683
  0
POINT
  8
Default
 62
255
 10
     1094.166147
 20
     1001.801194
 30
       16.847296
  0
POINT
  8
Default
 62
255
 10
     1094.120906
 20
     1001.811161
 30
       16.825020
  0
POINT
  8
Default
 62
255
 10
     1094.079225
 20
     1001.815988
 30
       16.815747
  0
POINT
  8
Default
 62
255
 10
     1094.036541
 20
     1001.798625
 30
       16.810450
  0
POINT
  8
Default
 62
255
 10
     1093.994945
 20
     1001.771701
 30
       16.806475
  0
POINT
  8
Default
 62
255
 10
     1093.951353
 20
     1001.762414
 30
       16.795750
  0
POINT
  8
Default
 62
255
 10
     1093.925009
 20
     1001.788685
 30
       16.773805
  0
POINT
  8
Default
 62
255
 10
     1093.913948
 20
     1001.829163
 30
       16.744920
  0
POINT
  8
Default
 62
255
 10
     1093.923183
 20
     1001.862535
 30
       16.711125
  0
POINT
  8
Default
 62
255
 10
     1093.940658
 20
     1001.886161
 30
       16.680619
  0
POINT
  8
Default
 62
255
 10
     1093.969023
 20
     1001.918951
 30
       16.645298
  0
POINT
  8
Default
 62
255
 10
     1093.992110
 20
     1001.946336
 30
       16.623800
  0
POINT
  8
Default
 62
255
 10
     1094.020665
 20
     1001.976114
 30
       16.600241
  0
POINT
  8
Default
 62
255
 10
     1094.032258
 20
     1002.001716
 30
       16.557431
  0
POINT
  8
Default
 62
255
 10
     1094.030413
 20
     1002.020465
 30
       16.497783
  0
POINT
  8
Default
 62
255
 10
     1094.206097
 20
     1002.122772
 30
       16.501254
  0
POINT
  8
Default
 62
255
 10
     1094.229711
 20
     1002.164643
 30
       16.488646
  0
POINT
  8
Default
 62
255
 10
     1094.264214
 20
     1002.193699
 30
       16.476411
  0
POINT
  8
Default
 62
255
 10
     1094.472206
 20
     1002.339922
 30
       16.539418
  0
POINT
  8
Default
 62
255
 10
     1094.510270
 20
     1002.345289
 30
       16.582387
  0
POINT
  8
Default
 62
255
 10
     1094.532658
 20
     1002.382478
 30
       16.581005
  0
POINT
  8
Default
 62
255
 10
     1094.556240
 20
     1002.416375
 30
       16.586105
  0
POINT
  8
Default
 62
255
 10
     1094.576973
 20
     1002.406988
 30
       16.618781
  0
POINT
  8
Default
 62
255
 10
     1094.607269
 20
     1002.380320
 30
       16.646716
  0
POINT
  8
Default
 62
255
 10
     1094.637332
 20
     1002.362735
 30
       16.684717
  0
POINT
  8
Default
 62
255
 10
     1094.658297
 20
     1002.348039
 30
       16.725998
  0
POINT
  8
Default
 62
255
 10
     1094.678563
 20
     1002.320236
 30
       16.761109
  0
POINT
  8
Default
 62
255
 10
     1094.696410
 20
     1002.292700
 30
       16.782665
  0
POINT
  8
Default
 62
255
 10
     1094.724210
 20
     1002.211603
 30
       16.827184
  0
POINT
  8
Default
 62
255
 10
     1094.724509
 20
     1002.166090
 30
       16.839762
  0
POINT
  8
Default
 62
255
 10
     1094.717453
 20
     1002.120061
 30
       16.837926
  0
POINT
  8
Default
 62
255
 10
     1094.701985
 20
     1002.076202
 30
       16.833992
  0
POINT
  8
Default
 62
255
 10
     1094.676024
 20
     1002.037333
 30
       16.834810
  0
POINT
  8
Default
 62
255
 10
     1094.633427
 20
     1002.043300
 30
       16.835209
  0
POINT
  8
Default
 62
255
 10
     1094.594784
 20
     1002.074811
 30
       16.828626
  0
POINT
  8
Default
 62
255
 10
     1094.551862
 20
     1002.101107
 30
       16.824380
  0
POINT
  8
Default
 62
255
 10
     1094.515341
 20
     1002.126596
 30
       16.821259
  0
POINT
  8
Default
 62
255
 10
     1094.492237
 20
     1002.154512
 30
       16.787891
  0
POINT
  8
Default
 62
255
 10
     1094.468832
 20
     1002.179729
 30
       16.749110
  0
POINT
  8
Default
 62
255
 10
     1094.251747
 20
     1002.277347
 30
       16.326928
  0
POINT
  8
Default
 62
255
 10
     1094.204896
 20
     1002.278636
 30
       16.316197
  0
POINT
  8
Default
 62
255
 10
     1094.159399
 20
     1002.276080
 30
       16.329201
  0
POINT
  8
Default
 62
255
 10
     1094.134475
 20
     1002.304975
 30
       16.355021
  0
POINT
  8
Default
 62
255
 10
     1094.117321
 20
     1002.347452
 30
       16.360476
  0
POINT
  8
Default
 62
255
 10
     1094.089308
 20
     1002.380960
 30
       16.378853
  0
POINT
  8
Default
 62
255
 10
     1094.059504
 20
     1002.414792
 30
       16.401587
  0
POINT
  8
Default
 62
255
 10
     1094.038178
 20
     1002.415747
 30
       16.616818
  0
POINT
  8
Default
 62
255
 10
     1094.043390
 20
     1002.462509
 30
       16.628967
  0
POINT
  8
Default
 62
255
 10
     1094.054597
 20
     1002.498979
 30
       16.645195
  0
POINT
  8
Default
 62
255
 10
     1094.081080
 20
     1002.540788
 30
       16.662954
  0
POINT
  8
Default
 62
255
 10
     1094.110620
 20
     1002.574822
 30
       16.677336
  0
POINT
  8
Default
 62
255
 10
     1094.156683
 20
     1002.595399
 30
       16.695002
  0
POINT
  8
Default
 62
255
 10
     1094.175058
 20
     1002.619712
 30
       16.642544
  0
POINT
  8
Default
 62
255
 10
     1094.196103
 20
     1002.646729
 30
       16.616965
  0
POINT
  8
Default
 62
255
 10
     1094.226217
 20
     1002.678781
 30
       16.628343
  0
POINT
  8
Default
 62
255
 10
     1094.248717
 20
     1002.709065
 30
       16.654377
  0
POINT
  8
Default
 62
255
 10
     1094.268107
 20
     1002.725300
 30
       16.696644
  0
POINT
  8
Default
 62
255
 10
     1094.287835
 20
     1002.737150
 30
       16.754405
  0
POINT
  8
Default
 62
255
 10
     1094.057925
 20
     1001.703431
 30
       16.845019
  0
POINT
  8
Default
 62
255
 10
     1094.155543
 20
     1001.637791
 30
       16.838607
  0
POINT
  8
Default
 62
255
 10
     1094.061170
 20
     1001.615284
 30
       16.857873
  0
POINT
  8
Default
 62
255
 10
     1093.990109
 20
     1001.686318
 30
       16.865452
  0
POINT
  8
Default
 62
255
 10
     1094.295393
 20
     1001.537434
 30
       16.803158
  0
POINT
  8
Default
 62
255
 10
     1094.361654
 20
     1001.476529
 30
       16.814465
  0
POINT
  8
Default
 62
255
 10
     1094.493850
 20
     1001.390139
 30
       16.812415
  0
POINT
  8
Default
 62
255
 10
     1094.571079
 20
     1001.525868
 30
       16.766789
  0
POINT
  8
Default
 62
255
 10
     1094.499322
 20
     1001.611873
 30
       16.781694
  0
POINT
  8
Default
 62
255
 10
     1094.626367
 20
     1001.798841
 30
       16.786914
  0
POINT
  8
Default
 62
255
 10
     1094.494335
 20
     1001.764105
 30
       16.806075
  0
POINT
  8
Default
 62
255
 10
     1094.480472
 20
     1001.836062
 30
       16.810940
  0
POINT
  8
Default
 62
255
 10
     1094.551888
 20
     1001.931191
 30
       16.815598
  0
POINT
  8
Default
 62
255
 10
     1094.844124
 20
     1002.076049
 30
       16.830353
  0
POINT
  8
Default
 62
255
 10
     1094.800772
 20
     1002.181218
 30
       16.833963
  0
POINT
  8
Default
 62
255
 10
     1094.882618
 20
     1002.283694
 30
       16.830904
  0
POINT
  8
Default
 62
255
 10
     1094.794026
 20
     1002.271491
 30
       16.819910
  0
POINT
  8
Default
 62
255
 10
     1094.883241
 20
     1002.360133
 30
       16.798558
  0
POINT
  8
Default
 62
255
 10
     1094.957806
 20
     1002.360921
 30
       16.829670
  0
POINT
  8
Default
 62
255
 10
     1095.000587
 20
     1002.243838
 30
       16.837515
  0
POINT
  8
Default
 62
255
 10
     1094.894340
 20
     1002.203774
 30
       16.838753
  0
POINT
  8
Default
 62
255
 10
     1095.090251
 20
     1002.345064
 30
       16.822184
  0
POINT
  8
Default
 62
255
 10
     1094.945752
 20
     1002.391618
 30
       16.802298
  0
POINT
  8
Default
 62
255
 10
     1095.090782
 20
     1002.458443
 30
       16.813316
  0
POINT
  8
Default
 62
255
 10
     1095.120923
 20
     1002.540834
 30
       16.775380
  0
POINT
  8
Default
 62
255
 10
     1094.996373
 20
     1002.488208
 30
       16.771223
  0
POINT
  8
Default
 62
255
 10
     1095.373048
 20
     1002.512181
 30
       16.748227
  0
POINT
  8
Default
 62
255
 10
     1095.382982
 20
     1002.681138
 30
       16.783652
  0
POINT
  8
Default
 62
255
 10
     1095.452375
 20
     1002.622511
 30
       16.760301
  0
POINT
  8
Default
 62
255
 10
     1095.266060
 20
     1002.620632
 30
       16.790373
  0
POINT
  8
Default
 62
255
 10
     1095.257743
 20
     1002.426915
 30
       16.790733
  0
POINT
  8
Default
 62
255
 10
     1095.170522
 20
     1002.349749
 30
       16.813537
  0
POINT
  8
Default
 62
255
 10
     1095.154890
 20
     1002.433886
 30
       16.807717
  0
POINT
  8
Default
 62
255
 10
     1095.333227
 20
     1002.732172
 30
       16.786016
  0
POINT
  8
Default
 62
255
 10
     1095.279487
 20
     1002.773383
 30
       16.788908
  0
POINT
  8
Default
 62
255
 10
     1095.352430
 20
     1002.818941
 30
       16.800279
  0
POINT
  8
Default
 62
255
 10
     1095.416704
 20
     1002.779225
 30
       16.782308
  0
POINT
  8
Default
 62
255
 10
     1095.256024
 20
     1002.843611
 30
       16.799630
  0
POINT
  8
Default
 62
255
 10
     1095.193504
 20
     1002.856860
 30
       16.789495
  0
POINT
  8
Default
 62
255
 10
     1095.107956
 20
     1002.839105
 30
       16.782338
  0
POINT
  8
Default
 62
255
 10
     1095.190161
 20
     1002.784946
 30
       16.782182
  0
POINT
  8
Default
 62
255
 10
     1095.014745
 20
     1002.804964
 30
       16.762594
  0
POINT
  8
Default
 62
255
 10
     1095.024623
 20
     1002.678272
 30
       16.759225
  0
POINT
  8
Default
 62
255
 10
     1094.926773
 20
     1002.681216
 30
       16.754372
  0
POINT
  8
Default
 62
255
 10
     1094.906549
 20
     1002.576519
 30
       16.746127
  0
POINT
  8
Default
 62
255
 10
     1094.750963
 20
     1002.356731
 30
       16.781800
  0
POINT
  8
Default
 62
255
 10
     1094.714072
 20
     1002.529502
 30
       16.747268
  0
POINT
  8
Default
 62
255
 10
     1094.795308
 20
     1002.465038
 30
       16.757573
  0
POINT
  8
Default
 62
255
 10
     1094.766480
 20
     1002.742004
 30
       16.762026
  0
POINT
  8
Default
 62
255
 10
     1094.811770
 20
     1002.618255
 30
       16.759446
  0
POINT
  8
Default
 62
255
 10
     1094.703427
 20
     1002.655405
 30
       16.746935
  0
POINT
  8
Default
 62
255
 10
     1094.650875
 20
     1002.654441
 30
       16.742532
  0
POINT
  8
Default
 62
255
 10
     1094.665534
 20
     1002.549109
 30
       16.693759
  0
POINT
  8
Default
 62
255
 10
     1094.551110
 20
     1002.241438
 30
       16.754746
  0
POINT
  8
Default
 62
255
 10
     1094.629448
 20
     1002.226342
 30
       16.788803
  0
POINT
  8
Default
 62
255
 10
     1094.574796
 20
     1002.182485
 30
       16.803711
  0
POINT
  8
Default
 62
255
 10
     1094.620922
 20
     1002.287442
 30
       16.739592
  0
POINT
  8
Default
 62
255
 10
     1094.331752
 20
     1001.982643
 30
       16.813539
  0
POINT
  8
Default
 62
255
 10
     1094.459913
 20
     1002.065481
 30
       16.827674
  0
POINT
  8
Default
 62
255
 10
     1094.396066
 20
     1002.064228
 30
       16.799550
  0
POINT
  8
Default
 62
255
 10
     1094.258483
 20
     1001.972843
 30
       16.769669
  0
POINT
  8
Default
 62
255
 10
     1094.213857
 20
     1001.858692
 30
       16.846259
  0
POINT
  8
Default
 62
255
 10
     1094.196430
 20
     1001.903277
 30
       16.788282
  0
POINT
  8
Default
 62
255
 10
     1094.282419
 20
     1001.915272
 30
       16.812265
  0
POINT
  8
Default
 62
255
 10
     1094.138467
 20
     1001.866210
 30
       16.797672
  0
POINT
  8
Default
 62
255
 10
     1094.045569
 20
     1001.543727
 30
       16.917807
  0
POINT
  8
Default
 62
255
 10
     1093.780404
 20
     1001.699535
 30
       16.893404
  0
POINT
  8
Default
 62
255
 10
     1093.698195
 20
     1001.818029
 30
       16.913709
  0
POINT
  8
Default
 62
255
 10
     1093.762806
 20
     1001.779633
 30
       16.848338
  0
POINT
  8
Default
 62
255
 10
     1093.943029
 20
     1001.704591
 30
       16.836856
  0
POINT
  8
Default
 62
255
 10
     1093.893095
 20
     1001.730956
 30
       16.799522
  0
POINT
  8
Default
 62
255
 10
     1093.810761
 20
     1001.744800
 30
       16.850986
  0
POINT
  8
Default
 62
255
 10
     1093.826264
 20
     1001.779184
 30
       16.766181
  0
POINT
  8
Default
 62
255
 10
     1093.722396
 20
     1001.987359
 30
       16.899807
  0
POINT
  8
Default
 62
255
 10
     1093.727334
 20
     1001.909154
 30
       16.853090
  0
POINT
  8
Default
 62
255
 10
     1093.748842
 20
     1001.937184
 30
       16.798372
  0
POINT
  8
Default
 62
255
 10
     1093.754762
 20
     1001.858262
 30
       16.759907
  0
POINT
  8
Default
 62
255
 10
     1093.803463
 20
     1001.904569
 30
       16.713746
  0
POINT
  8
Default
 62
255
 10
     1093.874341
 20
     1001.870785
 30
       16.707912
  0
POINT
  8
Default
 62
255
 10
     1093.925195
 20
     1001.960812
 30
       16.612561
  0
POINT
  8
Default
 62
255
 10
     1093.826518
 20
     1002.048948
 30
       16.715575
  0
POINT
  8
Default
 62
255
 10
     1093.784026
 20
     1001.983826
 30
       16.737049
  0
POINT
  8
Default
 62
255
 10
     1093.816918
 20
     1002.161403
 30
       16.914751
  0
POINT
  8
Default
 62
255
 10
     1093.811246
 20
     1002.091242
 30
       16.790845
  0
POINT
  8
Default
 62
255
 10
     1093.879702
 20
     1002.207892
 30
       16.800156
  0
POINT
  8
Default
 62
255
 10
     1094.391106
 20
     1002.485324
 30
       16.530138
  0
POINT
  8
Default
 62
255
 10
     1094.399151
 20
     1002.429611
 30
       16.453388
  0
POINT
  8
Default
 62
255
 10
     1094.496522
 20
     1002.432380
 30
       16.568125
  0
POINT
  8
Default
 62
255
 10
     1094.486152
 20
     1002.501072
 30
       16.553412
  0
POINT
  8
Default
 62
255
 10
     1094.585132
 20
     1002.596898
 30
       16.605130
  0
POINT
  8
Default
 62
255
 10
     1094.509153
 20
     1002.577044
 30
       16.561854
  0
POINT
  8
Default
 62
255
 10
     1094.435772
 20
     1002.712089
 30
       16.641438
  0
POINT
  8
Default
 62
255
 10
     1094.383549
 20
     1002.700190
 30
       16.653273
  0
POINT
  8
Default
 62
255
 10
     1094.239395
 20
     1002.622600
 30
       16.584803
  0
POINT
  8
Default
 62
255
 10
     1094.306346
 20
     1002.709221
 30
       16.644069
  0
POINT
  8
Default
 62
255
 10
     1094.337435
 20
     1002.583875
 30
       16.546466
  0
POINT
  8
Default
 62
255
 10
     1094.381381
 20
     1002.515767
 30
       16.511702
  0
POINT
  8
Default
 62
255
 10
     1094.115420
 20
     1002.485417
 30
       16.682467
  0
POINT
  8
Default
 62
255
 10
     1094.211679
 20
     1002.561535
 30
       16.702149
  0
POINT
  8
Default
 62
255
 10
     1094.295958
 20
     1002.538089
 30
       16.634672
  0
POINT
  8
Default
 62
255
 10
     1094.272125
 20
     1002.472331
 30
       16.630316
  0
POINT
  8
Default
 62
255
 10
     1094.184643
 20
     1002.692160
 30
       16.658824
  0
POINT
  8
Default
 62
255
 10
     1094.127999
 20
     1002.651352
 30
       16.693834
  0
POINT
  8
Default
 62
255
 10
     1093.986250
 20
     1002.443886
 30
       16.701420
  0
POINT
  8
Default
 62
255
 10
     1094.044519
 20
     1002.540658
 30
       16.684774
  0
POINT
  8
Default
 62
255
 10
     1093.908364
 20
     1002.387546
 30
       16.554154
  0
POINT
  8
Default
 62
255
 10
     1093.900890
 20
     1002.308920
 30
       16.587398
  0
POINT
  8
Default
 62
255
 10
     1093.895234
 20
     1002.344413
 30
       16.675140
  0
POINT
  8
Default
 62
255
 10
     1093.935292
 20
     1002.250207
 30
       16.552675
  0
POINT
  8
Default
 62
255
 10
     1093.863824
 20
     1002.212435
 30
       16.618662
  0
POINT
  8
Default
 62
255
 10
     1093.887022
 20
     1002.188100
 30
       16.538027
  0
POINT
  8
Default
 62
255
 10
     1094.007684
 20
     1002.356729
 30
       16.415900
  0
POINT
  8
Default
 62
255
 10
     1094.162882
 20
     1002.398290
 30
       16.354185
  0
POINT
  8
Default
 62
255
 10
     1094.268181
 20
     1002.405270
 30
       16.349925
  0
POINT
  8
Default
 62
255
 10
     1094.253199
 20
     1002.335654
 30
       16.337522
  0
POINT
  8
Default
 62
255
 10
     1094.327164
 20
     1002.393735
 30
       16.338518
  0
POINT
  8
Default
 62
255
 10
     1094.087908
 20
     1002.456767
 30
       16.422769
  0
POINT
  8
Default
 62
255
 10
     1094.029148
 20
     1002.370759
 30
       16.398058
  0
POINT
  8
Default
 62
255
 10
     1093.964257
 20
     1002.370080
 30
       16.557466
  0
POINT
  8
Default
 62
255
 10
     1094.497500
 20
     1002.826017
 30
       16.804791
  0
POINT
  8
Default
 62
255
 10
     1094.311655
 20
     1002.768227
 30
       16.810069
  0
POINT
  8
Default
 62
255
 10
     1094.344494
 20
     1002.886142
 30
       16.892512
  0
POINT
  8
Default
 62
255
 10
     1094.413511
 20
     1002.938532
 30
       16.886105
  0
POINT
  8
Default
 62
255
 10
     1094.488022
 20
     1002.925070
 30
       16.841154
  0
POINT
  8
Default
 62
255
 10
     1094.405834
 20
     1002.855506
 30
       16.835806
  0
POINT
  8
Default
 62
255
 10
     1094.395036
 20
     1002.753451
 30
       16.770372
  0
POINT
  8
Default
 62
255
 10
     1094.288952
 20
     1002.825914
 30
       16.882372
  0
POINT
  8
Default
 62
255
 10
     1094.515066
 20
     1002.713455
 30
       16.728987
  0
POINT
  8
Default
 62
255
 10
     1094.239908
 20
     1002.718680
 30
       16.788709
  0
POINT
  8
Default
 62
255
 10
     1094.248986
 20
     1002.755977
 30
       16.838348
  0
POINT
  8
Default
 62
255
 10
     1094.205817
 20
     1002.717742
 30
       16.875606
  0
POINT
  8
Default
 62
255
 10
     1094.158082
 20
     1002.637457
 30
       16.885167
  0
POINT
  8
Default
 62
255
 10
     1094.107553
 20
     1002.569768
 30
       16.866749
  0
POINT
  8
Default
 62
255
 10
     1094.069908
 20
     1002.525495
 30
       16.812871
  0
POINT
  8
Default
 62
255
 10
     1094.046849
 20
     1002.449504
 30
       16.877433
  0
POINT
  8
Default
 62
255
 10
     1093.861969
 20
     1002.210247
 30
       16.892614
  0
POINT
  8
Default
 62
255
 10
     1093.838742
 20
     1002.151754
 30
       16.851086
  0
POINT
  8
Default
 62
255
 10
     1093.855051
 20
     1002.147037
 30
       16.787769
  0
POINT
  8
Default
 62
255
 10
     1093.910984
 20
     1002.292048
 30
       16.875846
  0
POINT
  8
Default
 62
255
 10
     1093.904668
 20
     1002.308106
 30
       16.776786
  0
POINT
  8
Default
 62
255
 10
     1094.007201
 20
     1002.114735
 30
       16.452772
  0
POINT
  8
Default
 62
255
 10
     1094.086036
 20
     1002.234089
 30
       16.489039
  0
POINT
  8
Default
 62
255
 10
     1094.151682
 20
     1002.168659
 30
       16.508896
  0
POINT
  8
Default
 62
255
 10
     1094.099286
 20
     1002.153180
 30
       16.528277
  0
POINT
  8
Default
 62
255
 10
     1093.977418
 20
     1002.066020
 30
       16.485920
  0
POINT
  8
Default
 62
255
 10
     1094.036868
 20
     1002.222265
 30
       16.516872
  0
POINT
  8
Default
 62
255
 10
     1094.024744
 20
     1002.301327
 30
       16.537382
  0
POINT
  8
Default
 62
255
 10
     1094.243385
 20
     1002.206935
 30
       16.488991
  0
POINT
  8
Default
 62
255
 10
     1094.185384
 20
     1002.146471
 30
       16.496285
  0
POINT
  8
Default
 62
255
 10
     1094.150009
 20
     1002.088178
 30
       16.514824
  0
POINT
  8
Default
 62
255
 10
     1094.145923
 20
     1002.133124
 30
       16.514984
  0
POINT
  8
Default
 62
255
 10
     1094.278872
 20
     1002.103690
 30
       16.550880
  0
LINE
  8
Default
 62
255
 10
     1094.107553
 20
     1002.569768
 30
       16.866749
 11
     1094.158082
 21
     1002.637457
 31
       16.885167
  0
LINE
  8
Default
 62
255
 10
     1094.311655
 20
     1002.768227
 30
       16.810069
 11
     1094.395036
 21
     1002.753451
 31
       16.770372
  0
LINE
  8
Default
 62
255
 10
     1094.395036
 20
     1002.753451
 30
       16.770372
 11
     1094.515066
 21
     1002.713455
 31
       16.728987
  0
LINE
  8
Default
 62
255
 10
     1094.515066
 20
     1002.713455
 30
       16.728987
 11
     1094.557687
 21
     1002.696910
 31
       16.730930
  0
LINE
  8
Default
 62
255
 10
     1094.557687
 20
     1002.696910
 30
       16.730930
 11
     1094.650875
 21
     1002.654441
 31
       16.742532
  0
LINE
  8
Default
 62
255
 10
     1094.650875
 20
     1002.654441
 30
       16.742532
 11
     1094.706377
 21
     1002.580256
 31
       16.730962
  0
LINE
  8
Default
 62
255
 10
     1094.706377
 20
     1002.580256
 30
       16.730962
 11
     1094.714072
 21
     1002.529502
 31
       16.747268
  0
LINE
  8
Default
 62
255
 10
     1094.714072
 20
     1002.529502
 30
       16.747268
 11
     1094.705791
 21
     1002.435105
 31
       16.748018
  0
LINE
  8
Default
 62
255
 10
     1094.705791
 20
     1002.435105
 30
       16.748018
 11
     1094.750963
 21
     1002.356731
 31
       16.781800
  0
LINE
  8
Default
 62
255
 10
     1094.750963
 20
     1002.356731
 30
       16.781800
 11
     1094.729809
 21
     1002.278677
 31
       16.804939
  0
LINE
  8
Default
 62
255
 10
     1094.729809
 20
     1002.278677
 30
       16.804939
 11
     1094.702074
 21
     1002.241935
 31
       16.813013
  0
LINE
  8
Default
 62
255
 10
     1094.702074
 20
     1002.241935
 30
       16.813013
 11
     1094.668069
 21
     1002.206685
 31
       16.823998
  0
LINE
  8
Default
 62
255
 10
     1094.668069
 20
     1002.206685
 30
       16.823998
 11
     1094.515341
 21
     1002.126596
 31
       16.821259
  0
LINE
  8
Default
 62
255
 10
     1094.515341
 20
     1002.126596
 30
       16.821259
 11
     1094.459913
 21
     1002.065481
 31
       16.827674
  0
LINE
  8
Default
 62
255
 10
     1094.459913
 20
     1002.065481
 30
       16.827674
 11
     1094.415767
 21
     1001.987493
 31
       16.822485
  0
LINE
  8
Default
 62
255
 10
     1094.415767
 20
     1001.987493
 30
       16.822485
 11
     1094.166147
 21
     1001.801194
 31
       16.847296
  0
LINE
  8
Default
 62
255
 10
     1094.166147
 20
     1001.801194
 30
       16.847296
 11
     1094.057925
 21
     1001.703431
 31
       16.845019
  0
LINE
  8
Default
 62
255
 10
     1094.057925
 20
     1001.703431
 30
       16.845019
 11
     1093.990109
 21
     1001.686318
 31
       16.865452
  0
LINE
  8
Default
 62
255
 10
     1093.990109
 20
     1001.686318
 30
       16.865452
 11
     1093.867495
 21
     1001.696631
 31
       16.847168
  0
LINE
  8
Default
 62
255
 10
     1093.867495
 20
     1001.696631
 30
       16.847168
 11
     1093.810761
 21
     1001.744800
 31
       16.850986
  0
LINE
  8
Default
 62
255
 10
     1093.810761
 20
     1001.744800
 30
       16.850986
 11
     1093.762806
 21
     1001.779633
 31
       16.848338
  0
LINE
  8
Default
 62
255
 10
     1093.762806
 20
     1001.779633
 30
       16.848338
 11
     1093.686171
 21
     1001.865682
 31
       16.891671
  0
LINE
  8
Default
 62
255
 10
     1093.686171
 20
     1001.865682
 30
       16.891671
 11
     1093.722396
 21
     1001.987359
 31
       16.899807
  0
LINE
  8
Default
 62
255
 10
     1093.722396
 20
     1001.987359
 30
       16.899807
 11
     1093.758864
 21
     1002.067024
 31
       16.878771
  0
LINE
  8
Default
 62
255
 10
     1093.861969
 20
     1002.210247
 30
       16.892614
 11
     1093.910984
 21
     1002.292048
 31
       16.875846
  0
LINE
  8
Default
 62
255
 10
     1093.910984
 20
     1002.292048
 30
       16.875846
 11
     1094.046849
 21
     1002.449504
 31
       16.877433
  0
LINE
  8
Default
 62
255
 10
     1094.158082
 20
     1002.637457
 30
       16.885167
 11
     1094.205817
 21
     1002.717742
 31
       16.875606
  0
LINE
  8
Default
 62
255
 10
     1094.205817
 20
     1002.717742
 30
       16.875606
 11
     1094.248986
 21
     1002.755977
 31
       16.838348
  0
LINE
  8
Default
 62
255
 10
     1094.248986
 20
     1002.755977
 30
       16.838348
 11
     1094.311655
 21
     1002.768227
 31
       16.810069
  0
LINE
  8
Default
 62
255
 10
     1094.046849
 20
     1002.449504
 30
       16.877433
 11
     1094.107553
 21
     1002.569768
 31
       16.866749
  0
LINE
  8
Default
 62
255
 10
     1093.758864
 20
     1002.067024
 30
       16.878771
 11
     1093.861969
 21
     1002.210247
 31
       16.892614
  0
LINE
  8
Default
 62
255
 10
     1094.115420
 20
     1002.485417
 30
       16.682467
 11
     1094.186747
 21
     1002.467423
 31
       16.659393
  0
LINE
  8
Default
 62
255
 10
     1094.186747
 20
     1002.467423
 30
       16.659393
 11
     1094.272125
 21
     1002.472331
 31
       16.630316
  0
LINE
  8
Default
 62
255
 10
     1094.272125
 20
     1002.472331
 30
       16.630316
 11
     1094.330037
 21
     1002.468119
 31
       16.514972
  0
LINE
  8
Default
 62
255
 10
     1094.330037
 20
     1002.468119
 30
       16.514972
 11
     1094.391106
 21
     1002.485324
 31
       16.530138
  0
LINE
  8
Default
 62
255
 10
     1094.510270
 20
     1002.345289
 30
       16.582387
 11
     1094.532658
 21
     1002.382478
 31
       16.581005
  0
LINE
  8
Default
 62
255
 10
     1094.532658
 20
     1002.382478
 30
       16.581005
 11
     1094.556240
 21
     1002.416375
 31
       16.586105
  0
LINE
  8
Default
 62
255
 10
     1094.556240
 20
     1002.416375
 30
       16.586105
 11
     1094.573447
 21
     1002.513045
 31
       16.579558
  0
LINE
  8
Default
 62
255
 10
     1094.573447
 20
     1002.513045
 30
       16.579558
 11
     1094.585132
 21
     1002.596898
 31
       16.605130
  0
LINE
  8
Default
 62
255
 10
     1094.585132
 20
     1002.596898
 30
       16.605130
 11
     1094.522540
 21
     1002.641201
 31
       16.604579
  0
LINE
  8
Default
 62
255
 10
     1094.522540
 20
     1002.641201
 30
       16.604579
 11
     1094.435772
 21
     1002.712089
 31
       16.641438
  0
LINE
  8
Default
 62
255
 10
     1094.435772
 20
     1002.712089
 30
       16.641438
 11
     1094.383549
 21
     1002.700190
 31
       16.653273
  0
LINE
  8
Default
 62
255
 10
     1094.383549
 20
     1002.700190
 30
       16.653273
 11
     1094.306346
 21
     1002.709221
 31
       16.644069
  0
LINE
  8
Default
 62
255
 10
     1094.306346
 20
     1002.709221
 30
       16.644069
 11
     1094.248717
 21
     1002.709065
 31
       16.654377
  0
LINE
  8
Default
 62
255
 10
     1093.900890
 20
     1002.308920
 30
       16.587398
 11
     1093.972439
 21
     1002.315150
 31
       16.554825
  0
LINE
  8
Default
 62
255
 10
     1093.972439
 20
     1002.315150
 30
       16.554825
 11
     1094.024744
 21
     1002.301327
 31
       16.537382
  0
LINE
  8
Default
 62
255
 10
     1094.024744
 20
     1002.301327
 30
       16.537382
 11
     1094.027860
 21
     1002.271787
 31
       16.528327
  0
LINE
  8
Default
 62
255
 10
     1094.027860
 20
     1002.271787
 30
       16.528327
 11
     1094.036868
 21
     1002.222265
 31
       16.516872
  0
LINE
  8
Default
 62
255
 10
     1094.036868
 20
     1002.222265
 30
       16.516872
 11
     1094.086036
 21
     1002.234089
 31
       16.489039
  0
LINE
  8
Default
 62
255
 10
     1094.086036
 20
     1002.234089
 30
       16.489039
 11
     1094.151682
 21
     1002.168659
 31
       16.508896
  0
LINE
  8
Default
 62
255
 10
     1094.151682
 20
     1002.168659
 30
       16.508896
 11
     1094.185384
 21
     1002.146471
 31
       16.496285
  0
LINE
  8
Default
 62
255
 10
     1094.185384
 20
     1002.146471
 30
       16.496285
 11
     1094.243385
 21
     1002.206935
 31
       16.488991
  0
LINE
  8
Default
 62
255
 10
     1094.243385
 20
     1002.206935
 30
       16.488991
 11
     1094.264214
 21
     1002.193699
 31
       16.476411
  0
LINE
  8
Default
 62
255
 10
     1093.900890
 20
     1002.308920
 30
       16.587398
 11
     1093.935292
 21
     1002.250207
 31
       16.552675
  0
LINE
  8
Default
 62
255
 10
     1093.935292
 20
     1002.250207
 30
       16.552675
 11
     1093.961500
 21
     1002.207535
 31
       16.548319
  0
LINE
  8
Default
 62
255
 10
     1093.961500
 20
     1002.207535
 30
       16.548319
 11
     1094.009856
 21
     1002.167639
 31
       16.530117
  0
LINE
  8
Default
 62
255
 10
     1094.009856
 20
     1002.167639
 30
       16.530117
 11
     1094.150009
 21
     1002.088178
 31
       16.514824
  0
LINE
  8
Default
 62
255
 10
     1094.150009
 20
     1002.088178
 30
       16.514824
 11
     1094.278872
 21
     1002.103690
 31
       16.550880
  0
LINE
  8
Default
 62
255
 10
     1094.278872
 20
     1002.103690
 30
       16.550880
 11
     1094.264214
 21
     1002.193699
 31
       16.476411
  0
LINE
  8
Default
 62
255
 10
     1094.327164
 20
     1002.393735
 30
       16.338518
 11
     1094.268181
 21
     1002.405270
 31
       16.349925
  0
LINE
  8
Default
 62
255
 10
     1094.268181
 20
     1002.405270
 30
       16.349925
 11
     1094.136310
 21
     1002.460732
 31
       16.389024
  0
LINE
  8
Default
 62
255
 10
     1094.136310
 20
     1002.460732
 30
       16.389024
 11
     1094.087908
 21
     1002.456767
 31
       16.422769
  0
LINE
  8
Default
 62
255
 10
     1094.087908
 20
     1002.456767
 30
       16.422769
 11
     1094.059504
 21
     1002.414792
 31
       16.401587
  0
LINE
  8
Default
 62
255
 10
     1094.059504
 20
     1002.414792
 30
       16.401587
 11
     1094.029148
 21
     1002.370759
 31
       16.398058
  0
LINE
  8
Default
 62
255
 10
     1094.029148
 20
     1002.370759
 30
       16.398058
 11
     1094.033470
 21
     1002.310901
 31
       16.399361
  0
LINE
  8
Default
 62
255
 10
     1094.391106
 20
     1002.485324
 30
       16.530138
 11
     1094.496522
 21
     1002.432380
 31
       16.568125
  0
LINE
  8
Default
 62
255
 10
     1094.496522
 20
     1002.432380
 30
       16.568125
 11
     1094.510270
 21
     1002.345289
 31
       16.582387
  0
LINE
  8
Default
 62
255
 10
     1094.033470
 20
     1002.310901
 30
       16.399361
 11
     1094.159399
 21
     1002.276080
 31
       16.329201
  0
LINE
  8
Default
 62
255
 10
     1094.159399
 20
     1002.276080
 30
       16.329201
 11
     1094.204896
 21
     1002.278636
 31
       16.316197
  0
LINE
  8
Default
 62
255
 10
     1094.204896
 20
     1002.278636
 30
       16.316197
 11
     1094.251747
 21
     1002.277347
 31
       16.326928
  0
LINE
  8
Default
 62
255
 10
     1094.251747
 20
     1002.277347
 30
       16.326928
 11
     1094.327164
 21
     1002.393735
 31
       16.338518
  0
ENDSEC
  0
EOF
