  0
SECTION
  2
HEADER
  9
$PDMODE
 70
   34
  9
$PDSIZE
 40
   -3.0
  0
ENDSEC
  0
SECTION
  2
TABLES
  0
TABLE
  2
LTYPE
 70
 1
  0
LTYPE
  2
CONTINUOUS
  70
 64
  3
Solid line
  72
 65
 73
 0
  40
 0.0
  0
ENDTAB
  0
TABLE
  2
LAYER
 70
 1
 0
LAYER
  2
Default
  70
 0
 62
 7
  6
CONTINUOUS
  0
ENDTAB
  0 
ENDSEC
  0
SECTION
  2
ENTITIES
  0
POINT
  8
Default
 62
255
 10
     1089.476185
 20
     1000.389289
 30
       17.850034
  0
POINT
  8
Default
 62
255
 10
     1090.014270
 20
      999.878319
 30
       17.814042
  0
POINT
  8
Default
 62
255
 10
     1088.496983
 20
      997.863168
 30
       17.890115
  0
POINT
  8
Default
 62
255
 10
     1087.635563
 20
      998.472225
 30
       18.139809
  0
POINT
  8
Default
 62
255
 10
     1089.237682
 20
     1000.302695
 30
       17.875023
  0
POINT
  8
Default
 62
255
 10
     1089.741797
 20
     1000.201219
 30
       17.825850
  0
POINT
  8
Default
 62
255
 10
     1089.887090
 20
      999.674298
 30
       17.824228
  0
POINT
  8
Default
 62
255
 10
     1089.717379
 20
      999.236575
 30
       17.824529
  0
POINT
  8
Default
 62
255
 10
     1089.483514
 20
      998.750650
 30
       17.778916
  0
POINT
  8
Default
 62
255
 10
     1088.981176
 20
      999.995849
 30
       17.890838
  0
POINT
  8
Default
 62
255
 10
     1088.616568
 20
      999.561057
 30
       17.923366
  0
POINT
  8
Default
 62
255
 10
     1088.130088
 20
      998.952987
 30
       17.889504
  0
POINT
  8
Default
 62
255
 10
     1087.605006
 20
      998.399789
 30
       18.182469
  0
POINT
  8
Default
 62
255
 10
     1087.545539
 20
      998.675068
 30
       18.152717
  0
POINT
  8
Default
 62
255
 10
     1087.798569
 20
      998.211947
 30
       17.891900
  0
POINT
  8
Default
 62
255
 10
     1087.969526
 20
      998.062961
 30
       17.882126
  0
POINT
  8
Default
 62
255
 10
     1088.207837
 20
      997.891083
 30
       17.879892
  0
POINT
  8
Default
 62
255
 10
     1088.450949
 20
      997.722057
 30
       17.964965
  0
POINT
  8
Default
 62
255
 10
     1088.684469
 20
      997.887601
 30
       17.861685
  0
POINT
  8
Default
 62
255
 10
     1088.935324
 20
      998.138459
 30
       17.809833
  0
POINT
  8
Default
 62
255
 10
     1089.385399
 20
      998.545679
 30
       17.816452
  0
POINT
  8
Default
 62
255
 10
     1089.489031
 20
      999.715911
 30
       17.806138
  0
POINT
  8
Default
 62
255
 10
     1088.903178
 20
      999.507775
 30
       17.852067
  0
POINT
  8
Default
 62
255
 10
     1089.321235
 20
      999.207163
 30
       17.762260
  0
POINT
  8
Default
 62
255
 10
     1088.931685
 20
      998.659373
 30
       17.775179
  0
POINT
  8
Default
 62
255
 10
     1088.401493
 20
      998.990353
 30
       17.799830
  0
POINT
  8
Default
 62
255
 10
     1088.139989
 20
      998.377763
 30
       17.825403
  0
POINT
  8
Default
 62
255
 10
     1088.705930
 20
      998.456908
 30
       17.742974
  0
POINT
  8
Default
 62
255
 10
     1088.445730
 20
      998.088737
 30
       17.842244
  0
POINT
  8
Default
 62
255
 10
     1089.259849
 20
      999.907894
 30
       17.835246
  0
POINT
  8
Default
 62
255
 10
     1089.328961
 20
      999.980035
 30
       17.816764
  0
POINT
  8
Default
 62
255
 10
     1089.366700
 20
     1000.034941
 30
       17.818374
  0
POINT
  8
Default
 62
255
 10
     1089.411807
 20
     1000.075208
 30
       17.820027
  0
POINT
  8
Default
 62
255
 10
     1089.447470
 20
     1000.116971
 30
       17.809676
  0
POINT
  8
Default
 62
255
 10
     1089.501299
 20
     1000.145048
 30
       17.816885
  0
POINT
  8
Default
 62
255
 10
     1089.531122
 20
     1000.253562
 30
       17.811286
  0
POINT
  8
Default
 62
255
 10
     1089.479496
 20
     1000.322154
 30
       17.842795
  0
POINT
  8
Default
 62
255
 10
     1089.418053
 20
     1000.354358
 30
       17.868086
  0
POINT
  8
Default
 62
255
 10
     1089.373270
 20
     1000.304431
 30
       17.849482
  0
POINT
  8
Default
 62
255
 10
     1089.292803
 20
     1000.264501
 30
       17.855503
  0
POINT
  8
Default
 62
255
 10
     1089.233040
 20
     1000.193756
 30
       17.845569
  0
POINT
  8
Default
 62
255
 10
     1089.168581
 20
     1000.133251
 30
       17.863492
  0
POINT
  8
Default
 62
255
 10
     1089.095146
 20
     1000.083106
 30
       17.860524
  0
POINT
  8
Default
 62
255
 10
     1089.013945
 20
      999.988547
 30
       17.861426
  0
POINT
  8
Default
 62
255
 10
     1088.989014
 20
      999.949342
 30
       17.868863
  0
POINT
  8
Default
 62
255
 10
     1088.931563
 20
      999.867576
 30
       17.868210
  0
POINT
  8
Default
 62
255
 10
     1088.882434
 20
      999.786797
 30
       17.879406
  0
POINT
  8
Default
 62
255
 10
     1088.825202
 20
      999.719607
 30
       17.904596
  0
POINT
  8
Default
 62
255
 10
     1088.763302
 20
      999.632654
 30
       17.914608
  0
POINT
  8
Default
 62
255
 10
     1088.694021
 20
      999.572184
 30
       17.897320
  0
POINT
  8
Default
 62
255
 10
     1088.637821
 20
      999.489535
 30
       17.881909
  0
POINT
  8
Default
 62
255
 10
     1088.528450
 20
      999.386898
 30
       17.898600
  0
POINT
  8
Default
 62
255
 10
     1088.483073
 20
      999.339843
 30
       17.896695
  0
POINT
  8
Default
 62
255
 10
     1088.423959
 20
      999.269216
 30
       17.871845
  0
POINT
  8
Default
 62
255
 10
     1088.300283
 20
      999.132342
 30
       17.859560
  0
POINT
  8
Default
 62
255
 10
     1088.248315
 20
      999.050893
 30
       17.843949
  0
POINT
  8
Default
 62
255
 10
     1088.201203
 20
      998.996259
 30
       17.865008
  0
POINT
  8
Default
 62
255
 10
     1088.159626
 20
      998.880624
 30
       17.836899
  0
POINT
  8
Default
 62
255
 10
     1088.133441
 20
      998.813807
 30
       17.814895
  0
POINT
  8
Default
 62
255
 10
     1088.094699
 20
      998.763459
 30
       17.820255
  0
POINT
  8
Default
 62
255
 10
     1088.081512
 20
      998.685933
 30
       17.820287
  0
POINT
  8
Default
 62
255
 10
     1088.030548
 20
      998.618042
 30
       17.823341
  0
POINT
  8
Default
 62
255
 10
     1087.994000
 20
      998.539914
 30
       17.842378
  0
POINT
  8
Default
 62
255
 10
     1087.945002
 20
      998.461207
 30
       17.838111
  0
POINT
  8
Default
 62
255
 10
     1087.884143
 20
      998.385638
 30
       17.840118
  0
POINT
  8
Default
 62
255
 10
     1087.797091
 20
      998.315570
 30
       17.861741
  0
POINT
  8
Default
 62
255
 10
     1089.522774
 20
      999.996511
 30
       17.798569
  0
POINT
  8
Default
 62
255
 10
     1089.577559
 20
      999.953034
 30
       17.792561
  0
POINT
  8
Default
 62
255
 10
     1089.610669
 20
      999.916384
 30
       17.794020
  0
POINT
  8
Default
 62
255
 10
     1089.648512
 20
      999.889781
 30
       17.800516
  0
POINT
  8
Default
 62
255
 10
     1089.686015
 20
      999.858309
 30
       17.806456
  0
POINT
  8
Default
 62
255
 10
     1089.708451
 20
      999.819216
 30
       17.812301
  0
POINT
  8
Default
 62
255
 10
     1089.717690
 20
      999.773840
 30
       17.809796
  0
POINT
  8
Default
 62
255
 10
     1089.727502
 20
      999.728796
 30
       17.808168
  0
POINT
  8
Default
 62
255
 10
     1089.745917
 20
      999.678654
 30
       17.809547
  0
POINT
  8
Default
 62
255
 10
     1089.762785
 20
      999.637285
 30
       17.816839
  0
POINT
  8
Default
 62
255
 10
     1089.781360
 20
      999.594563
 30
       17.825147
  0
POINT
  8
Default
 62
255
 10
     1089.774673
 20
      999.547527
 30
       17.822277
  0
POINT
  8
Default
 62
255
 10
     1089.753258
 20
      999.502235
 30
       17.820679
  0
POINT
  8
Default
 62
255
 10
     1089.727389
 20
      999.466056
 30
       17.819230
  0
POINT
  8
Default
 62
255
 10
     1089.701285
 20
      999.422900
 30
       17.822928
  0
POINT
  8
Default
 62
255
 10
     1089.678033
 20
      999.382836
 30
       17.822097
  0
POINT
  8
Default
 62
255
 10
     1089.646457
 20
      999.343558
 30
       17.814328
  0
POINT
  8
Default
 62
255
 10
     1089.627988
 20
      999.302093
 30
       17.803296
  0
POINT
  8
Default
 62
255
 10
     1089.620324
 20
      999.253016
 30
       17.793966
  0
POINT
  8
Default
 62
255
 10
     1089.612986
 20
      999.205083
 30
       17.784513
  0
POINT
  8
Default
 62
255
 10
     1089.582870
 20
      999.170768
 30
       17.767527
  0
POINT
  8
Default
 62
255
 10
     1089.566502
 20
      999.129560
 30
       17.753274
  0
POINT
  8
Default
 62
255
 10
     1089.537193
 20
      999.096368
 30
       17.744755
  0
POINT
  8
Default
 62
255
 10
     1089.516330
 20
      999.046454
 30
       17.742694
  0
POINT
  8
Default
 62
255
 10
     1089.480822
 20
      999.019909
 30
       17.740228
  0
POINT
  8
Default
 62
255
 10
     1089.433720
 20
      999.022852
 30
       17.737837
  0
POINT
  8
Default
 62
255
 10
     1089.395010
 20
      999.050401
 30
       17.727037
  0
POINT
  8
Default
 62
255
 10
     1089.353116
 20
      999.063516
 30
       17.721146
  0
POINT
  8
Default
 62
255
 10
     1089.317307
 20
      999.088047
 30
       17.724600
  0
POINT
  8
Default
 62
255
 10
     1089.273843
 20
      999.105312
 30
       17.726993
  0
POINT
  8
Default
 62
255
 10
     1089.240846
 20
      999.138140
 30
       17.728557
  0
POINT
  8
Default
 62
255
 10
     1089.198943
 20
      999.149147
 30
       17.749078
  0
POINT
  8
Default
 62
255
 10
     1089.154871
 20
      999.169031
 30
       17.763595
  0
POINT
  8
Default
 62
255
 10
     1089.124602
 20
      999.194495
 30
       17.782296
  0
POINT
  8
Default
 62
255
 10
     1089.084685
 20
      999.168382
 30
       17.790212
  0
POINT
  8
Default
 62
255
 10
     1089.054492
 20
      999.195811
 30
       17.798898
  0
POINT
  8
Default
 62
255
 10
     1089.018567
 20
      999.201703
 30
       17.810508
  0
POINT
  8
Default
 62
255
 10
     1088.985539
 20
      999.233796
 30
       17.804971
  0
POINT
  8
Default
 62
255
 10
     1088.949892
 20
      999.257808
 30
       17.813165
  0
POINT
  8
Default
 62
255
 10
     1088.878615
 20
      999.271733
 30
       17.813233
  0
POINT
  8
Default
 62
255
 10
     1088.835917
 20
      999.290231
 30
       17.817656
  0
POINT
  8
Default
 62
255
 10
     1088.785258
 20
      999.284824
 30
       17.813250
  0
POINT
  8
Default
 62
255
 10
     1088.746956
 20
      999.307151
 30
       17.813263
  0
POINT
  8
Default
 62
255
 10
     1088.712606
 20
      999.293962
 30
       17.837844
  0
POINT
  8
Default
 62
255
 10
     1088.665624
 20
      999.301223
 30
       17.854852
  0
POINT
  8
Default
 62
255
 10
     1088.625219
 20
      999.272150
 30
       17.865747
  0
POINT
  8
Default
 62
255
 10
     1088.612031
 20
      999.234234
 30
       17.859923
  0
POINT
  8
Default
 62
255
 10
     1088.586262
 20
      999.197753
 30
       17.850062
  0
POINT
  8
Default
 62
255
 10
     1088.564515
 20
      999.149128
 30
       17.830778
  0
POINT
  8
Default
 62
255
 10
     1088.555809
 20
      999.103378
 30
       17.821290
  0
POINT
  8
Default
 62
255
 10
     1088.545351
 20
      999.061768
 30
       17.809237
  0
POINT
  8
Default
 62
255
 10
     1088.545603
 20
      999.018422
 30
       17.794902
  0
POINT
  8
Default
 62
255
 10
     1088.556473
 20
      998.971279
 30
       17.797918
  0
POINT
  8
Default
 62
255
 10
     1088.575405
 20
      998.931245
 30
       17.773924
  0
POINT
  8
Default
 62
255
 10
     1088.598912
 20
      998.892018
 30
       17.770807
  0
POINT
  8
Default
 62
255
 10
     1088.625255
 20
      998.853319
 30
       17.765180
  0
POINT
  8
Default
 62
255
 10
     1088.646812
 20
      998.812281
 30
       17.752793
  0
POINT
  8
Default
 62
255
 10
     1088.675837
 20
      998.778320
 30
       17.739815
  0
POINT
  8
Default
 62
255
 10
     1088.698181
 20
      998.731706
 30
       17.733989
  0
POINT
  8
Default
 62
255
 10
     1088.730169
 20
      998.694094
 30
       17.735391
  0
POINT
  8
Default
 62
255
 10
     1088.755252
 20
      998.653497
 30
       17.745648
  0
POINT
  8
Default
 62
255
 10
     1088.785440
 20
      998.618947
 30
       17.751901
  0
POINT
  8
Default
 62
255
 10
     1088.817319
 20
      998.580601
 30
       17.761458
  0
POINT
  8
Default
 62
255
 10
     1088.853890
 20
      998.554210
 30
       17.767460
  0
POINT
  8
Default
 62
255
 10
     1088.885617
 20
      998.514834
 30
       17.756088
  0
POINT
  8
Default
 62
255
 10
     1088.909354
 20
      998.476001
 30
       17.763633
  0
POINT
  8
Default
 62
255
 10
     1088.950138
 20
      998.453179
 30
       17.765523
  0
POINT
  8
Default
 62
255
 10
     1088.965921
 20
      998.409164
 30
       17.753514
  0
POINT
  8
Default
 62
255
 10
     1088.992426
 20
      998.369222
 30
       17.754953
  0
POINT
  8
Default
 62
255
 10
     1088.986292
 20
      998.322036
 30
       17.756062
  0
POINT
  8
Default
 62
255
 10
     1088.946653
 20
      998.307612
 30
       17.751818
  0
POINT
  8
Default
 62
255
 10
     1088.901221
 20
      998.286336
 30
       17.758815
  0
POINT
  8
Default
 62
255
 10
     1088.860449
 20
      998.279196
 30
       17.754674
  0
POINT
  8
Default
 62
255
 10
     1088.739945
 20
      998.258985
 30
       17.762712
  0
POINT
  8
Default
 62
255
 10
     1088.697672
 20
      998.259225
 30
       17.777768
  0
POINT
  8
Default
 62
255
 10
     1088.647686
 20
      998.243284
 30
       17.786005
  0
POINT
  8
Default
 62
255
 10
     1088.603553
 20
      998.261898
 30
       17.788627
  0
POINT
  8
Default
 62
255
 10
     1088.566258
 20
      998.282626
 30
       17.798856
  0
POINT
  8
Default
 62
255
 10
     1088.522864
 20
      998.272887
 30
       17.815263
  0
POINT
  8
Default
 62
255
 10
     1088.492034
 20
      998.239586
 30
       17.820693
  0
POINT
  8
Default
 62
255
 10
     1088.450485
 20
      998.219155
 30
       17.827704
  0
POINT
  8
Default
 62
255
 10
     1088.403073
 20
      998.224955
 30
       17.825720
  0
POINT
  8
Default
 62
255
 10
     1088.353415
 20
      998.235223
 30
       17.815493
  0
POINT
  8
Default
 62
255
 10
     1088.306699
 20
      998.246153
 30
       17.822976
  0
POINT
  8
Default
 62
255
 10
     1088.261398
 20
      998.250308
 30
       17.832011
  0
POINT
  8
Default
 62
255
 10
     1088.214493
 20
      998.246327
 30
       17.838176
  0
POINT
  8
Default
 62
255
 10
     1088.161205
 20
      998.240873
 30
       17.848525
  0
POINT
  8
Default
 62
255
 10
     1089.445656
 20
      999.391107
 30
       17.820587
  0
POINT
  8
Default
 62
255
 10
     1089.429386
 20
      999.340643
 30
       17.809887
  0
POINT
  8
Default
 62
255
 10
     1089.420482
 20
      999.297764
 30
       17.793791
  0
POINT
  8
Default
 62
255
 10
     1089.420632
 20
      999.251608
 30
       17.769494
  0
POINT
  8
Default
 62
255
 10
     1089.423205
 20
      999.211892
 30
       17.750134
  0
POINT
  8
Default
 62
255
 10
     1089.418392
 20
      999.168477
 30
       17.739849
  0
POINT
  8
Default
 62
255
 10
     1089.401904
 20
      999.118172
 30
       17.722808
  0
POINT
  8
Default
 62
255
 10
     1089.378167
 20
      998.986704
 30
       17.717588
  0
POINT
  8
Default
 62
255
 10
     1089.381819
 20
      998.940462
 30
       17.720953
  0
POINT
  8
Default
 62
255
 10
     1089.364888
 20
      998.890318
 30
       17.712222
  0
POINT
  8
Default
 62
255
 10
     1089.354226
 20
      998.842901
 30
       17.715644
  0
POINT
  8
Default
 62
255
 10
     1089.319649
 20
      998.815491
 30
       17.720442
  0
POINT
  8
Default
 62
255
 10
     1089.308900
 20
      998.769385
 30
       17.732036
  0
POINT
  8
Default
 62
255
 10
     1089.267532
 20
      998.756562
 30
       17.742527
  0
POINT
  8
Default
 62
255
 10
     1089.214127
 20
      998.694073
 30
       17.763992
  0
POINT
  8
Default
 62
255
 10
     1089.185757
 20
      998.649672
 30
       17.777975
  0
POINT
  8
Default
 62
255
 10
     1089.157185
 20
      998.608906
 30
       17.781582
  0
POINT
  8
Default
 62
255
 10
     1089.132974
 20
      998.563216
 30
       17.785227
  0
POINT
  8
Default
 62
255
 10
     1089.104854
 20
      998.526744
 30
       17.781013
  0
POINT
  8
Default
 62
255
 10
     1089.070382
 20
      998.488692
 30
       17.782544
  0
POINT
  8
Default
 62
255
 10
     1089.034966
 20
      998.463153
 30
       17.778277
  0
POINT
  8
Default
 62
255
 10
     1088.931423
 20
      998.372599
 30
       17.747393
  0
POINT
  8
Default
 62
255
 10
     1088.893821
 20
      998.348585
 30
       17.752061
  0
POINT
  8
Default
 62
255
 10
     1088.849789
 20
      998.327267
 30
       17.754054
  0
POINT
  8
Default
 62
255
 10
     1088.731254
 20
      998.205604
 30
       17.774928
  0
POINT
  8
Default
 62
255
 10
     1088.710994
 20
      998.166002
 30
       17.782725
  0
POINT
  8
Default
 62
255
 10
     1088.696901
 20
      998.121478
 30
       17.797594
  0
POINT
  8
Default
 62
255
 10
     1088.681563
 20
      998.085823
 30
       17.832492
  0
POINT
  8
Default
 62
255
 10
     1088.653068
 20
      998.052041
 30
       17.860429
  0
POINT
  8
Default
 62
255
 10
     1088.632958
 20
      998.016708
 30
       17.869553
  0
POINT
  8
Default
 62
255
 10
     1088.599779
 20
      997.992002
 30
       17.876085
  0
POINT
  8
Default
 62
255
 10
     1088.568787
 20
      997.953972
 30
       17.872517
  0
POINT
  8
Default
 62
255
 10
     1088.529310
 20
      997.928605
 30
       17.881614
  0
POINT
  8
Default
 62
255
 10
     1088.495748
 20
      997.907234
 30
       17.886123
  0
POINT
  8
Default
 62
255
 10
     1088.473208
 20
      997.898531
 30
       17.876132
  0
POINT
  8
Default
 62
255
 10
     1088.436869
 20
      997.868499
 30
       17.876061
  0
POINT
  8
Default
 62
255
 10
     1088.375486
 20
      997.886324
 30
       17.866989
  0
POINT
  8
Default
 62
255
 10
     1088.346311
 20
      997.912619
 30
       17.859575
  0
POINT
  8
Default
 62
255
 10
     1088.287518
 20
      997.954854
 30
       17.845887
  0
POINT
  8
Default
 62
255
 10
     1088.265911
 20
      997.997398
 30
       17.841264
  0
POINT
  8
Default
 62
255
 10
     1088.249355
 20
      998.039116
 30
       17.841677
  0
POINT
  8
Default
 62
255
 10
     1088.245589
 20
      998.084168
 30
       17.839470
  0
POINT
  8
Default
 62
255
 10
     1088.272400
 20
      998.119520
 30
       17.833146
  0
POINT
  8
Default
 62
255
 10
     1088.279820
 20
      998.161440
 30
       17.825217
  0
POINT
  8
Default
 62
255
 10
     1088.304370
 20
      998.209271
 30
       17.826971
  0
POINT
  8
Default
 62
255
 10
     1088.344189
 20
      998.284105
 30
       17.805232
  0
POINT
  8
Default
 62
255
 10
     1088.368609
 20
      998.331884
 30
       17.800709
  0
POINT
  8
Default
 62
255
 10
     1088.392434
 20
      998.374220
 30
       17.797934
  0
POINT
  8
Default
 62
255
 10
     1088.417257
 20
      998.412143
 30
       17.791805
  0
POINT
  8
Default
 62
255
 10
     1088.443819
 20
      998.454447
 30
       17.787587
  0
POINT
  8
Default
 62
255
 10
     1088.468499
 20
      998.494348
 30
       17.774780
  0
POINT
  8
Default
 62
255
 10
     1088.495330
 20
      998.531553
 30
       17.764148
  0
POINT
  8
Default
 62
255
 10
     1088.523895
 20
      998.573336
 30
       17.759399
  0
POINT
  8
Default
 62
255
 10
     1088.544836
 20
      998.611314
 30
       17.755624
  0
POINT
  8
Default
 62
255
 10
     1088.563309
 20
      998.661067
 30
       17.749248
  0
POINT
  8
Default
 62
255
 10
     1088.576798
 20
      998.700263
 30
       17.747095
  0
POINT
  8
Default
 62
255
 10
     1088.594298
 20
      998.747224
 30
       17.749410
  0
POINT
  8
Default
 62
255
 10
     1088.615429
 20
      998.793458
 30
       17.752648
  0
POINT
  8
Default
 62
255
 10
     1088.654840
 20
      998.882716
 30
       17.763316
  0
POINT
  8
Default
 62
255
 10
     1088.678438
 20
      998.920495
 30
       17.765914
  0
POINT
  8
Default
 62
255
 10
     1088.706913
 20
      998.959864
 30
       17.773318
  0
POINT
  8
Default
 62
255
 10
     1088.733327
 20
      998.999286
 30
       17.779134
  0
POINT
  8
Default
 62
255
 10
     1088.759931
 20
      999.042649
 30
       17.791937
  0
POINT
  8
Default
 62
255
 10
     1088.780670
 20
      999.083478
 30
       17.804697
  0
POINT
  8
Default
 62
255
 10
     1088.809269
 20
      999.123536
 30
       17.808104
  0
POINT
  8
Default
 62
255
 10
     1088.838286
 20
      999.163135
 30
       17.805205
  0
POINT
  8
Default
 62
255
 10
     1088.860724
 20
      999.205723
 30
       17.809420
  0
POINT
  8
Default
 62
255
 10
     1088.890940
 20
      999.243298
 30
       17.814055
  0
POINT
  8
Default
 62
255
 10
     1088.932638
 20
      999.314493
 30
       17.820428
  0
POINT
  8
Default
 62
255
 10
     1088.959275
 20
      999.349938
 30
       17.832330
  0
POINT
  8
Default
 62
255
 10
     1088.987339
 20
      999.391523
 30
       17.840012
  0
POINT
  8
Default
 62
255
 10
     1089.010730
 20
      999.433603
 30
       17.842878
  0
POINT
  8
Default
 62
255
 10
     1089.040537
 20
      999.474359
 30
       17.837902
  0
POINT
  8
Default
 62
255
 10
     1089.060959
 20
      999.516528
 30
       17.836418
  0
POINT
  8
Default
 62
255
 10
     1089.082730
 20
      999.560125
 30
       17.836461
  0
POINT
  8
Default
 62
255
 10
     1089.105301
 20
      999.598569
 30
       17.840248
  0
POINT
  8
Default
 62
255
 10
     1089.129658
 20
      999.637026
 30
       17.841913
  0
POINT
  8
Default
 62
255
 10
     1089.149578
 20
      999.681896
 30
       17.849743
  0
POINT
  8
Default
 62
255
 10
     1087.662630
 20
      998.330427
 30
       17.930548
  0
POINT
  8
Default
 62
255
 10
     1087.681866
 20
      998.381183
 30
       17.926587
  0
POINT
  8
Default
 62
255
 10
     1087.829665
 20
      998.510614
 30
       17.899570
  0
POINT
  8
Default
 62
255
 10
     1087.889255
 20
      998.596798
 30
       17.893205
  0
POINT
  8
Default
 62
255
 10
     1087.907230
 20
      998.706812
 30
       17.856188
  0
POINT
  8
Default
 62
255
 10
     1088.025989
 20
      998.866573
 30
       17.879553
  0
POINT
  8
Default
 62
255
 10
     1087.942886
 20
      998.246100
 30
       17.841941
  0
POINT
  8
Default
 62
255
 10
     1088.093951
 20
      998.130117
 30
       17.854259
  0
POINT
  8
Default
 62
255
 10
     1088.058660
 20
      998.005760
 30
       17.866136
  0
POINT
  8
Default
 62
255
 10
     1088.191858
 20
      998.027647
 30
       17.850457
  0
POINT
  8
Default
 62
255
 10
     1088.006888
 20
      998.368855
 30
       17.819455
  0
POINT
  8
Default
 62
255
 10
     1088.252235
 20
      998.434179
 30
       17.804001
  0
POINT
  8
Default
 62
255
 10
     1088.127339
 20
      998.519732
 30
       17.822474
  0
POINT
  8
Default
 62
255
 10
     1088.328883
 20
      998.579312
 30
       17.792423
  0
POINT
  8
Default
 62
255
 10
     1088.255557
 20
      998.689075
 30
       17.794115
  0
POINT
  8
Default
 62
255
 10
     1088.447250
 20
      998.766724
 30
       17.769935
  0
POINT
  8
Default
 62
255
 10
     1088.401028
 20
      997.804170
 30
       17.934085
  0
POINT
  8
Default
 62
255
 10
     1088.337907
 20
      997.775509
 30
       17.940784
  0
POINT
  8
Default
 62
255
 10
     1088.287811
 20
      997.842454
 30
       17.879697
  0
POINT
  8
Default
 62
255
 10
     1088.619068
 20
      997.837099
 30
       17.914496
  0
POINT
  8
Default
 62
255
 10
     1088.529626
 20
      997.793174
 30
       17.961365
  0
POINT
  8
Default
 62
255
 10
     1088.800468
 20
      997.974879
 30
       17.873785
  0
POINT
  8
Default
 62
255
 10
     1089.135567
 20
      998.319370
 30
       17.764047
  0
POINT
  8
Default
 62
255
 10
     1089.006504
 20
      998.233647
 30
       17.780658
  0
POINT
  8
Default
 62
255
 10
     1089.204730
 20
      998.383396
 30
       17.803149
  0
POINT
  8
Default
 62
255
 10
     1089.292853
 20
      998.451275
 30
       17.821085
  0
POINT
  8
Default
 62
255
 10
     1089.551737
 20
      998.889219
 30
       17.802021
  0
POINT
  8
Default
 62
255
 10
     1089.463467
 20
      998.938453
 30
       17.728537
  0
POINT
  8
Default
 62
255
 10
     1089.608091
 20
      999.012196
 30
       17.800668
  0
POINT
  8
Default
 62
255
 10
     1089.698301
 20
      999.119983
 30
       17.845711
  0
POINT
  8
Default
 62
255
 10
     1089.827079
 20
      999.446539
 30
       17.852698
  0
POINT
  8
Default
 62
255
 10
     1089.788317
 20
      999.349198
 30
       17.839772
  0
POINT
  8
Default
 62
255
 10
     1089.857015
 20
      999.545756
 30
       17.849673
  0
POINT
  8
Default
 62
255
 10
     1089.976989
 20
      999.779778
 30
       17.819682
  0
POINT
  8
Default
 62
255
 10
     1090.149022
 20
      999.916765
 30
       17.884329
  0
POINT
  8
Default
 62
255
 10
     1090.052632
 20
      999.935392
 30
       17.854525
  0
POINT
  8
Default
 62
255
 10
     1090.060395
 20
      999.847412
 30
       17.836643
  0
POINT
  8
Default
 62
255
 10
     1089.921496
 20
      999.930087
 30
       17.799916
  0
POINT
  8
Default
 62
255
 10
     1089.861782
 20
      999.823837
 30
       17.789062
  0
POINT
  8
Default
 62
255
 10
     1090.079340
 20
      999.979172
 30
       17.879054
  0
POINT
  8
Default
 62
255
 10
     1090.006683
 20
     1000.054344
 30
       17.869522
  0
POINT
  8
Default
 62
255
 10
     1089.917750
 20
     1000.133956
 30
       17.931989
  0
POINT
  8
Default
 62
255
 10
     1089.820887
 20
     1000.197838
 30
       17.902458
  0
POINT
  8
Default
 62
255
 10
     1088.381579
 20
      998.008529
 30
       17.849631
  0
POINT
  8
Default
 62
255
 10
     1088.508130
 20
      998.035520
 30
       17.858899
  0
POINT
  8
Default
 62
255
 10
     1088.570217
 20
      998.127181
 30
       17.848631
  0
POINT
  8
Default
 62
255
 10
     1088.580003
 20
      998.180646
 30
       17.819975
  0
POINT
  8
Default
 62
255
 10
     1088.337671
 20
      998.103355
 30
       17.820524
  0
POINT
  8
Default
 62
255
 10
     1088.454395
 20
      998.335845
 30
       17.791948
  0
POINT
  8
Default
 62
255
 10
     1088.570831
 20
      998.412630
 30
       17.768159
  0
POINT
  8
Default
 62
255
 10
     1088.639759
 20
      998.592728
 30
       17.742583
  0
POINT
  8
Default
 62
255
 10
     1088.814147
 20
      998.448837
 30
       17.742908
  0
POINT
  8
Default
 62
255
 10
     1088.634940
 20
      999.019042
 30
       17.790628
  0
POINT
  8
Default
 62
255
 10
     1088.656068
 20
      999.107494
 30
       17.814505
  0
POINT
  8
Default
 62
255
 10
     1088.732988
 20
      999.191495
 30
       17.812656
  0
POINT
  8
Default
 62
255
 10
     1088.935336
 20
      998.886330
 30
       17.791656
  0
POINT
  8
Default
 62
255
 10
     1088.953837
 20
      999.126693
 30
       17.789405
  0
POINT
  8
Default
 62
255
 10
     1089.102150
 20
      999.055520
 30
       17.730024
  0
POINT
  8
Default
 62
255
 10
     1088.786301
 20
      998.815805
 30
       17.746521
  0
POINT
  8
Default
 62
255
 10
     1089.070989
 20
      998.730593
 30
       17.810110
  0
POINT
  8
Default
 62
255
 10
     1089.183942
 20
      998.862715
 30
       17.734339
  0
POINT
  8
Default
 62
255
 10
     1089.018379
 20
      998.927432
 30
       17.771650
  0
POINT
  8
Default
 62
255
 10
     1088.968879
 20
      998.552133
 30
       17.769047
  0
POINT
  8
Default
 62
255
 10
     1089.272628
 20
      998.972730
 30
       17.707404
  0
POINT
  8
Default
 62
255
 10
     1089.205599
 20
      998.509472
 30
       17.785006
  0
POINT
  8
Default
 62
255
 10
     1089.294239
 20
      998.584411
 30
       17.776005
  0
POINT
  8
Default
 62
255
 10
     1089.415000
 20
      998.676365
 30
       17.737504
  0
POINT
  8
Default
 62
255
 10
     1089.445855
 20
      998.825545
 30
       17.726720
  0
POINT
  8
Default
 62
255
 10
     1088.447496
 20
      999.146197
 30
       17.835237
  0
POINT
  8
Default
 62
255
 10
     1088.495458
 20
      999.234301
 30
       17.854655
  0
POINT
  8
Default
 62
255
 10
     1088.578702
 20
      999.333906
 30
       17.869549
  0
POINT
  8
Default
 62
255
 10
     1088.690750
 20
      999.409425
 30
       17.849718
  0
POINT
  8
Default
 62
255
 10
     1088.777008
 20
      999.499059
 30
       17.855446
  0
POINT
  8
Default
 62
255
 10
     1088.853682
 20
      999.375431
 30
       17.835625
  0
POINT
  8
Default
 62
255
 10
     1088.846382
 20
      999.582581
 30
       17.879916
  0
POINT
  8
Default
 62
255
 10
     1088.978437
 20
      999.582328
 30
       17.845178
  0
POINT
  8
Default
 62
255
 10
     1088.984089
 20
      999.774856
 30
       17.866709
  0
POINT
  8
Default
 62
255
 10
     1089.081974
 20
      999.765110
 30
       17.840548
  0
POINT
  8
Default
 62
255
 10
     1089.210384
 20
     1000.022748
 30
       17.829141
  0
POINT
  8
Default
 62
255
 10
     1089.121657
 20
      999.904932
 30
       17.834573
  0
POINT
  8
Default
 62
255
 10
     1089.444849
 20
      999.916608
 30
       17.796867
  0
POINT
  8
Default
 62
255
 10
     1089.557018
 20
      999.833137
 30
       17.794475
  0
POINT
  8
Default
 62
255
 10
     1089.373534
 20
      999.779254
 30
       17.813509
  0
POINT
  8
Default
 62
255
 10
     1089.241853
 20
      999.785792
 30
       17.840519
  0
POINT
  8
Default
 62
255
 10
     1089.082048
 20
      999.290689
 30
       17.805453
  0
POINT
  8
Default
 62
255
 10
     1089.141602
 20
      999.379211
 30
       17.818776
  0
POINT
  8
Default
 62
255
 10
     1089.207664
 20
      999.504319
 30
       17.823493
  0
POINT
  8
Default
 62
255
 10
     1089.268977
 20
      999.617180
 30
       17.831798
  0
POINT
  8
Default
 62
255
 10
     1089.309835
 20
      999.330476
 30
       17.800396
  0
POINT
  8
Default
 62
255
 10
     1089.341891
 20
      999.445726
 30
       17.820322
  0
POINT
  8
Default
 62
255
 10
     1089.400236
 20
      999.514067
 30
       17.825636
  0
POINT
  8
Default
 62
255
 10
     1089.506300
 20
      999.166182
 30
       17.728486
  0
POINT
  8
Default
 62
255
 10
     1089.531074
 20
      999.259792
 30
       17.765151
  0
POINT
  8
Default
 62
255
 10
     1089.542477
 20
      999.328841
 30
       17.798917
  0
POINT
  8
Default
 62
255
 10
     1089.495690
 20
      999.439046
 30
       17.823004
  0
POINT
  8
Default
 62
255
 10
     1089.619668
 20
      999.462301
 30
       17.815613
  0
POINT
  8
Default
 62
255
 10
     1089.637756
 20
      999.547306
 30
       17.823923
  0
POINT
  8
Default
 62
255
 10
     1089.658604
 20
      999.665337
 30
       17.808112
  0
POINT
  8
Default
 62
255
 10
     1089.523496
 20
      999.573644
 30
       17.818909
  0
POINT
  8
Default
 62
255
 10
     1089.748685
 20
      999.898043
 30
       17.798994
  0
POINT
  8
Default
 62
255
 10
     1089.793559
 20
      999.963845
 30
       17.795705
  0
POINT
  8
Default
 62
255
 10
     1089.882626
 20
     1000.050829
 30
       17.816983
  0
POINT
  8
Default
 62
255
 10
     1089.603799
 20
     1000.073427
 30
       17.789652
  0
POINT
  8
Default
 62
255
 10
     1089.719989
 20
      999.976557
 30
       17.797288
  0
POINT
  8
Default
 62
255
 10
     1089.651903
 20
     1000.186446
 30
       17.799443
  0
POINT
  8
Default
 62
255
 10
     1089.753443
 20
     1000.088409
 30
       17.820626
  0
POINT
  8
Default
 62
255
 10
     1089.860836
 20
     1000.107463
 30
       17.863541
  0
POINT
  8
Default
 62
255
 10
     1089.578585
 20
     1000.337503
 30
       17.839396
  0
POINT
  8
Default
 62
255
 10
     1089.677924
 20
     1000.281928
 30
       17.823222
  0
POINT
  8
Default
 62
255
 10
     1089.602719
 20
     1000.266250
 30
       17.811750
  0
POINT
  8
Default
 62
255
 10
     1089.323396
 20
     1000.405509
 30
       17.860340
  0
POINT
  8
Default
 62
255
 10
     1089.377512
 20
     1000.451940
 30
       17.897443
  0
POINT
  8
Default
 62
255
 10
     1089.287546
 20
     1000.097690
 30
       17.819926
  0
POINT
  8
Default
 62
255
 10
     1089.384192
 20
     1000.189531
 30
       17.837234
  0
POINT
  8
Default
 62
255
 10
     1089.478009
 20
     1000.229277
 30
       17.821338
  0
POINT
  8
Default
 62
255
 10
     1089.543740
 20
     1000.419127
 30
       17.861453
  0
POINT
  8
Default
 62
255
 10
     1089.487611
 20
     1000.455540
 30
       17.890477
  0
POINT
  8
Default
 62
255
 10
     1087.657484
 20
      998.407601
 30
       18.124284
  0
POINT
  8
Default
 62
255
 10
     1087.695480
 20
      998.479508
 30
       18.127202
  0
POINT
  8
Default
 62
255
 10
     1087.736281
 20
      998.530674
 30
       18.109231
  0
POINT
  8
Default
 62
255
 10
     1087.784259
 20
      998.585565
 30
       18.098518
  0
POINT
  8
Default
 62
255
 10
     1087.830619
 20
      998.660049
 30
       18.087267
  0
POINT
  8
Default
 62
255
 10
     1087.883951
 20
      998.755804
 30
       18.093601
  0
POINT
  8
Default
 62
255
 10
     1087.780336
 20
      998.723428
 30
       18.115721
  0
POINT
  8
Default
 62
255
 10
     1087.714575
 20
      998.650528
 30
       18.124329
  0
POINT
  8
Default
 62
255
 10
     1087.913277
 20
      998.815403
 30
       18.095858
  0
POINT
  8
Default
 62
255
 10
     1088.049602
 20
      998.937914
 30
       18.124052
  0
POINT
  8
Default
 62
255
 10
     1087.608485
 20
      998.528997
 30
       18.151469
  0
POINT
  8
Default
 62
255
 10
     1087.642853
 20
      998.618857
 30
       18.133976
  0
POINT
  8
Default
 62
255
 10
     1087.665950
 20
      998.738135
 30
       18.138006
  0
POINT
  8
Default
 62
255
 10
     1087.748622
 20
      998.868240
 30
       18.148908
  0
POINT
  8
Default
 62
255
 10
     1087.730128
 20
      998.775990
 30
       18.137043
  0
POINT
  8
Default
 62
255
 10
     1087.807290
 20
      998.810944
 30
       18.133257
  0
POINT
  8
Default
 62
255
 10
     1087.854423
 20
      998.876820
 30
       18.132714
  0
POINT
  8
Default
 62
255
 10
     1087.839436
 20
      998.951907
 30
       18.164988
  0
POINT
  8
Default
 62
255
 10
     1087.939544
 20
      998.936740
 30
       18.152668
  0
POINT
  8
Default
 62
255
 10
     1087.991429
 20
      998.924613
 30
       18.151160
  0
POINT
  8
Default
 62
255
 10
     1087.949916
 20
      998.870001
 30
       18.103255
  0
LINE
  8
Default
 62
255
 10
     1087.605006
 20
      998.399789
 30
       18.182469
 11
     1087.657484
 21
      998.407601
 31
       18.124284
  0
LINE
  8
Default
 62
255
 10
     1087.657484
 20
      998.407601
 30
       18.124284
 11
     1087.695480
 21
      998.479508
 31
       18.127202
  0
LINE
  8
Default
 62
255
 10
     1087.695480
 20
      998.479508
 30
       18.127202
 11
     1087.736281
 21
      998.530674
 31
       18.109231
  0
LINE
  8
Default
 62
255
 10
     1087.736281
 20
      998.530674
 30
       18.109231
 11
     1087.784259
 21
      998.585565
 31
       18.098518
  0
LINE
  8
Default
 62
255
 10
     1087.784259
 20
      998.585565
 30
       18.098518
 11
     1087.830619
 21
      998.660049
 31
       18.087267
  0
LINE
  8
Default
 62
255
 10
     1087.830619
 20
      998.660049
 30
       18.087267
 11
     1087.883951
 21
      998.755804
 31
       18.093601
  0
LINE
  8
Default
 62
255
 10
     1087.883951
 20
      998.755804
 30
       18.093601
 11
     1087.913277
 21
      998.815403
 31
       18.095858
  0
LINE
  8
Default
 62
255
 10
     1087.913277
 20
      998.815403
 30
       18.095858
 11
     1087.949916
 21
      998.870001
 31
       18.103255
  0
LINE
  8
Default
 62
255
 10
     1087.949916
 20
      998.870001
 30
       18.103255
 11
     1087.991429
 21
      998.924613
 31
       18.151160
  0
LINE
  8
Default
 62
255
 10
     1087.991429
 20
      998.924613
 30
       18.151160
 11
     1088.049602
 21
      998.937914
 31
       18.124052
  0
LINE
  8
Default
 62
255
 10
     1087.662630
 20
      998.330427
 30
       17.930548
 11
     1087.681866
 21
      998.381183
 31
       17.926587
  0
LINE
  8
Default
 62
255
 10
     1087.681866
 20
      998.381183
 30
       17.926587
 11
     1087.829665
 21
      998.510614
 31
       17.899570
  0
LINE
  8
Default
 62
255
 10
     1087.829665
 20
      998.510614
 30
       17.899570
 11
     1087.889255
 21
      998.596798
 31
       17.893205
  0
LINE
  8
Default
 62
255
 10
     1087.889255
 20
      998.596798
 30
       17.893205
 11
     1087.907230
 21
      998.706812
 31
       17.856188
  0
LINE
  8
Default
 62
255
 10
     1087.907230
 20
      998.706812
 30
       17.856188
 11
     1088.025989
 21
      998.866573
 31
       17.879553
  0
LINE
  8
Default
 62
255
 10
     1088.025989
 20
      998.866573
 30
       17.879553
 11
     1088.130088
 21
      998.952987
 31
       17.889504
  0
ENDSEC
  0
EOF
