  0
SECTION
  2
HEADER
  9
$PDMODE
 70
   34
  9
$PDSIZE
 40
   -3.0
  0
ENDSEC
  0
SECTION
  2
TABLES
  0
TABLE
  2
LTYPE
 70
 1
  0
LTYPE
  2
CONTINUOUS
  70
 64
  3
Solid line
  72
 65
 73
 0
  40
 0.0
  0
ENDTAB
  0
TABLE
  2
LAYER
 70
 1
 0
LAYER
  2
Default
  70
 0
 62
 7
  6
CONTINUOUS
  0
ENDTAB
  0 
ENDSEC
  0
SECTION
  2
ENTITIES
  0
POINT
  8
Default
 62
255
 10
     1088.642322
 20
      997.493445
 30
       18.659921
  0
POINT
  8
Default
 62
255
 10
     1087.813475
 20
      998.123907
 30
       18.691193
  0
POINT
  8
Default
 62
255
 10
     1089.300886
 20
     1000.553736
 30
       18.172684
  0
POINT
  8
Default
 62
255
 10
     1090.077318
 20
      999.895911
 30
       18.206203
  0
POINT
  8
Default
 62
255
 10
     1088.879429
 20
      999.497579
 30
       18.328740
  0
POINT
  8
Default
 62
255
 10
     1089.111915
 20
      999.426673
 30
       18.276502
  0
POINT
  8
Default
 62
255
 10
     1089.493923
 20
      998.900682
 30
       18.376100
  0
POINT
  8
Default
 62
255
 10
     1089.306879
 20
      998.574946
 30
       18.475189
  0
POINT
  8
Default
 62
255
 10
     1088.733446
 20
      999.030919
 30
       18.430600
  0
POINT
  8
Default
 62
255
 10
     1087.948730
 20
      998.072005
 30
       18.642644
  0
POINT
  8
Default
 62
255
 10
     1088.573925
 20
      997.629147
 30
       18.636877
  0
POINT
  8
Default
 62
255
 10
     1088.702022
 20
      997.750586
 30
       18.629089
  0
POINT
  8
Default
 62
255
 10
     1088.488087
 20
      998.239813
 30
       18.599051
  0
POINT
  8
Default
 62
255
 10
     1089.806308
 20
      999.372857
 30
       18.318420
  0
POINT
  8
Default
 62
255
 10
     1089.318582
 20
     1000.748391
 30
       18.886660
  0
POINT
  8
Default
 62
255
 10
     1089.295281
 20
     1000.695623
 30
       18.686396
  0
POINT
  8
Default
 62
255
 10
     1089.460812
 20
     1000.595979
 30
       18.478501
  0
POINT
  8
Default
 62
255
 10
     1088.265040
 20
      999.273388
 30
       18.504469
  0
POINT
  8
Default
 62
255
 10
     1088.395016
 20
      999.176175
 30
       18.477946
  0
POINT
  8
Default
 62
255
 10
     1088.430586
 20
      998.967587
 30
       18.437176
  0
POINT
  8
Default
 62
255
 10
     1088.397455
 20
      998.842909
 30
       18.404177
  0
POINT
  8
Default
 62
255
 10
     1088.458008
 20
      998.861550
 30
       18.408165
  0
POINT
  8
Default
 62
255
 10
     1088.359253
 20
      998.674855
 30
       18.525967
  0
POINT
  8
Default
 62
255
 10
     1088.313850
 20
      998.518326
 30
       18.593290
  0
POINT
  8
Default
 62
255
 10
     1088.172491
 20
      998.366528
 30
       18.581804
  0
POINT
  8
Default
 62
255
 10
     1088.206160
 20
      998.669500
 30
       18.196176
  0
POINT
  8
Default
 62
255
 10
     1088.164140
 20
      998.830657
 30
       18.232419
  0
POINT
  8
Default
 62
255
 10
     1087.728494
 20
      998.190488
 30
       18.692929
  0
POINT
  8
Default
 62
255
 10
     1088.296965
 20
      999.482921
 30
       18.918312
  0
POINT
  8
Default
 62
255
 10
     1088.389825
 20
      999.582287
 30
       18.858598
  0
POINT
  8
Default
 62
255
 10
     1090.201012
 20
      999.855163
 30
       18.962858
  0
POINT
  8
Default
 62
255
 10
     1090.181204
 20
      999.567769
 30
       18.972668
  0
POINT
  8
Default
 62
255
 10
     1089.862434
 20
      999.000097
 30
       18.896463
  0
POINT
  8
Default
 62
255
 10
     1089.242973
 20
      998.039407
 30
       18.973096
  0
POINT
  8
Default
 62
255
 10
     1089.770860
 20
     1000.268856
 30
       18.944973
  0
POINT
  8
Default
 62
255
 10
     1088.746699
 20
     1000.116570
 30
       18.888727
  0
POINT
  8
Default
 62
255
 10
     1089.067150
 20
     1000.380321
 30
       18.472539
  0
POINT
  8
Default
 62
255
 10
     1088.416802
 20
      999.498515
 30
       18.538303
  0
POINT
  8
Default
 62
255
 10
     1088.354522
 20
      997.948058
 30
       18.585653
  0
POINT
  8
Default
 62
255
 10
     1088.639386
 20
      997.908819
 30
       18.585838
  0
POINT
  8
Default
 62
255
 10
     1088.538411
 20
      997.814341
 30
       18.594316
  0
POINT
  8
Default
 62
255
 10
     1088.974929
 20
      998.355711
 30
       18.557997
  0
POINT
  8
Default
 62
255
 10
     1087.930133
 20
      998.220494
 30
       18.671075
  0
POINT
  8
Default
 62
255
 10
     1088.084041
 20
      999.119742
 30
       18.307095
  0
POINT
  8
Default
 62
255
 10
     1087.916093
 20
      999.222378
 30
       18.359628
  0
POINT
  8
Default
 62
255
 10
     1088.737905
 20
      999.887139
 30
       18.488998
  0
POINT
  8
Default
 62
255
 10
     1088.680171
 20
      999.862918
 30
       18.662743
  0
POINT
  8
Default
 62
255
 10
     1089.525350
 20
     1000.530487
 30
       18.701686
  0
POINT
  8
Default
 62
255
 10
     1089.694021
 20
     1000.413391
 30
       18.630970
  0
POINT
  8
Default
 62
255
 10
     1089.828905
 20
     1000.287145
 30
       18.564483
  0
POINT
  8
Default
 62
255
 10
     1089.985116
 20
     1000.145821
 30
       18.373203
  0
POINT
  8
Default
 62
255
 10
     1090.173789
 20
     1000.054530
 30
       18.947629
  0
POINT
  8
Default
 62
255
 10
     1088.908875
 20
     1000.392295
 30
       18.981699
  0
POINT
  8
Default
 62
255
 10
     1088.779053
 20
     1000.283960
 30
       18.992119
  0
POINT
  8
Default
 62
255
 10
     1088.467653
 20
      999.765802
 30
       18.950227
  0
POINT
  8
Default
 62
255
 10
     1088.376507
 20
      999.603604
 30
       18.918264
  0
POINT
  8
Default
 62
255
 10
     1087.768945
 20
      998.744919
 30
       18.122456
  0
POINT
  8
Default
 62
255
 10
     1087.677182
 20
      998.564556
 30
       18.132090
  0
POINT
  8
Default
 62
255
 10
     1087.949838
 20
      998.632242
 30
       18.157068
  0
POINT
  8
Default
 62
255
 10
     1087.571172
 20
      998.734553
 30
       18.155351
  0
POINT
  8
Default
 62
255
 10
     1088.249054
 20
      998.941720
 30
       18.166391
  0
POINT
  8
Default
 62
255
 10
     1087.817270
 20
      998.183078
 30
       18.677431
  0
POINT
  8
Default
 62
255
 10
     1089.558397
 20
      998.387584
 30
       19.007229
  0
POINT
  8
Default
 62
255
 10
     1088.250222
 20
      999.119939
 30
       18.188984
  0
POINT
  8
Default
 62
255
 10
     1088.238703
 20
      999.198019
 30
       18.222523
  0
POINT
  8
Default
 62
255
 10
     1088.279153
 20
      999.165150
 30
       18.224820
  0
POINT
  8
Default
 62
255
 10
     1088.315183
 20
      999.070834
 30
       18.217481
  0
POINT
  8
Default
 62
255
 10
     1088.201320
 20
      999.165153
 30
       18.226631
  0
POINT
  8
Default
 62
255
 10
     1088.140310
 20
      999.087806
 30
       18.233468
  0
POINT
  8
Default
 62
255
 10
     1087.525597
 20
      998.867624
 30
       18.191614
  0
POINT
  8
Default
 62
255
 10
     1087.640540
 20
      998.891815
 30
       18.166819
  0
POINT
  8
Default
 62
255
 10
     1087.745686
 20
      998.922495
 30
       18.158536
  0
POINT
  8
Default
 62
255
 10
     1087.853542
 20
      998.980286
 30
       18.181441
  0
POINT
  8
Default
 62
255
 10
     1088.022497
 20
      998.717191
 30
       18.215852
  0
POINT
  8
Default
 62
255
 10
     1087.985702
 20
      998.779150
 30
       18.221350
  0
POINT
  8
Default
 62
255
 10
     1087.805737
 20
      998.677300
 30
       18.125971
  0
POINT
  8
Default
 62
255
 10
     1087.839819
 20
      998.467992
 30
       18.115093
  0
POINT
  8
Default
 62
255
 10
     1087.549432
 20
      998.673593
 30
       18.154886
  0
POINT
  8
Default
 62
255
 10
     1087.503573
 20
      998.442886
 30
       18.192267
  0
POINT
  8
Default
 62
255
 10
     1087.474190
 20
      998.436827
 30
       18.220481
  0
POINT
  8
Default
 62
255
 10
     1088.329237
 20
      999.000959
 30
       18.262762
  0
POINT
  8
Default
 62
255
 10
     1088.350396
 20
      998.903612
 30
       18.233372
  0
POINT
  8
Default
 62
255
 10
     1087.804971
 20
      998.329322
 30
       18.138625
  0
POINT
  8
Default
 62
255
 10
     1087.590725
 20
      998.382867
 30
       18.217495
  0
POINT
  8
Default
 62
255
 10
     1087.793183
 20
      998.294839
 30
       18.155755
  0
POINT
  8
Default
 62
255
 10
     1087.761763
 20
      998.391507
 30
       18.116673
  0
POINT
  8
Default
 62
255
 10
     1087.915548
 20
      998.398408
 30
       18.122845
  0
POINT
  8
Default
 62
255
 10
     1087.656813
 20
      998.780081
 30
       18.141914
  0
POINT
  8
Default
 62
255
 10
     1087.473942
 20
      998.693333
 30
       18.206139
  0
POINT
  8
Default
 62
255
 10
     1088.745902
 20
     1000.198020
 30
       19.001238
  0
POINT
  8
Default
 62
255
 10
     1088.639138
 20
     1000.098255
 30
       19.013920
  0
POINT
  8
Default
 62
255
 10
     1088.462381
 20
      999.977726
 30
       19.014281
  0
POINT
  8
Default
 62
255
 10
     1089.825439
 20
      999.077705
 30
       18.478504
  0
POINT
  8
Default
 62
255
 10
     1090.177467
 20
      999.713827
 30
       18.405866
  0
POINT
  8
Default
 62
255
 10
     1090.177779
 20
      999.684367
 30
       18.485245
  0
POINT
  8
Default
 62
255
 10
     1090.215455
 20
      999.639950
 30
       18.745681
  0
POINT
  8
Default
 62
255
 10
     1088.884099
 20
     1000.354642
 30
       18.961389
  0
POINT
  8
Default
 62
255
 10
     1088.177877
 20
      998.585422
 30
       18.233747
  0
POINT
  8
Default
 62
255
 10
     1089.161347
 20
     1000.143766
 30
       18.267780
  0
POINT
  8
Default
 62
255
 10
     1089.073403
 20
     1000.040377
 30
       18.246188
  0
POINT
  8
Default
 62
255
 10
     1089.026426
 20
      999.904295
 30
       18.257285
  0
POINT
  8
Default
 62
255
 10
     1088.970047
 20
      999.781786
 30
       18.293110
  0
POINT
  8
Default
 62
255
 10
     1088.926465
 20
      999.640384
 30
       18.280701
  0
POINT
  8
Default
 62
255
 10
     1089.527273
 20
     1000.233552
 30
       18.183186
  0
POINT
  8
Default
 62
255
 10
     1089.542750
 20
     1000.148195
 30
       18.150818
  0
POINT
  8
Default
 62
255
 10
     1089.646675
 20
     1000.062263
 30
       18.148991
  0
POINT
  8
Default
 62
255
 10
     1089.698726
 20
      999.988226
 30
       18.150466
  0
POINT
  8
Default
 62
255
 10
     1089.644474
 20
      999.923204
 30
       18.168965
  0
POINT
  8
Default
 62
255
 10
     1089.555490
 20
      999.909338
 30
       18.167315
  0
POINT
  8
Default
 62
255
 10
     1089.472406
 20
      999.863852
 30
       18.189777
  0
POINT
  8
Default
 62
255
 10
     1089.013295
 20
      998.746655
 30
       18.341730
  0
POINT
  8
Default
 62
255
 10
     1088.864601
 20
      998.704197
 30
       18.369938
  0
POINT
  8
Default
 62
255
 10
     1088.845464
 20
      998.610207
 30
       18.445111
  0
POINT
  8
Default
 62
255
 10
     1088.797576
 20
      998.508420
 30
       18.537719
  0
POINT
  8
Default
 62
255
 10
     1088.720100
 20
      998.395858
 30
       18.589909
  0
POINT
  8
Default
 62
255
 10
     1088.610062
 20
      998.301518
 30
       18.601025
  0
POINT
  8
Default
 62
255
 10
     1088.571501
 20
      998.195601
 30
       18.579165
  0
POINT
  8
Default
 62
255
 10
     1088.656818
 20
      998.161482
 30
       18.583925
  0
POINT
  8
Default
 62
255
 10
     1088.722080
 20
      998.097180
 30
       18.597369
  0
POINT
  8
Default
 62
255
 10
     1088.777915
 20
      997.955252
 30
       18.606908
  0
POINT
  8
Default
 62
255
 10
     1089.268476
 20
      998.533374
 30
       18.482431
  0
POINT
  8
Default
 62
255
 10
     1089.220128
 20
      998.452174
 30
       18.505739
  0
POINT
  8
Default
 62
255
 10
     1089.151264
 20
      998.339137
 30
       18.534062
  0
POINT
  8
Default
 62
255
 10
     1089.099051
 20
      998.256442
 30
       18.544704
  0
POINT
  8
Default
 62
255
 10
     1089.059785
 20
      998.193113
 30
       18.556854
  0
POINT
  8
Default
 62
255
 10
     1088.976252
 20
      998.063954
 30
       18.595738
  0
POINT
  8
Default
 62
255
 10
     1088.919418
 20
      997.992708
 30
       18.601623
  0
POINT
  8
Default
 62
255
 10
     1089.367998
 20
      998.403620
 30
       18.519486
  0
POINT
  8
Default
 62
255
 10
     1089.311683
 20
      998.341788
 30
       18.539420
  0
POINT
  8
Default
 62
255
 10
     1089.256465
 20
      998.270917
 30
       18.533559
  0
POINT
  8
Default
 62
255
 10
     1089.181523
 20
      998.194973
 30
       18.532041
  0
POINT
  8
Default
 62
255
 10
     1089.132936
 20
      998.138501
 30
       18.544901
  0
POINT
  8
Default
 62
255
 10
     1089.106243
 20
     1000.527178
 30
       18.900536
  0
POINT
  8
Default
 62
255
 10
     1088.963632
 20
     1000.346430
 30
       18.813470
  0
POINT
  8
Default
 62
255
 10
     1088.484380
 20
      999.543019
 30
       18.484281
  0
POINT
  8
Default
 62
255
 10
     1088.330451
 20
      999.401286
 30
       18.525287
  0
POINT
  8
Default
 62
255
 10
     1088.389272
 20
      999.475799
 30
       18.584179
  0
POINT
  8
Default
 62
255
 10
     1088.417163
 20
      999.702140
 30
       18.937907
  0
POINT
  8
Default
 62
255
 10
     1088.257453
 20
      999.309549
 30
       18.536718
  0
POINT
  8
Default
 62
255
 10
     1089.143616
 20
     1000.622146
 30
       18.532828
  0
POINT
  8
Default
 62
255
 10
     1088.823964
 20
     1000.084668
 30
       18.615988
  0
POINT
  8
Default
 62
255
 10
     1088.459905
 20
      999.600163
 30
       18.785689
  0
POINT
  8
Default
 62
255
 10
     1088.700607
 20
      999.555570
 30
       18.397876
  0
POINT
  8
Default
 62
255
 10
     1088.562553
 20
      999.516708
 30
       18.432578
  0
POINT
  8
Default
 62
255
 10
     1088.627499
 20
      999.680116
 30
       18.404165
  0
POINT
  8
Default
 62
255
 10
     1088.851725
 20
      999.964555
 30
       18.340437
  0
POINT
  8
Default
 62
255
 10
     1089.078110
 20
      999.900993
 30
       18.236911
  0
POINT
  8
Default
 62
255
 10
     1089.134993
 20
      999.708673
 30
       18.248791
  0
POINT
  8
Default
 62
255
 10
     1089.228782
 20
      999.751320
 30
       18.272661
  0
POINT
  8
Default
 62
255
 10
     1088.608373
 20
      999.982213
 30
       19.003605
  0
POINT
  8
Default
 62
255
 10
     1088.840509
 20
     1000.412192
 30
       18.979607
  0
POINT
  8
Default
 62
255
 10
     1088.927984
 20
     1000.291863
 30
       18.872903
  0
POINT
  8
Default
 62
255
 10
     1088.504771
 20
      999.821572
 30
       18.953097
  0
POINT
  8
Default
 62
255
 10
     1088.336148
 20
      998.321301
 30
       18.591059
  0
POINT
  8
Default
 62
255
 10
     1088.196783
 20
      998.102030
 30
       18.600632
  0
POINT
  8
Default
 62
255
 10
     1088.021809
 20
      998.144987
 30
       18.628649
  0
POINT
  8
Default
 62
255
 10
     1088.108975
 20
      998.365873
 30
       18.574522
  0
POINT
  8
Default
 62
255
 10
     1087.663755
 20
      998.706439
 30
       18.133798
  0
POINT
  8
Default
 62
255
 10
     1087.932938
 20
      999.055068
 30
       18.271450
  0
POINT
  8
Default
 62
255
 10
     1087.999852
 20
      999.160918
 30
       18.321003
  0
POINT
  8
Default
 62
255
 10
     1088.247601
 20
      999.245068
 30
       18.360486
  0
POINT
  8
Default
 62
255
 10
     1088.467619
 20
      999.128671
 30
       18.461359
  0
POINT
  8
Default
 62
255
 10
     1088.642263
 20
      998.943329
 30
       18.431180
  0
POINT
  8
Default
 62
255
 10
     1088.579621
 20
      998.758188
 30
       18.421546
  0
POINT
  8
Default
 62
255
 10
     1088.146108
 20
      998.225821
 30
       18.611547
  0
POINT
  8
Default
 62
255
 10
     1088.475012
 20
      998.270734
 30
       18.598415
  0
POINT
  8
Default
 62
255
 10
     1089.278527
 20
      999.061986
 30
       18.329876
  0
POINT
  8
Default
 62
255
 10
     1088.993567
 20
      998.848075
 30
       18.351651
  0
POINT
  8
Default
 62
255
 10
     1088.867197
 20
      998.895666
 30
       18.365963
  0
POINT
  8
Default
 62
255
 10
     1089.303708
 20
      998.704457
 30
       18.432007
  0
POINT
  8
Default
 62
255
 10
     1089.769983
 20
      998.727975
 30
       18.941339
  0
POINT
  8
Default
 62
255
 10
     1089.083230
 20
      998.723765
 30
       18.343252
  0
POINT
  8
Default
 62
255
 10
     1088.960742
 20
      998.543218
 30
       18.451948
  0
POINT
  8
Default
 62
255
 10
     1089.085002
 20
      998.431207
 30
       18.501553
  0
POINT
  8
Default
 62
255
 10
     1089.129734
 20
      998.818464
 30
       18.351824
  0
POINT
  8
Default
 62
255
 10
     1089.448572
 20
      998.734692
 30
       18.432893
  0
POINT
  8
Default
 62
255
 10
     1089.494960
 20
      998.596826
 30
       18.453961
  0
POINT
  8
Default
 62
255
 10
     1089.625566
 20
      998.771340
 30
       18.425415
  0
POINT
  8
Default
 62
255
 10
     1089.005796
 20
      997.960157
 30
       18.602207
  0
POINT
  8
Default
 62
255
 10
     1089.010615
 20
     1000.168920
 30
       18.481873
  0
POINT
  8
Default
 62
255
 10
     1089.181131
 20
     1000.300133
 30
       18.225557
  0
POINT
  8
Default
 62
255
 10
     1088.907963
 20
     1000.064277
 30
       18.329161
  0
POINT
  8
Default
 62
255
 10
     1089.033617
 20
     1000.227156
 30
       18.312506
  0
POINT
  8
Default
 62
255
 10
     1088.905957
 20
      999.934202
 30
       18.337479
  0
POINT
  8
Default
 62
255
 10
     1088.729982
 20
      999.843792
 30
       18.424542
  0
POINT
  8
Default
 62
255
 10
     1088.576242
 20
      999.621991
 30
       18.432267
  0
POINT
  8
Default
 62
255
 10
     1088.762927
 20
      999.645098
 30
       18.362860
  0
POINT
  8
Default
 62
255
 10
     1088.537772
 20
      999.136196
 30
       18.436061
  0
POINT
  8
Default
 62
255
 10
     1088.481154
 20
      999.017808
 30
       18.456957
  0
POINT
  8
Default
 62
255
 10
     1088.729049
 20
      999.235423
 30
       18.406938
  0
POINT
  8
Default
 62
255
 10
     1088.933888
 20
      998.436921
 30
       18.521969
  0
POINT
  8
Default
 62
255
 10
     1088.989104
 20
      998.237435
 30
       18.563119
  0
POINT
  8
Default
 62
255
 10
     1089.734507
 20
      999.396527
 30
       18.301090
  0
POINT
  8
Default
 62
255
 10
     1089.783901
 20
      999.201129
 30
       18.361699
  0
POINT
  8
Default
 62
255
 10
     1089.712383
 20
      999.101772
 30
       18.374504
  0
POINT
  8
Default
 62
255
 10
     1088.420121
 20
     1000.102764
 30
       19.024806
  0
POINT
  8
Default
 62
255
 10
     1088.754558
 20
     1000.397991
 30
       19.008577
  0
POINT
  8
Default
 62
255
 10
     1088.463723
 20
     1000.232008
 30
       19.017190
  0
POINT
  8
Default
 62
255
 10
     1088.572502
 20
     1000.291965
 30
       19.016026
  0
POINT
  8
Default
 62
255
 10
     1088.471343
 20
     1000.065591
 30
       19.023972
  0
POINT
  8
Default
 62
255
 10
     1088.689471
 20
     1000.487214
 30
       19.009074
  0
POINT
  8
Default
 62
255
 10
     1088.359185
 20
      999.861369
 30
       18.978986
  0
POINT
  8
Default
 62
255
 10
     1088.542854
 20
      999.870211
 30
       18.952518
  0
POINT
  8
Default
 62
255
 10
     1088.252681
 20
      999.675430
 30
       18.959776
  0
POINT
  8
Default
 62
255
 10
     1088.305802
 20
     1000.000215
 30
       19.030389
  0
POINT
  8
Default
 62
255
 10
     1087.936672
 20
      999.689714
 30
       18.946031
  0
POINT
  8
Default
 62
255
 10
     1088.316688
 20
      999.689495
 30
       18.951706
  0
POINT
  8
Default
 62
255
 10
     1088.161729
 20
      999.611875
 30
       18.943963
  0
POINT
  8
Default
 62
255
 10
     1088.103806
 20
      999.677639
 30
       18.963814
  0
POINT
  8
Default
 62
255
 10
     1088.197849
 20
      999.833680
 30
       18.993787
  0
POINT
  8
Default
 62
255
 10
     1088.938571
 20
     1000.518350
 30
       18.995333
  0
POINT
  8
Default
 62
255
 10
     1088.758527
 20
     1000.568973
 30
       19.004157
  0
POINT
  8
Default
 62
255
 10
     1088.865565
 20
     1000.572875
 30
       19.004092
  0
POINT
  8
Default
 62
255
 10
     1088.991954
 20
     1000.538411
 30
       18.975664
  0
POINT
  8
Default
 62
255
 10
     1088.999389
 20
     1000.733349
 30
       19.022051
  0
POINT
  8
Default
 62
255
 10
     1089.135485
 20
     1000.825911
 30
       19.034632
  0
POINT
  8
Default
 62
255
 10
     1089.105278
 20
     1000.631939
 30
       18.932578
  0
POINT
  8
Default
 62
255
 10
     1089.160629
 20
     1000.718358
 30
       18.942239
  0
POINT
  8
Default
 62
255
 10
     1089.165552
 20
     1000.782035
 30
       18.976446
  0
POINT
  8
Default
 62
255
 10
     1089.308207
 20
     1000.715391
 30
       18.997277
  0
POINT
  8
Default
 62
255
 10
     1089.204584
 20
     1000.801279
 30
       19.031115
  0
POINT
  8
Default
 62
255
 10
     1089.247911
 20
     1000.735123
 30
       18.936499
  0
POINT
  8
Default
 62
255
 10
     1088.998688
 20
     1000.622629
 30
       19.015152
  0
POINT
  8
Default
 62
255
 10
     1090.344728
 20
      999.626691
 30
       19.015551
  0
POINT
  8
Default
 62
255
 10
     1090.337351
 20
      999.705594
 30
       19.044378
  0
POINT
  8
Default
 62
255
 10
     1090.304716
 20
      999.774656
 30
       19.017989
  0
POINT
  8
Default
 62
255
 10
     1090.446564
 20
      999.625526
 30
       19.057415
  0
POINT
  8
Default
 62
255
 10
     1090.434322
 20
      999.532192
 30
       19.021660
  0
POINT
  8
Default
 62
255
 10
     1090.317021
 20
      999.354694
 30
       19.007780
  0
POINT
  8
Default
 62
255
 10
     1090.304134
 20
      999.531794
 30
       19.013639
  0
POINT
  8
Default
 62
255
 10
     1090.300623
 20
      999.684489
 30
       18.964549
  0
POINT
  8
Default
 62
255
 10
     1090.128749
 20
      999.275532
 30
       18.979899
  0
POINT
  8
Default
 62
255
 10
     1090.219310
 20
      999.189905
 30
       18.984670
  0
POINT
  8
Default
 62
255
 10
     1090.203774
 20
      999.434240
 30
       18.990534
  0
POINT
  8
Default
 62
255
 10
     1090.128363
 20
      999.105437
 30
       18.955061
  0
POINT
  8
Default
 62
255
 10
     1090.073576
 20
      999.206304
 30
       18.967832
  0
POINT
  8
Default
 62
255
 10
     1090.103823
 20
      998.991745
 30
       18.934327
  0
POINT
  8
Default
 62
255
 10
     1089.968721
 20
      998.882332
 30
       18.930930
  0
POINT
  8
Default
 62
255
 10
     1090.014289
 20
      999.126877
 30
       18.949027
  0
POINT
  8
Default
 62
255
 10
     1089.952588
 20
      999.031403
 30
       18.913026
  0
POINT
  8
Default
 62
255
 10
     1089.920370
 20
      998.773469
 30
       18.939729
  0
POINT
  8
Default
 62
255
 10
     1089.839606
 20
      998.870751
 30
       18.941705
  0
POINT
  8
Default
 62
255
 10
     1089.865783
 20
      998.703039
 30
       18.961014
  0
POINT
  8
Default
 62
255
 10
     1089.726436
 20
      998.646941
 30
       18.945403
  0
POINT
  8
Default
 62
255
 10
     1089.809877
 20
      998.606160
 30
       18.992417
  0
POINT
  8
Default
 62
255
 10
     1089.798573
 20
      998.485256
 30
       19.011101
  0
POINT
  8
Default
 62
255
 10
     1089.680848
 20
      998.464849
 30
       19.005555
  0
POINT
  8
Default
 62
255
 10
     1089.632130
 20
      998.588943
 30
       18.978011
  0
POINT
  8
Default
 62
255
 10
     1089.738200
 20
      998.370062
 30
       19.022698
  0
POINT
  8
Default
 62
255
 10
     1089.637753
 20
      998.368927
 30
       19.016578
  0
POINT
  8
Default
 62
255
 10
     1089.656119
 20
      998.276743
 30
       19.037010
  0
POINT
  8
Default
 62
255
 10
     1089.501925
 20
      998.317214
 30
       19.022377
  0
POINT
  8
Default
 62
255
 10
     1089.475093
 20
      998.188654
 30
       19.047729
  0
POINT
  8
Default
 62
255
 10
     1089.575325
 20
      998.207922
 30
       19.065279
  0
POINT
  8
Default
 62
255
 10
     1089.524339
 20
      998.264851
 30
       19.050118
  0
POINT
  8
Default
 62
255
 10
     1089.403049
 20
      998.130321
 30
       19.032631
  0
POINT
  8
Default
 62
255
 10
     1089.515869
 20
      998.156593
 30
       19.065899
  0
POINT
  8
Default
 62
255
 10
     1089.182685
 20
      997.967444
 30
       18.979819
  0
POINT
  8
Default
 62
255
 10
     1089.146050
 20
      997.902762
 30
       18.989041
  0
POINT
  8
Default
 62
255
 10
     1089.089611
 20
      997.836590
 30
       18.994418
  0
POINT
  8
Default
 62
255
 10
     1089.254063
 20
      997.981402
 30
       18.992443
  0
POINT
  8
Default
 62
255
 10
     1089.385217
 20
      998.039357
 30
       19.037161
  0
POINT
  8
Default
 62
255
 10
     1089.332194
 20
      998.016982
 30
       19.023266
  0
POINT
  8
Default
 62
255
 10
     1089.320395
 20
      998.097234
 30
       19.012677
  0
POINT
  8
Default
 62
255
 10
     1089.600919
 20
      998.471961
 30
       18.990435
  0
POINT
  8
Default
 62
255
 10
     1089.656763
 20
      998.659945
 30
       18.944798
  0
POINT
  8
Default
 62
255
 10
     1089.742046
 20
      998.794611
 30
       18.948974
  0
POINT
  8
Default
 62
255
 10
     1089.692132
 20
      998.723524
 30
       18.923586
  0
POINT
  8
Default
 62
255
 10
     1089.771471
 20
      998.862385
 30
       18.919199
  0
POINT
  8
Default
 62
255
 10
     1089.831278
 20
      998.941821
 30
       18.922254
  0
POINT
  8
Default
 62
255
 10
     1089.920443
 20
      999.065294
 30
       18.909645
  0
POINT
  8
Default
 62
255
 10
     1089.995668
 20
      999.215749
 30
       18.949773
  0
POINT
  8
Default
 62
255
 10
     1089.969614
 20
      999.152576
 30
       18.919949
  0
POINT
  8
Default
 62
255
 10
     1090.032611
 20
      999.285483
 30
       18.961181
  0
POINT
  8
Default
 62
255
 10
     1090.113190
 20
      999.352428
 30
       18.957686
  0
POINT
  8
Default
 62
255
 10
     1090.145214
 20
      999.446058
 30
       18.955878
  0
POINT
  8
Default
 62
255
 10
     1090.157964
 20
      999.925696
 30
       18.231493
  0
POINT
  8
Default
 62
255
 10
     1090.210839
 20
      999.846326
 30
       18.271851
  0
POINT
  8
Default
 62
255
 10
     1090.123497
 20
      999.726150
 30
       18.306434
  0
POINT
  8
Default
 62
255
 10
     1090.088820
 20
      999.614775
 30
       18.311007
  0
POINT
  8
Default
 62
255
 10
     1090.010942
 20
      999.518082
 30
       18.307230
  0
POINT
  8
Default
 62
255
 10
     1089.940745
 20
      999.329618
 30
       18.373634
  0
POINT
  8
Default
 62
255
 10
     1089.900422
 20
      999.267861
 30
       18.377076
  0
POINT
  8
Default
 62
255
 10
     1089.817628
 20
      999.107981
 30
       18.400493
  0
POINT
  8
Default
 62
255
 10
     1089.751831
 20
      998.947469
 30
       18.430927
  0
POINT
  8
Default
 62
255
 10
     1089.672622
 20
      998.753103
 30
       18.468034
  0
POINT
  8
Default
 62
255
 10
     1089.554707
 20
      998.535089
 30
       18.499007
  0
POINT
  8
Default
 62
255
 10
     1089.612764
 20
      998.623382
 30
       18.477125
  0
POINT
  8
Default
 62
255
 10
     1089.473689
 20
      998.426448
 30
       18.527424
  0
POINT
  8
Default
 62
255
 10
     1089.342410
 20
      998.284332
 30
       18.574948
  0
POINT
  8
Default
 62
255
 10
     1089.422996
 20
      998.356581
 30
       18.557184
  0
POINT
  8
Default
 62
255
 10
     1089.319099
 20
      998.192202
 30
       18.556545
  0
POINT
  8
Default
 62
255
 10
     1089.259788
 20
      998.104747
 30
       18.580462
  0
POINT
  8
Default
 62
255
 10
     1089.199737
 20
      998.038406
 30
       18.635960
  0
POINT
  8
Default
 62
255
 10
     1089.110062
 20
      997.956803
 30
       18.626042
  0
POINT
  8
Default
 62
255
 10
     1089.041070
 20
      997.863073
 30
       18.624259
  0
POINT
  8
Default
 62
255
 10
     1088.950076
 20
      997.778067
 30
       18.636806
  0
POINT
  8
Default
 62
255
 10
     1088.855740
 20
      997.716241
 30
       18.623428
  0
POINT
  8
Default
 62
255
 10
     1088.774797
 20
      997.618322
 30
       18.625874
  0
POINT
  8
Default
 62
255
 10
     1088.744203
 20
      997.568138
 30
       18.635687
  0
POINT
  8
Default
 62
255
 10
     1088.723783
 20
      997.528740
 30
       18.644394
  0
POINT
  8
Default
 62
255
 10
     1088.688503
 20
      997.466374
 30
       18.664968
  0
POINT
  8
Default
 62
255
 10
     1090.109758
 20
     1000.029572
 30
       18.173046
  0
POINT
  8
Default
 62
255
 10
     1089.987270
 20
     1000.101930
 30
       18.188704
  0
POINT
  8
Default
 62
255
 10
     1089.873409
 20
     1000.199017
 30
       18.192458
  0
POINT
  8
Default
 62
255
 10
     1089.942605
 20
     1000.144030
 30
       18.192334
  0
POINT
  8
Default
 62
255
 10
     1089.787772
 20
     1000.257643
 30
       18.201558
  0
POINT
  8
Default
 62
255
 10
     1089.722212
 20
     1000.303683
 30
       18.138717
  0
POINT
  8
Default
 62
255
 10
     1089.731442
 20
     1000.114806
 30
       18.147655
  0
POINT
  8
Default
 62
255
 10
     1089.633104
 20
     1000.423167
 30
       18.137715
  0
POINT
  8
Default
 62
255
 10
     1089.549877
 20
     1000.471715
 30
       18.161234
  0
POINT
  8
Default
 62
255
 10
     1089.507042
 20
     1000.535924
 30
       18.174371
  0
POINT
  8
Default
 62
255
 10
     1089.436497
 20
     1000.562560
 30
       18.167516
  0
POINT
  8
Default
 62
255
 10
     1089.366979
 20
     1000.584037
 30
       18.229687
  0
POINT
  8
Default
 62
255
 10
     1089.320388
 20
     1000.648632
 30
       18.281113
  0
POINT
  8
Default
 62
255
 10
     1089.236100
 20
     1000.640449
 30
       18.330887
  0
POINT
  8
Default
 62
255
 10
     1089.253405
 20
     1000.600157
 30
       18.285069
  0
POINT
  8
Default
 62
255
 10
     1089.199539
 20
     1000.476497
 30
       18.253395
  0
POINT
  8
Default
 62
255
 10
     1088.327031
 20
      999.239192
 30
       18.509046
  0
POINT
  8
Default
 62
255
 10
     1088.291823
 20
      999.296430
 30
       18.519242
  0
POINT
  8
Default
 62
255
 10
     1088.477060
 20
      999.330619
 30
       18.452065
  0
POINT
  8
Default
 62
255
 10
     1088.544885
 20
      999.249956
 30
       18.468242
  0
POINT
  8
Default
 62
255
 10
     1088.686377
 20
      999.768772
 30
       18.389139
  0
POINT
  8
Default
 62
255
 10
     1088.976419
 20
     1000.147781
 30
       18.310107
  0
POINT
  8
Default
 62
255
 10
     1087.787447
 20
      998.096212
 30
       18.703757
  0
POINT
  8
Default
 62
255
 10
     1087.874129
 20
      998.026583
 30
       18.688620
  0
POINT
  8
Default
 62
255
 10
     1087.958855
 20
      997.954903
 30
       18.678146
  0
POINT
  8
Default
 62
255
 10
     1088.049121
 20
      997.876281
 30
       18.657996
  0
POINT
  8
Default
 62
255
 10
     1088.170129
 20
      997.759905
 30
       18.661190
  0
POINT
  8
Default
 62
255
 10
     1088.257648
 20
      997.693486
 30
       18.661437
  0
POINT
  8
Default
 62
255
 10
     1088.359944
 20
      997.616925
 30
       18.667776
  0
POINT
  8
Default
 62
255
 10
     1088.457960
 20
      997.560296
 30
       18.682335
  0
POINT
  8
Default
 62
255
 10
     1088.520913
 20
      997.502894
 30
       18.686072
  0
POINT
  8
Default
 62
255
 10
     1088.638081
 20
      997.434785
 30
       18.724482
  0
POINT
  8
Default
 62
255
 10
     1088.546525
 20
      997.570641
 30
       18.646927
  0
POINT
  8
Default
 62
255
 10
     1088.596633
 20
      997.755421
 30
       18.603019
  0
POINT
  8
Default
 62
255
 10
     1088.242386
 20
      997.813971
 30
       18.603369
  0
POINT
  8
Default
 62
255
 10
     1088.387005
 20
      997.761147
 30
       18.598596
  0
POINT
  8
Default
 62
255
 10
     1088.130504
 20
      997.973109
 30
       18.606271
  0
POINT
  8
Default
 62
255
 10
     1088.365456
 20
      998.140215
 30
       18.595408
  0
POINT
  8
Default
 62
255
 10
     1088.514184
 20
      998.102120
 30
       18.580951
  0
POINT
  8
Default
 62
255
 10
     1088.868044
 20
      998.111552
 30
       18.595549
  0
POINT
  8
Default
 62
255
 10
     1088.704770
 20
      998.230928
 30
       18.586874
  0
POINT
  8
Default
 62
255
 10
     1088.802203
 20
      998.278985
 30
       18.595615
  0
POINT
  8
Default
 62
255
 10
     1088.243907
 20
      998.259335
 30
       18.598078
  0
POINT
  8
Default
 62
255
 10
     1088.436632
 20
      998.385555
 30
       18.581088
  0
POINT
  8
Default
 62
255
 10
     1088.493960
 20
      998.477678
 30
       18.588849
  0
POINT
  8
Default
 62
255
 10
     1088.521751
 20
      998.369497
 30
       18.591548
  0
POINT
  8
Default
 62
255
 10
     1088.625439
 20
      998.470741
 30
       18.579445
  0
POINT
  8
Default
 62
255
 10
     1088.536733
 20
      998.573795
 30
       18.541144
  0
POINT
  8
Default
 62
255
 10
     1088.669571
 20
      998.600306
 30
       18.514787
  0
POINT
  8
Default
 62
255
 10
     1088.769168
 20
      998.847202
 30
       18.386085
  0
POINT
  8
Default
 62
255
 10
     1088.724577
 20
      998.705830
 30
       18.416931
  0
POINT
  8
Default
 62
255
 10
     1088.676234
 20
      998.795327
 30
       18.402847
  0
POINT
  8
Default
 62
255
 10
     1088.605206
 20
      998.674864
 30
       18.459985
  0
POINT
  8
Default
 62
255
 10
     1089.325032
 20
      998.828038
 30
       18.407756
  0
POINT
  8
Default
 62
255
 10
     1089.396039
 20
      998.954549
 30
       18.345301
  0
POINT
  8
Default
 62
255
 10
     1089.159937
 20
      998.951562
 30
       18.353067
  0
POINT
  8
Default
 62
255
 10
     1089.060034
 20
      998.979237
 30
       18.354362
  0
POINT
  8
Default
 62
255
 10
     1089.104294
 20
      999.081268
 30
       18.358247
  0
POINT
  8
Default
 62
255
 10
     1089.187234
 20
      999.185161
 30
       18.321877
  0
POINT
  8
Default
 62
255
 10
     1088.887851
 20
      999.024105
 30
       18.390831
  0
POINT
  8
Default
 62
255
 10
     1088.819113
 20
      999.133213
 30
       18.427874
  0
POINT
  8
Default
 62
255
 10
     1088.932850
 20
      999.159792
 30
       18.376635
  0
POINT
  8
Default
 62
255
 10
     1088.908693
 20
      999.285795
 30
       18.348982
  0
POINT
  8
Default
 62
255
 10
     1088.967350
 20
      999.399314
 30
       18.303498
  0
POINT
  8
Default
 62
255
 10
     1089.020223
 20
      999.233147
 30
       18.340137
  0
POINT
  8
Default
 62
255
 10
     1088.734856
 20
      999.447413
 30
       18.398856
  0
POINT
  8
Default
 62
255
 10
     1088.707530
 20
      999.349219
 30
       18.406730
  0
POINT
  8
Default
 62
255
 10
     1088.652562
 20
      999.167530
 30
       18.445015
  0
POINT
  8
Default
 62
255
 10
     1088.641036
 20
      999.068508
 30
       18.435803
  0
POINT
  8
Default
 62
255
 10
     1088.577801
 20
      998.966875
 30
       18.435600
  0
POINT
  8
Default
 62
255
 10
     1089.312596
 20
      999.502211
 30
       18.252641
  0
POINT
  8
Default
 62
255
 10
     1089.387028
 20
      999.650017
 30
       18.229352
  0
POINT
  8
Default
 62
255
 10
     1089.166311
 20
      999.500533
 30
       18.280469
  0
POINT
  8
Default
 62
255
 10
     1089.268627
 20
      999.634437
 30
       18.247149
  0
POINT
  8
Default
 62
255
 10
     1089.362842
 20
      999.343421
 30
       18.290257
  0
POINT
  8
Default
 62
255
 10
     1089.486456
 20
      999.464996
 30
       18.248693
  0
POINT
  8
Default
 62
255
 10
     1089.513540
 20
      999.257713
 30
       18.291948
  0
POINT
  8
Default
 62
255
 10
     1089.560467
 20
      999.025877
 30
       18.338177
  0
POINT
  8
Default
 62
255
 10
     1089.601521
 20
      999.181145
 30
       18.323827
  0
POINT
  8
Default
 62
255
 10
     1089.592397
 20
      998.902322
 30
       18.395736
  0
POINT
  8
Default
 62
255
 10
     1089.649817
 20
      999.473795
 30
       18.291502
  0
POINT
  8
Default
 62
255
 10
     1089.620166
 20
      999.625061
 30
       18.255483
  0
POINT
  8
Default
 62
255
 10
     1089.488544
 20
      999.591998
 30
       18.249499
  0
POINT
  8
Default
 62
255
 10
     1089.542801
 20
      999.798790
 30
       18.178162
  0
POINT
  8
Default
 62
255
 10
     1089.672032
 20
      999.813613
 30
       18.178673
  0
POINT
  8
Default
 62
255
 10
     1089.706941
 20
      999.705805
 30
       18.204917
  0
POINT
  8
Default
 62
255
 10
     1089.827693
 20
      999.451619
 30
       18.305577
  0
POINT
  8
Default
 62
255
 10
     1089.897571
 20
      999.547488
 30
       18.292660
  0
POINT
  8
Default
 62
255
 10
     1089.966926
 20
      999.666793
 30
       18.266178
  0
POINT
  8
Default
 62
255
 10
     1090.026455
 20
      999.721284
 30
       18.277799
  0
POINT
  8
Default
 62
255
 10
     1090.102242
 20
      999.834261
 30
       18.240624
  0
POINT
  8
Default
 62
255
 10
     1090.010428
 20
      999.856427
 30
       18.207447
  0
POINT
  8
Default
 62
255
 10
     1090.002578
 20
      999.952277
 30
       18.197450
  0
POINT
  8
Default
 62
255
 10
     1089.892577
 20
     1000.054162
 30
       18.179548
  0
POINT
  8
Default
 62
255
 10
     1089.800286
 20
      999.928992
 30
       18.187981
  0
POINT
  8
Default
 62
255
 10
     1089.856490
 20
      999.824308
 30
       18.212348
  0
POINT
  8
Default
 62
255
 10
     1089.805145
 20
      999.624352
 30
       18.257196
  0
POINT
  8
Default
 62
255
 10
     1089.075204
 20
      999.546473
 30
       18.277581
  0
POINT
  8
Default
 62
255
 10
     1088.976879
 20
      999.543191
 30
       18.284043
  0
POINT
  8
Default
 62
255
 10
     1089.049890
 20
      999.715206
 30
       18.284522
  0
POINT
  8
Default
 62
255
 10
     1089.094644
 20
      999.791755
 30
       18.265402
  0
POINT
  8
Default
 62
255
 10
     1089.263074
 20
      999.848337
 30
       18.245262
  0
POINT
  8
Default
 62
255
 10
     1089.204053
 20
      999.955232
 30
       18.261846
  0
POINT
  8
Default
 62
255
 10
     1089.123120
 20
     1000.022823
 30
       18.265575
  0
POINT
  8
Default
 62
255
 10
     1089.435366
 20
      999.971108
 30
       18.173120
  0
POINT
  8
Default
 62
255
 10
     1089.216974
 20
     1000.058381
 30
       18.264465
  0
POINT
  8
Default
 62
255
 10
     1089.294096
 20
     1000.134637
 30
       18.205316
  0
POINT
  8
Default
 62
255
 10
     1089.427284
 20
     1000.115942
 30
       18.149772
  0
POINT
  8
Default
 62
255
 10
     1089.270089
 20
     1000.296116
 30
       18.206702
  0
POINT
  8
Default
 62
255
 10
     1089.387908
 20
     1000.330984
 30
       18.208762
  0
POINT
  8
Default
 62
255
 10
     1089.415243
 20
     1000.229242
 30
       18.195576
  0
POINT
  8
Default
 62
255
 10
     1089.411522
 20
     1000.436300
 30
       18.193934
  0
POINT
  8
Default
 62
255
 10
     1089.524368
 20
     1000.429808
 30
       18.142499
  0
POINT
  8
Default
 62
255
 10
     1089.578663
 20
     1000.286756
 30
       18.167427
  0
POINT
  8
Default
 62
255
 10
     1087.631418
 20
      998.391426
 30
       18.179035
  0
POINT
  8
Default
 62
255
 10
     1087.659504
 20
      998.326185
 30
       18.161455
  0
POINT
  8
Default
 62
255
 10
     1087.732301
 20
      998.296262
 30
       18.159011
  0
POINT
  8
Default
 62
255
 10
     1087.730532
 20
      998.246074
 30
       18.185163
  0
POINT
  8
Default
 62
255
 10
     1087.789605
 20
      998.224606
 30
       18.188067
  0
POINT
  8
Default
 62
255
 10
     1087.855513
 20
      998.234753
 30
       18.168339
  0
POINT
  8
Default
 62
255
 10
     1087.911383
 20
      998.319440
 30
       18.152741
  0
POINT
  8
Default
 62
255
 10
     1087.971024
 20
      998.422541
 30
       18.132743
  0
POINT
  8
Default
 62
255
 10
     1088.049576
 20
      998.503126
 30
       18.150588
  0
POINT
  8
Default
 62
255
 10
     1088.119319
 20
      998.586182
 30
       18.156305
  0
POINT
  8
Default
 62
255
 10
     1088.268326
 20
      998.771941
 30
       18.204869
  0
POINT
  8
Default
 62
255
 10
     1088.309282
 20
      998.831153
 30
       18.196072
  0
POINT
  8
Default
 62
255
 10
     1087.575307
 20
      998.510985
 30
       18.164361
  0
POINT
  8
Default
 62
255
 10
     1087.520446
 20
      998.581798
 30
       18.185873
  0
POINT
  8
Default
 62
255
 10
     1087.769315
 20
      998.560509
 30
       18.116410
  0
POINT
  8
Default
 62
255
 10
     1088.035580
 20
      998.914987
 30
       18.231907
  0
POINT
  8
Default
 62
255
 10
     1088.132945
 20
      998.964889
 30
       18.219780
  0
POINT
  8
Default
 62
255
 10
     1088.202454
 20
      999.072654
 30
       18.175255
  0
POINT
  8
Default
 62
255
 10
     1088.287628
 20
      999.026265
 30
       18.183934
  0
POINT
  8
Default
 62
255
 10
     1087.963631
 20
      998.969704
 30
       18.193438
  0
POINT
  8
Default
 62
255
 10
     1087.919777
 20
      998.858227
 30
       18.189305
  0
LINE
  8
Default
 62
255
 10
     1088.265040
 20
      999.273388
 30
       18.504469
 11
     1088.395016
 21
      999.176175
 31
       18.477946
  0
LINE
  8
Default
 62
255
 10
     1088.359253
 20
      998.674855
 30
       18.525967
 11
     1088.313850
 21
      998.518326
 31
       18.593290
  0
LINE
  8
Default
 62
255
 10
     1088.313850
 20
      998.518326
 30
       18.593290
 11
     1088.172491
 21
      998.366528
 31
       18.581804
  0
LINE
  8
Default
 62
255
 10
     1088.172491
 20
      998.366528
 30
       18.581804
 11
     1087.930133
 21
      998.220494
 31
       18.671075
  0
LINE
  8
Default
 62
255
 10
     1087.930133
 20
      998.220494
 30
       18.671075
 11
     1087.817270
 21
      998.183078
 31
       18.677431
  0
LINE
  8
Default
 62
255
 10
     1087.817270
 20
      998.183078
 30
       18.677431
 11
     1087.728494
 21
      998.190488
 31
       18.692929
  0
LINE
  8
Default
 62
255
 10
     1088.238703
 20
      999.198019
 30
       18.222523
 11
     1088.279153
 21
      999.165150
 31
       18.224820
  0
LINE
  8
Default
 62
255
 10
     1088.279153
 20
      999.165150
 30
       18.224820
 11
     1088.315183
 21
      999.070834
 31
       18.217481
  0
LINE
  8
Default
 62
255
 10
     1088.315183
 20
      999.070834
 30
       18.217481
 11
     1088.329237
 21
      999.000959
 31
       18.262762
  0
LINE
  8
Default
 62
255
 10
     1088.329237
 20
      999.000959
 30
       18.262762
 11
     1088.350396
 21
      998.903612
 31
       18.233372
  0
LINE
  8
Default
 62
255
 10
     1088.201320
 20
      999.165153
 30
       18.226631
 11
     1088.140310
 21
      999.087806
 31
       18.233468
  0
LINE
  8
Default
 62
255
 10
     1088.296965
 20
      999.482921
 30
       18.918312
 11
     1088.257453
 21
      999.309549
 31
       18.536718
  0
LINE
  8
Default
 62
255
 10
     1087.936672
 20
      999.689714
 30
       18.946031
 11
     1088.161729
 21
      999.611875
 31
       18.943963
  0
LINE
  8
Default
 62
255
 10
     1088.161729
 20
      999.611875
 30
       18.943963
 11
     1088.296965
 21
      999.482921
 31
       18.918312
  0
LINE
  8
Default
 62
255
 10
     1088.296965
 20
      999.482921
 30
       18.918312
 11
     1088.376507
 21
      999.603604
 31
       18.918264
  0
LINE
  8
Default
 62
255
 10
     1088.376507
 20
      999.603604
 30
       18.918264
 11
     1088.417163
 21
      999.702140
 31
       18.937907
  0
LINE
  8
Default
 62
255
 10
     1088.417163
 20
      999.702140
 30
       18.937907
 11
     1088.467653
 21
      999.765802
 31
       18.950227
  0
LINE
  8
Default
 62
255
 10
     1088.467653
 20
      999.765802
 30
       18.950227
 11
     1088.504771
 21
      999.821572
 31
       18.953097
  0
LINE
  8
Default
 62
255
 10
     1088.504771
 20
      999.821572
 30
       18.953097
 11
     1088.542854
 21
      999.870211
 31
       18.952518
  0
LINE
  8
Default
 62
255
 10
     1088.542854
 20
      999.870211
 30
       18.952518
 11
     1088.608373
 21
      999.982213
 31
       19.003605
  0
LINE
  8
Default
 62
255
 10
     1088.745902
 20
     1000.198020
 30
       19.001238
 11
     1088.884099
 21
     1000.354642
 31
       18.961389
  0
LINE
  8
Default
 62
255
 10
     1088.884099
 20
     1000.354642
 30
       18.961389
 11
     1088.908875
 21
     1000.392295
 31
       18.981699
  0
LINE
  8
Default
 62
255
 10
     1088.908875
 20
     1000.392295
 30
       18.981699
 11
     1088.991954
 21
     1000.538411
 31
       18.975664
  0
LINE
  8
Default
 62
255
 10
     1087.474190
 20
      998.436827
 30
       18.220481
 11
     1087.590725
 21
      998.382867
 31
       18.217495
  0
LINE
  8
Default
 62
255
 10
     1087.590725
 20
      998.382867
 30
       18.217495
 11
     1087.730532
 21
      998.246074
 31
       18.185163
  0
LINE
  8
Default
 62
255
 10
     1087.730532
 20
      998.246074
 30
       18.185163
 11
     1087.789605
 21
      998.224606
 31
       18.188067
  0
LINE
  8
Default
 62
255
 10
     1087.789605
 20
      998.224606
 30
       18.188067
 11
     1087.855513
 21
      998.234753
 31
       18.168339
  0
LINE
  8
Default
 62
255
 10
     1087.855513
 20
      998.234753
 30
       18.168339
 11
     1087.911383
 21
      998.319440
 31
       18.152741
  0
LINE
  8
Default
 62
255
 10
     1087.911383
 20
      998.319440
 30
       18.152741
 11
     1087.971024
 21
      998.422541
 31
       18.132743
  0
LINE
  8
Default
 62
255
 10
     1087.971024
 20
      998.422541
 30
       18.132743
 11
     1088.049576
 21
      998.503126
 31
       18.150588
  0
LINE
  8
Default
 62
255
 10
     1088.049576
 20
      998.503126
 30
       18.150588
 11
     1088.119319
 21
      998.586182
 31
       18.156305
  0
LINE
  8
Default
 62
255
 10
     1088.119319
 20
      998.586182
 30
       18.156305
 11
     1088.206160
 21
      998.669500
 31
       18.196176
  0
LINE
  8
Default
 62
255
 10
     1088.206160
 20
      998.669500
 30
       18.196176
 11
     1088.268326
 21
      998.771941
 31
       18.204869
  0
LINE
  8
Default
 62
255
 10
     1088.268326
 20
      998.771941
 30
       18.204869
 11
     1088.309282
 21
      998.831153
 31
       18.196072
  0
LINE
  8
Default
 62
255
 10
     1088.309282
 20
      998.831153
 30
       18.196072
 11
     1088.350396
 21
      998.903612
 31
       18.233372
  0
LINE
  8
Default
 62
255
 10
     1088.458008
 20
      998.861550
 30
       18.408165
 11
     1088.359253
 21
      998.674855
 31
       18.525967
  0
LINE
  8
Default
 62
255
 10
     1089.436497
 20
     1000.562560
 30
       18.167516
 11
     1089.507042
 21
     1000.535924
 31
       18.174371
  0
LINE
  8
Default
 62
255
 10
     1089.507042
 20
     1000.535924
 30
       18.174371
 11
     1089.549877
 21
     1000.471715
 31
       18.161234
  0
LINE
  8
Default
 62
255
 10
     1089.549877
 20
     1000.471715
 30
       18.161234
 11
     1089.633104
 21
     1000.423167
 31
       18.137715
  0
LINE
  8
Default
 62
255
 10
     1089.633104
 20
     1000.423167
 30
       18.137715
 11
     1089.787772
 21
     1000.257643
 31
       18.201558
  0
LINE
  8
Default
 62
255
 10
     1089.787772
 20
     1000.257643
 30
       18.201558
 11
     1089.873409
 21
     1000.199017
 31
       18.192458
  0
LINE
  8
Default
 62
255
 10
     1089.873409
 20
     1000.199017
 30
       18.192458
 11
     1089.942605
 21
     1000.144030
 31
       18.192334
  0
LINE
  8
Default
 62
255
 10
     1089.942605
 20
     1000.144030
 30
       18.192334
 11
     1089.987270
 21
     1000.101930
 31
       18.188704
  0
LINE
  8
Default
 62
255
 10
     1089.987270
 20
     1000.101930
 30
       18.188704
 11
     1090.109758
 21
     1000.029572
 31
       18.173046
  0
LINE
  8
Default
 62
255
 10
     1090.109758
 20
     1000.029572
 30
       18.173046
 11
     1090.157964
 21
      999.925696
 31
       18.231493
  0
LINE
  8
Default
 62
255
 10
     1090.157964
 20
      999.925696
 30
       18.231493
 11
     1090.210839
 21
      999.846326
 31
       18.271851
  0
LINE
  8
Default
 62
255
 10
     1090.210839
 20
      999.846326
 30
       18.271851
 11
     1090.123497
 21
      999.726150
 31
       18.306434
  0
LINE
  8
Default
 62
255
 10
     1090.123497
 20
      999.726150
 30
       18.306434
 11
     1090.088820
 21
      999.614775
 31
       18.311007
  0
LINE
  8
Default
 62
255
 10
     1090.088820
 20
      999.614775
 30
       18.311007
 11
     1090.010942
 21
      999.518082
 31
       18.307230
  0
LINE
  8
Default
 62
255
 10
     1090.010942
 20
      999.518082
 30
       18.307230
 11
     1089.940745
 21
      999.329618
 31
       18.373634
  0
LINE
  8
Default
 62
255
 10
     1089.940745
 20
      999.329618
 30
       18.373634
 11
     1089.900422
 21
      999.267861
 31
       18.377076
  0
LINE
  8
Default
 62
255
 10
     1089.900422
 20
      999.267861
 30
       18.377076
 11
     1089.817628
 21
      999.107981
 31
       18.400493
  0
LINE
  8
Default
 62
255
 10
     1089.817628
 20
      999.107981
 30
       18.400493
 11
     1089.751831
 21
      998.947469
 31
       18.430927
  0
LINE
  8
Default
 62
255
 10
     1089.751831
 20
      998.947469
 30
       18.430927
 11
     1089.672622
 21
      998.753103
 31
       18.468034
  0
LINE
  8
Default
 62
255
 10
     1089.672622
 20
      998.753103
 30
       18.468034
 11
     1089.612764
 21
      998.623382
 31
       18.477125
  0
LINE
  8
Default
 62
255
 10
     1089.612764
 20
      998.623382
 30
       18.477125
 11
     1089.554707
 21
      998.535089
 31
       18.499007
  0
LINE
  8
Default
 62
255
 10
     1089.554707
 20
      998.535089
 30
       18.499007
 11
     1089.473689
 21
      998.426448
 31
       18.527424
  0
LINE
  8
Default
 62
255
 10
     1089.473689
 20
      998.426448
 30
       18.527424
 11
     1089.422996
 21
      998.356581
 31
       18.557184
  0
LINE
  8
Default
 62
255
 10
     1089.422996
 20
      998.356581
 30
       18.557184
 11
     1089.342410
 21
      998.284332
 31
       18.574948
  0
LINE
  8
Default
 62
255
 10
     1089.342410
 20
      998.284332
 30
       18.574948
 11
     1089.319099
 21
      998.192202
 31
       18.556545
  0
LINE
  8
Default
 62
255
 10
     1089.319099
 20
      998.192202
 30
       18.556545
 11
     1089.259788
 21
      998.104747
 31
       18.580462
  0
LINE
  8
Default
 62
255
 10
     1089.259788
 20
      998.104747
 30
       18.580462
 11
     1089.199737
 21
      998.038406
 31
       18.635960
  0
LINE
  8
Default
 62
255
 10
     1089.199737
 20
      998.038406
 30
       18.635960
 11
     1089.110062
 21
      997.956803
 31
       18.626042
  0
LINE
  8
Default
 62
255
 10
     1089.110062
 20
      997.956803
 30
       18.626042
 11
     1089.041070
 21
      997.863073
 31
       18.624259
  0
LINE
  8
Default
 62
255
 10
     1089.041070
 20
      997.863073
 30
       18.624259
 11
     1088.950076
 21
      997.778067
 31
       18.636806
  0
LINE
  8
Default
 62
255
 10
     1088.950076
 20
      997.778067
 30
       18.636806
 11
     1088.855740
 21
      997.716241
 31
       18.623428
  0
LINE
  8
Default
 62
255
 10
     1088.855740
 20
      997.716241
 30
       18.623428
 11
     1088.774797
 21
      997.618322
 31
       18.625874
  0
LINE
  8
Default
 62
255
 10
     1088.774797
 20
      997.618322
 30
       18.625874
 11
     1088.744203
 21
      997.568138
 31
       18.635687
  0
LINE
  8
Default
 62
255
 10
     1088.744203
 20
      997.568138
 30
       18.635687
 11
     1088.723783
 21
      997.528740
 31
       18.644394
  0
LINE
  8
Default
 62
255
 10
     1088.723783
 20
      997.528740
 30
       18.644394
 11
     1088.688503
 21
      997.466374
 31
       18.664968
  0
LINE
  8
Default
 62
255
 10
     1088.688503
 20
      997.466374
 30
       18.664968
 11
     1088.638081
 21
      997.434785
 31
       18.724482
  0
LINE
  8
Default
 62
255
 10
     1088.638081
 20
      997.434785
 30
       18.724482
 11
     1088.520913
 21
      997.502894
 31
       18.686072
  0
LINE
  8
Default
 62
255
 10
     1088.520913
 20
      997.502894
 30
       18.686072
 11
     1088.457960
 21
      997.560296
 31
       18.682335
  0
LINE
  8
Default
 62
255
 10
     1088.457960
 20
      997.560296
 30
       18.682335
 11
     1088.359944
 21
      997.616925
 31
       18.667776
  0
LINE
  8
Default
 62
255
 10
     1088.359944
 20
      997.616925
 30
       18.667776
 11
     1088.257648
 21
      997.693486
 31
       18.661437
  0
LINE
  8
Default
 62
255
 10
     1088.257648
 20
      997.693486
 30
       18.661437
 11
     1088.170129
 21
      997.759905
 31
       18.661190
  0
LINE
  8
Default
 62
255
 10
     1088.170129
 20
      997.759905
 30
       18.661190
 11
     1088.049121
 21
      997.876281
 31
       18.657996
  0
LINE
  8
Default
 62
255
 10
     1088.049121
 20
      997.876281
 30
       18.657996
 11
     1087.958855
 21
      997.954903
 31
       18.678146
  0
LINE
  8
Default
 62
255
 10
     1087.958855
 20
      997.954903
 30
       18.678146
 11
     1087.874129
 21
      998.026583
 31
       18.688620
  0
LINE
  8
Default
 62
255
 10
     1087.874129
 20
      998.026583
 30
       18.688620
 11
     1087.787447
 21
      998.096212
 31
       18.703757
  0
LINE
  8
Default
 62
255
 10
     1087.787447
 20
      998.096212
 30
       18.703757
 11
     1087.728494
 21
      998.190488
 31
       18.692929
  0
LINE
  8
Default
 62
255
 10
     1088.265040
 20
      999.273388
 30
       18.504469
 11
     1088.257453
 21
      999.309549
 31
       18.536718
  0
LINE
  8
Default
 62
255
 10
     1088.458008
 20
      998.861550
 30
       18.408165
 11
     1088.481154
 21
      999.017808
 31
       18.456957
  0
LINE
  8
Default
 62
255
 10
     1088.481154
 20
      999.017808
 30
       18.456957
 11
     1088.467619
 21
      999.128671
 31
       18.461359
  0
LINE
  8
Default
 62
255
 10
     1088.467619
 20
      999.128671
 30
       18.461359
 11
     1088.395016
 21
      999.176175
 31
       18.477946
  0
LINE
  8
Default
 62
255
 10
     1088.238703
 20
      999.198019
 30
       18.222523
 11
     1088.201320
 21
      999.165153
 31
       18.226631
  0
LINE
  8
Default
 62
255
 10
     1088.140310
 20
      999.087806
 30
       18.233468
 11
     1088.035580
 21
      998.914987
 31
       18.231907
  0
LINE
  8
Default
 62
255
 10
     1088.035580
 20
      998.914987
 30
       18.231907
 11
     1087.963631
 21
      998.969704
 31
       18.193438
  0
LINE
  8
Default
 62
255
 10
     1087.963631
 20
      998.969704
 30
       18.193438
 11
     1087.853542
 21
      998.980286
 31
       18.181441
  0
LINE
  8
Default
 62
255
 10
     1087.853542
 20
      998.980286
 30
       18.181441
 11
     1087.745686
 21
      998.922495
 31
       18.158536
  0
LINE
  8
Default
 62
255
 10
     1087.745686
 20
      998.922495
 30
       18.158536
 11
     1087.640540
 21
      998.891815
 31
       18.166819
  0
LINE
  8
Default
 62
255
 10
     1087.640540
 20
      998.891815
 30
       18.166819
 11
     1087.525597
 21
      998.867624
 31
       18.191614
  0
LINE
  8
Default
 62
255
 10
     1087.525597
 20
      998.867624
 30
       18.191614
 11
     1087.473942
 21
      998.693333
 31
       18.206139
  0
LINE
  8
Default
 62
255
 10
     1087.473942
 20
      998.693333
 30
       18.206139
 11
     1087.474190
 21
      998.436827
 31
       18.220481
  0
LINE
  8
Default
 62
255
 10
     1089.089611
 20
      997.836590
 30
       18.994418
 11
     1089.146050
 21
      997.902762
 31
       18.989041
  0
LINE
  8
Default
 62
255
 10
     1089.146050
 20
      997.902762
 30
       18.989041
 11
     1089.182685
 21
      997.967444
 31
       18.979819
  0
LINE
  8
Default
 62
255
 10
     1089.182685
 20
      997.967444
 30
       18.979819
 11
     1089.242973
 21
      998.039407
 31
       18.973096
  0
LINE
  8
Default
 62
255
 10
     1089.242973
 20
      998.039407
 30
       18.973096
 11
     1089.320395
 21
      998.097234
 31
       19.012677
  0
LINE
  8
Default
 62
255
 10
     1089.320395
 20
      998.097234
 30
       19.012677
 11
     1089.403049
 21
      998.130321
 31
       19.032631
  0
LINE
  8
Default
 62
255
 10
     1089.403049
 20
      998.130321
 30
       19.032631
 11
     1089.475093
 21
      998.188654
 31
       19.047729
  0
LINE
  8
Default
 62
255
 10
     1089.475093
 20
      998.188654
 30
       19.047729
 11
     1089.524339
 21
      998.264851
 31
       19.050118
  0
LINE
  8
Default
 62
255
 10
     1089.524339
 20
      998.264851
 30
       19.050118
 11
     1089.501925
 21
      998.317214
 31
       19.022377
  0
LINE
  8
Default
 62
255
 10
     1089.501925
 20
      998.317214
 30
       19.022377
 11
     1089.558397
 21
      998.387584
 31
       19.007229
  0
LINE
  8
Default
 62
255
 10
     1089.558397
 20
      998.387584
 30
       19.007229
 11
     1089.600919
 21
      998.471961
 31
       18.990435
  0
LINE
  8
Default
 62
255
 10
     1089.600919
 20
      998.471961
 30
       18.990435
 11
     1089.632130
 21
      998.588943
 31
       18.978011
  0
LINE
  8
Default
 62
255
 10
     1089.632130
 20
      998.588943
 30
       18.978011
 11
     1089.656763
 21
      998.659945
 31
       18.944798
  0
LINE
  8
Default
 62
255
 10
     1089.656763
 20
      998.659945
 30
       18.944798
 11
     1089.692132
 21
      998.723524
 31
       18.923586
  0
LINE
  8
Default
 62
255
 10
     1089.692132
 20
      998.723524
 30
       18.923586
 11
     1089.742046
 21
      998.794611
 31
       18.948974
  0
LINE
  8
Default
 62
255
 10
     1089.742046
 20
      998.794611
 30
       18.948974
 11
     1089.771471
 21
      998.862385
 31
       18.919199
  0
LINE
  8
Default
 62
255
 10
     1089.771471
 20
      998.862385
 30
       18.919199
 11
     1089.831278
 21
      998.941821
 31
       18.922254
  0
LINE
  8
Default
 62
255
 10
     1089.831278
 20
      998.941821
 30
       18.922254
 11
     1089.862434
 21
      999.000097
 31
       18.896463
  0
LINE
  8
Default
 62
255
 10
     1089.862434
 20
      999.000097
 30
       18.896463
 11
     1089.920443
 21
      999.065294
 31
       18.909645
  0
LINE
  8
Default
 62
255
 10
     1089.920443
 20
      999.065294
 30
       18.909645
 11
     1089.969614
 21
      999.152576
 31
       18.919949
  0
LINE
  8
Default
 62
255
 10
     1089.969614
 20
      999.152576
 30
       18.919949
 11
     1089.995668
 21
      999.215749
 31
       18.949773
  0
LINE
  8
Default
 62
255
 10
     1089.995668
 20
      999.215749
 30
       18.949773
 11
     1090.032611
 21
      999.285483
 31
       18.961181
  0
LINE
  8
Default
 62
255
 10
     1090.032611
 20
      999.285483
 30
       18.961181
 11
     1090.113190
 21
      999.352428
 31
       18.957686
  0
LINE
  8
Default
 62
255
 10
     1090.113190
 20
      999.352428
 30
       18.957686
 11
     1090.145214
 21
      999.446058
 31
       18.955878
  0
LINE
  8
Default
 62
255
 10
     1090.145214
 20
      999.446058
 30
       18.955878
 11
     1090.181204
 21
      999.567769
 31
       18.972668
  0
LINE
  8
Default
 62
255
 10
     1090.181204
 20
      999.567769
 30
       18.972668
 11
     1090.300623
 21
      999.684489
 31
       18.964549
  0
LINE
  8
Default
 62
255
 10
     1090.300623
 20
      999.684489
 30
       18.964549
 11
     1090.304716
 21
      999.774656
 31
       19.017989
  0
LINE
  8
Default
 62
255
 10
     1090.304716
 20
      999.774656
 30
       19.017989
 11
     1090.337351
 21
      999.705594
 31
       19.044378
  0
LINE
  8
Default
 62
255
 10
     1090.337351
 20
      999.705594
 30
       19.044378
 11
     1090.446564
 21
      999.625526
 31
       19.057415
  0
LINE
  8
Default
 62
255
 10
     1090.304716
 20
      999.774656
 30
       19.017989
 11
     1090.173789
 21
     1000.054530
 31
       18.947629
  0
LINE
  8
Default
 62
255
 10
     1090.173789
 20
     1000.054530
 30
       18.947629
 11
     1089.770860
 21
     1000.268856
 31
       18.944973
  0
LINE
  8
Default
 62
255
 10
     1089.770860
 20
     1000.268856
 30
       18.944973
 11
     1089.308207
 21
     1000.715391
 31
       18.997277
  0
LINE
  8
Default
 62
255
 10
     1089.308207
 20
     1000.715391
 30
       18.997277
 11
     1089.204584
 21
     1000.801279
 31
       19.031115
  0
LINE
  8
Default
 62
255
 10
     1089.204584
 20
     1000.801279
 30
       19.031115
 11
     1089.165552
 21
     1000.782035
 31
       18.976446
  0
LINE
  8
Default
 62
255
 10
     1089.165552
 20
     1000.782035
 30
       18.976446
 11
     1088.991954
 21
     1000.538411
 31
       18.975664
  0
LINE
  8
Default
 62
255
 10
     1088.745902
 20
     1000.198020
 30
       19.001238
 11
     1088.639138
 21
     1000.098255
 31
       19.013920
  0
LINE
  8
Default
 62
255
 10
     1088.639138
 20
     1000.098255
 30
       19.013920
 11
     1088.608373
 21
      999.982213
 31
       19.003605
  0
LINE
  8
Default
 62
255
 10
     1088.257453
 20
      999.309549
 30
       18.536718
 11
     1088.576242
 21
      999.621991
 31
       18.432267
  0
LINE
  8
Default
 62
255
 10
     1088.576242
 20
      999.621991
 30
       18.432267
 11
     1088.627499
 21
      999.680116
 31
       18.404165
  0
LINE
  8
Default
 62
255
 10
     1088.627499
 20
      999.680116
 30
       18.404165
 11
     1088.686377
 21
      999.768772
 31
       18.389139
  0
LINE
  8
Default
 62
255
 10
     1088.686377
 20
      999.768772
 30
       18.389139
 11
     1088.851725
 21
      999.964555
 31
       18.340437
  0
LINE
  8
Default
 62
255
 10
     1088.851725
 20
      999.964555
 30
       18.340437
 11
     1088.907963
 21
     1000.064277
 31
       18.329161
  0
LINE
  8
Default
 62
255
 10
     1088.907963
 20
     1000.064277
 30
       18.329161
 11
     1088.976419
 21
     1000.147781
 31
       18.310107
  0
LINE
  8
Default
 62
255
 10
     1088.976419
 20
     1000.147781
 30
       18.310107
 11
     1089.033617
 21
     1000.227156
 31
       18.312506
  0
LINE
  8
Default
 62
255
 10
     1089.033617
 20
     1000.227156
 30
       18.312506
 11
     1089.366979
 21
     1000.584037
 31
       18.229687
  0
LINE
  8
Default
 62
255
 10
     1089.366979
 20
     1000.584037
 30
       18.229687
 11
     1089.436497
 21
     1000.562560
 31
       18.167516
  0
ENDSEC
  0
EOF
