  0
SECTION
  2
HEADER
  9
$PDMODE
 70
   34
  9
$PDSIZE
 40
   -3.0
  0
ENDSEC
  0
SECTION
  2
TABLES
  0
TABLE
  2
LTYPE
 70
 1
  0
LTYPE
  2
CONTINUOUS
  70
 64
  3
Solid line
  72
 65
 73
 0
  40
 0.0
  0
ENDTAB
  0
TABLE
  2
LAYER
 70
 1
 0
LAYER
  2
Default
  70
 0
 62
 7
  6
CONTINUOUS
  0
ENDTAB
  0 
ENDSEC
  0
SECTION
  2
ENTITIES
  0
POINT
  8
Default
 62
255
 10
     1093.773768
 20
      998.298360
 30
       18.855483
  0
POINT
  8
Default
 62
255
 10
     1090.945239
 20
      998.834940
 30
       19.101288
  0
POINT
  8
Default
 62
255
 10
     1091.744844
 20
      999.674399
 30
       18.984214
  0
POINT
  8
Default
 62
255
 10
     1093.506068
 20
      998.037750
 30
       18.261531
  0
POINT
  8
Default
 62
255
 10
     1093.032362
 20
      997.267344
 30
       18.289202
  0
POINT
  8
Default
 62
255
 10
     1093.029741
 20
      997.297964
 30
       18.257362
  0
POINT
  8
Default
 62
255
 10
     1093.035242
 20
      997.341634
 30
       18.236508
  0
POINT
  8
Default
 62
255
 10
     1091.379018
 20
      998.661051
 30
       18.387602
  0
POINT
  8
Default
 62
255
 10
     1091.068598
 20
      998.847313
 30
       18.999971
  0
POINT
  8
Default
 62
255
 10
     1091.031662
 20
      998.867513
 30
       19.021689
  0
POINT
  8
Default
 62
255
 10
     1091.031713
 20
      998.905814
 30
       19.015962
  0
POINT
  8
Default
 62
255
 10
     1091.615794
 20
      999.455603
 30
       18.740855
  0
POINT
  8
Default
 62
255
 10
     1091.685915
 20
      999.386361
 30
       18.667531
  0
POINT
  8
Default
 62
255
 10
     1091.700752
 20
      999.357266
 30
       18.611230
  0
POINT
  8
Default
 62
255
 10
     1093.726590
 20
      998.216283
 30
       18.890007
  0
POINT
  8
Default
 62
255
 10
     1093.711160
 20
      998.258213
 30
       18.886702
  0
POINT
  8
Default
 62
255
 10
     1093.686621
 20
      998.289384
 30
       18.864845
  0
POINT
  8
Default
 62
255
 10
     1092.763365
 20
      998.943867
 30
       18.836080
  0
POINT
  8
Default
 62
255
 10
     1092.728484
 20
      998.973885
 30
       18.837940
  0
POINT
  8
Default
 62
255
 10
     1092.696337
 20
      999.005675
 30
       18.852056
  0
POINT
  8
Default
 62
255
 10
     1093.061804
 20
      997.370663
 30
       18.235993
  0
POINT
  8
Default
 62
255
 10
     1093.109032
 20
      997.381504
 30
       18.227023
  0
POINT
  8
Default
 62
255
 10
     1093.135160
 20
      997.419496
 30
       18.227879
  0
POINT
  8
Default
 62
255
 10
     1093.166829
 20
      997.448869
 30
       18.231753
  0
POINT
  8
Default
 62
255
 10
     1093.207910
 20
      997.439685
 30
       18.232870
  0
POINT
  8
Default
 62
255
 10
     1093.279263
 20
      997.413336
 30
       18.256655
  0
POINT
  8
Default
 62
255
 10
     1093.022479
 20
      997.390882
 30
       18.228785
  0
POINT
  8
Default
 62
255
 10
     1092.995671
 20
      997.429067
 30
       18.231429
  0
POINT
  8
Default
 62
255
 10
     1092.958567
 20
      997.454226
 30
       18.233923
  0
POINT
  8
Default
 62
255
 10
     1092.914225
 20
      997.471317
 30
       18.238222
  0
POINT
  8
Default
 62
255
 10
     1092.871405
 20
      997.491240
 30
       18.239147
  0
POINT
  8
Default
 62
255
 10
     1092.827153
 20
      997.506929
 30
       18.240902
  0
POINT
  8
Default
 62
255
 10
     1092.780692
 20
      997.514875
 30
       18.246913
  0
POINT
  8
Default
 62
255
 10
     1092.733517
 20
      997.515559
 30
       18.254372
  0
POINT
  8
Default
 62
255
 10
     1092.688294
 20
      997.515432
 30
       18.275182
  0
POINT
  8
Default
 62
255
 10
     1092.654740
 20
      997.515484
 30
       18.304168
  0
POINT
  8
Default
 62
255
 10
     1092.614251
 20
      997.533906
 30
       18.329847
  0
POINT
  8
Default
 62
255
 10
     1092.586723
 20
      997.569211
 30
       18.320441
  0
POINT
  8
Default
 62
255
 10
     1092.555268
 20
      997.604518
 30
       18.308539
  0
POINT
  8
Default
 62
255
 10
     1092.521618
 20
      997.630089
 30
       18.297679
  0
POINT
  8
Default
 62
255
 10
     1092.492031
 20
      997.669556
 30
       18.294857
  0
POINT
  8
Default
 62
255
 10
     1092.464667
 20
      997.708671
 30
       18.295829
  0
POINT
  8
Default
 62
255
 10
     1092.421054
 20
      997.701195
 30
       18.304768
  0
POINT
  8
Default
 62
255
 10
     1092.378604
 20
      997.687000
 30
       18.322175
  0
POINT
  8
Default
 62
255
 10
     1092.353775
 20
      997.714620
 30
       18.323421
  0
POINT
  8
Default
 62
255
 10
     1092.318336
 20
      997.752471
 30
       18.325326
  0
POINT
  8
Default
 62
255
 10
     1092.289599
 20
      997.788615
 30
       18.321760
  0
POINT
  8
Default
 62
255
 10
     1092.259456
 20
      997.825593
 30
       18.323355
  0
POINT
  8
Default
 62
255
 10
     1092.227877
 20
      997.862242
 30
       18.330420
  0
POINT
  8
Default
 62
255
 10
     1092.192236
 20
      997.895305
 30
       18.332244
  0
POINT
  8
Default
 62
255
 10
     1092.121251
 20
      997.964519
 30
       18.333483
  0
POINT
  8
Default
 62
255
 10
     1092.051150
 20
      998.038944
 30
       18.319880
  0
POINT
  8
Default
 62
255
 10
     1091.991836
 20
      998.107853
 30
       18.318949
  0
POINT
  8
Default
 62
255
 10
     1091.967217
 20
      998.153696
 30
       18.317771
  0
POINT
  8
Default
 62
255
 10
     1091.948516
 20
      998.197068
 30
       18.313199
  0
POINT
  8
Default
 62
255
 10
     1091.849581
 20
      998.296525
 30
       18.296483
  0
POINT
  8
Default
 62
255
 10
     1091.761431
 20
      998.409206
 30
       18.276574
  0
POINT
  8
Default
 62
255
 10
     1091.680166
 20
      998.517769
 30
       18.287627
  0
POINT
  8
Default
 62
255
 10
     1091.598576
 20
      998.567296
 30
       18.307469
  0
POINT
  8
Default
 62
255
 10
     1091.548067
 20
      998.571259
 30
       18.320129
  0
POINT
  8
Default
 62
255
 10
     1091.501980
 20
      998.574859
 30
       18.326089
  0
POINT
  8
Default
 62
255
 10
     1091.454727
 20
      998.572540
 30
       18.330949
  0
POINT
  8
Default
 62
255
 10
     1091.417427
 20
      998.595099
 30
       18.337049
  0
POINT
  8
Default
 62
255
 10
     1091.393069
 20
      998.635769
 30
       18.356995
  0
POINT
  8
Default
 62
255
 10
     1091.366307
 20
      998.685614
 30
       18.420346
  0
POINT
  8
Default
 62
255
 10
     1091.353722
 20
      998.707233
 30
       18.464576
  0
POINT
  8
Default
 62
255
 10
     1091.337477
 20
      998.726038
 30
       18.510069
  0
POINT
  8
Default
 62
255
 10
     1091.323619
 20
      998.742831
 30
       18.550990
  0
POINT
  8
Default
 62
255
 10
     1091.322552
 20
      998.748319
 30
       18.593347
  0
POINT
  8
Default
 62
255
 10
     1091.301298
 20
      998.747284
 30
       18.634694
  0
POINT
  8
Default
 62
255
 10
     1091.296300
 20
      998.749786
 30
       18.679593
  0
POINT
  8
Default
 62
255
 10
     1091.293090
 20
      998.746851
 30
       18.730095
  0
POINT
  8
Default
 62
255
 10
     1091.290817
 20
      998.746022
 30
       18.779335
  0
POINT
  8
Default
 62
255
 10
     1091.285357
 20
      998.749498
 30
       18.825459
  0
POINT
  8
Default
 62
255
 10
     1091.278927
 20
      998.755764
 30
       18.873395
  0
POINT
  8
Default
 62
255
 10
     1091.255887
 20
      998.776551
 30
       18.907577
  0
POINT
  8
Default
 62
255
 10
     1091.225329
 20
      998.794830
 30
       18.935560
  0
POINT
  8
Default
 62
255
 10
     1091.184194
 20
      998.810962
 30
       18.946698
  0
POINT
  8
Default
 62
255
 10
     1091.145511
 20
      998.827345
 30
       18.953553
  0
POINT
  8
Default
 62
255
 10
     1091.105841
 20
      998.842922
 30
       18.975092
  0
POINT
  8
Default
 62
255
 10
     1091.070665
 20
      998.905940
 30
       18.984199
  0
POINT
  8
Default
 62
255
 10
     1091.109510
 20
      998.900577
 30
       18.962804
  0
POINT
  8
Default
 62
255
 10
     1091.151644
 20
      998.904280
 30
       18.943502
  0
POINT
  8
Default
 62
255
 10
     1091.193230
 20
      998.914805
 30
       18.930826
  0
POINT
  8
Default
 62
255
 10
     1091.235079
 20
      998.913379
 30
       18.923498
  0
POINT
  8
Default
 62
255
 10
     1091.278022
 20
      998.908127
 30
       18.902526
  0
POINT
  8
Default
 62
255
 10
     1091.303671
 20
      998.907864
 30
       18.859642
  0
POINT
  8
Default
 62
255
 10
     1091.327829
 20
      998.905197
 30
       18.822706
  0
POINT
  8
Default
 62
255
 10
     1091.345887
 20
      998.893506
 30
       18.780207
  0
POINT
  8
Default
 62
255
 10
     1091.353002
 20
      998.893755
 30
       18.725998
  0
POINT
  8
Default
 62
255
 10
     1091.361111
 20
      998.892892
 30
       18.678781
  0
POINT
  8
Default
 62
255
 10
     1091.368410
 20
      998.893734
 30
       18.632355
  0
POINT
  8
Default
 62
255
 10
     1091.376459
 20
      998.898975
 30
       18.587666
  0
POINT
  8
Default
 62
255
 10
     1091.386877
 20
      998.901357
 30
       18.539779
  0
POINT
  8
Default
 62
255
 10
     1091.398330
 20
      998.907610
 30
       18.491364
  0
POINT
  8
Default
 62
255
 10
     1091.420035
 20
      998.919307
 30
       18.451338
  0
POINT
  8
Default
 62
255
 10
     1091.448347
 20
      998.925931
 30
       18.427121
  0
POINT
  8
Default
 62
255
 10
     1091.488466
 20
      998.949645
 30
       18.402437
  0
POINT
  8
Default
 62
255
 10
     1091.549133
 20
      998.956317
 30
       18.382462
  0
POINT
  8
Default
 62
255
 10
     1091.571592
 20
      998.936352
 30
       18.389470
  0
POINT
  8
Default
 62
255
 10
     1092.026705
 20
      998.441940
 30
       18.298416
  0
POINT
  8
Default
 62
255
 10
     1091.422495
 20
      998.438657
 30
       18.347630
  0
POINT
  8
Default
 62
255
 10
     1091.665538
 20
      998.579534
 30
       18.294922
  0
POINT
  8
Default
 62
255
 10
     1091.797249
 20
      998.669198
 30
       18.315993
  0
POINT
  8
Default
 62
255
 10
     1091.876051
 20
      998.786404
 30
       18.325397
  0
POINT
  8
Default
 62
255
 10
     1091.953028
 20
      998.852050
 30
       18.318707
  0
POINT
  8
Default
 62
255
 10
     1092.029249
 20
      998.908617
 30
       18.315160
  0
POINT
  8
Default
 62
255
 10
     1092.122960
 20
      998.932083
 30
       18.293601
  0
POINT
  8
Default
 62
255
 10
     1092.218610
 20
      998.949001
 30
       18.299065
  0
POINT
  8
Default
 62
255
 10
     1092.263488
 20
      998.959557
 30
       18.307643
  0
POINT
  8
Default
 62
255
 10
     1092.306473
 20
      998.967480
 30
       18.330968
  0
POINT
  8
Default
 62
255
 10
     1092.352172
 20
      998.970798
 30
       18.344493
  0
POINT
  8
Default
 62
255
 10
     1092.377312
 20
      998.969481
 30
       18.378672
  0
POINT
  8
Default
 62
255
 10
     1092.383786
 20
      998.969777
 30
       18.428098
  0
POINT
  8
Default
 62
255
 10
     1092.381698
 20
      998.982488
 30
       18.525306
  0
POINT
  8
Default
 62
255
 10
     1092.385064
 20
      998.985084
 30
       18.572003
  0
POINT
  8
Default
 62
255
 10
     1092.388737
 20
      998.988981
 30
       18.625657
  0
POINT
  8
Default
 62
255
 10
     1092.390094
 20
      998.989877
 30
       18.672479
  0
POINT
  8
Default
 62
255
 10
     1092.391502
 20
      998.993262
 30
       18.719240
  0
POINT
  8
Default
 62
255
 10
     1092.392746
 20
      998.995715
 30
       18.772685
  0
POINT
  8
Default
 62
255
 10
     1092.395013
 20
      998.997110
 30
       18.816271
  0
POINT
  8
Default
 62
255
 10
     1092.401739
 20
      999.022415
 30
       18.855138
  0
POINT
  8
Default
 62
255
 10
     1092.404764
 20
      999.067981
 30
       18.856862
  0
POINT
  8
Default
 62
255
 10
     1092.429173
 20
      999.099264
 30
       18.861219
  0
POINT
  8
Default
 62
255
 10
     1092.475376
 20
      999.083739
 30
       18.861769
  0
POINT
  8
Default
 62
255
 10
     1092.523263
 20
      999.067890
 30
       18.868150
  0
POINT
  8
Default
 62
255
 10
     1092.566543
 20
      999.060253
 30
       18.865487
  0
POINT
  8
Default
 62
255
 10
     1092.660881
 20
      999.037616
 30
       18.867284
  0
POINT
  8
Default
 62
255
 10
     1092.794207
 20
      998.909115
 30
       18.844797
  0
POINT
  8
Default
 62
255
 10
     1092.806648
 20
      998.859568
 30
       18.857654
  0
POINT
  8
Default
 62
255
 10
     1092.799112
 20
      998.820126
 30
       18.833178
  0
POINT
  8
Default
 62
255
 10
     1092.792359
 20
      998.797866
 30
       18.787058
  0
POINT
  8
Default
 62
255
 10
     1092.790640
 20
      998.781197
 30
       18.747543
  0
POINT
  8
Default
 62
255
 10
     1092.670012
 20
      998.553265
 30
       18.287941
  0
POINT
  8
Default
 62
255
 10
     1092.702058
 20
      998.589771
 30
       18.293691
  0
POINT
  8
Default
 62
255
 10
     1092.734527
 20
      998.621558
 30
       18.301559
  0
POINT
  8
Default
 62
255
 10
     1092.765486
 20
      998.656552
 30
       18.316312
  0
POINT
  8
Default
 62
255
 10
     1092.793294
 20
      998.688700
 30
       18.340786
  0
POINT
  8
Default
 62
255
 10
     1092.646321
 20
      998.511680
 30
       18.290969
  0
POINT
  8
Default
 62
255
 10
     1092.609292
 20
      998.421218
 30
       18.284787
  0
POINT
  8
Default
 62
255
 10
     1092.532283
 20
      998.362497
 30
       18.275629
  0
POINT
  8
Default
 62
255
 10
     1092.439906
 20
      998.331726
 30
       18.271453
  0
POINT
  8
Default
 62
255
 10
     1092.345693
 20
      998.326192
 30
       18.287007
  0
POINT
  8
Default
 62
255
 10
     1092.251003
 20
      998.321207
 30
       18.287416
  0
POINT
  8
Default
 62
255
 10
     1092.156719
 20
      998.290971
 30
       18.287996
  0
POINT
  8
Default
 62
255
 10
     1092.078587
 20
      998.235047
 30
       18.297187
  0
POINT
  8
Default
 62
255
 10
     1091.924503
 20
      998.052325
 30
       18.333042
  0
POINT
  8
Default
 62
255
 10
     1091.912520
 20
      997.961005
 30
       18.339550
  0
POINT
  8
Default
 62
255
 10
     1091.930079
 20
      997.866683
 30
       18.360672
  0
POINT
  8
Default
 62
255
 10
     1092.017624
 20
      997.879806
 30
       18.351588
  0
POINT
  8
Default
 62
255
 10
     1092.106368
 20
      997.913498
 30
       18.342872
  0
POINT
  8
Default
 62
255
 10
     1092.245140
 20
      997.902048
 30
       18.326937
  0
POINT
  8
Default
 62
255
 10
     1092.500158
 20
      997.803260
 30
       18.296912
  0
POINT
  8
Default
 62
255
 10
     1092.742919
 20
      998.012297
 30
       18.283178
  0
POINT
  8
Default
 62
255
 10
     1092.647483
 20
      997.932576
 30
       18.285461
  0
POINT
  8
Default
 62
255
 10
     1092.826609
 20
      998.061042
 30
       18.282294
  0
POINT
  8
Default
 62
255
 10
     1092.899199
 20
      998.116972
 30
       18.267784
  0
POINT
  8
Default
 62
255
 10
     1092.983174
 20
      998.165451
 30
       18.269517
  0
POINT
  8
Default
 62
255
 10
     1093.029558
 20
      998.179002
 30
       18.274304
  0
POINT
  8
Default
 62
255
 10
     1093.077560
 20
      998.181191
 30
       18.273276
  0
POINT
  8
Default
 62
255
 10
     1093.123594
 20
      998.176601
 30
       18.274060
  0
POINT
  8
Default
 62
255
 10
     1093.170079
 20
      998.186782
 30
       18.279147
  0
POINT
  8
Default
 62
255
 10
     1093.208169
 20
      998.206861
 30
       18.277501
  0
POINT
  8
Default
 62
255
 10
     1093.244510
 20
      998.233315
 30
       18.278816
  0
POINT
  8
Default
 62
255
 10
     1093.268292
 20
      998.246341
 30
       18.292178
  0
POINT
  8
Default
 62
255
 10
     1093.283153
 20
      998.284903
 30
       18.288868
  0
POINT
  8
Default
 62
255
 10
     1093.326445
 20
      998.279298
 30
       18.296126
  0
POINT
  8
Default
 62
255
 10
     1093.375172
 20
      998.277116
 30
       18.306590
  0
POINT
  8
Default
 62
255
 10
     1093.398682
 20
      998.275740
 30
       18.340803
  0
POINT
  8
Default
 62
255
 10
     1093.403782
 20
      998.274262
 30
       18.391351
  0
POINT
  8
Default
 62
255
 10
     1093.403497
 20
      998.277049
 30
       18.439472
  0
POINT
  8
Default
 62
255
 10
     1093.404495
 20
      998.281051
 30
       18.489017
  0
POINT
  8
Default
 62
255
 10
     1093.402608
 20
      998.280885
 30
       18.533347
  0
POINT
  8
Default
 62
255
 10
     1093.404273
 20
      998.286109
 30
       18.581572
  0
POINT
  8
Default
 62
255
 10
     1093.434835
 20
      998.342463
 30
       18.762678
  0
POINT
  8
Default
 62
255
 10
     1093.463120
 20
      998.366459
 30
       18.793809
  0
POINT
  8
Default
 62
255
 10
     1093.493931
 20
      998.383231
 30
       18.827034
  0
POINT
  8
Default
 62
255
 10
     1093.534927
 20
      998.388723
 30
       18.845627
  0
POINT
  8
Default
 62
255
 10
     1093.581655
 20
      998.374315
 30
       18.851291
  0
POINT
  8
Default
 62
255
 10
     1093.622924
 20
      998.356730
 30
       18.850810
  0
POINT
  8
Default
 62
255
 10
     1093.657368
 20
      998.324541
 30
       18.852436
  0
POINT
  8
Default
 62
255
 10
     1093.726663
 20
      998.169170
 30
       18.874989
  0
POINT
  8
Default
 62
255
 10
     1093.719636
 20
      998.120913
 30
       18.864044
  0
POINT
  8
Default
 62
255
 10
     1093.683709
 20
      998.097042
 30
       18.643500
  0
POINT
  8
Default
 62
255
 10
     1093.671450
 20
      998.101994
 30
       18.594750
  0
POINT
  8
Default
 62
255
 10
     1093.656201
 20
      998.103258
 30
       18.547556
  0
POINT
  8
Default
 62
255
 10
     1093.542012
 20
      998.054026
 30
       18.277108
  0
POINT
  8
Default
 62
255
 10
     1093.616919
 20
      998.079383
 30
       18.324355
  0
POINT
  8
Default
 62
255
 10
     1093.635911
 20
      998.082233
 30
       18.361575
  0
POINT
  8
Default
 62
255
 10
     1093.641861
 20
      998.088202
 30
       18.407395
  0
POINT
  8
Default
 62
255
 10
     1093.640291
 20
      998.093820
 30
       18.457402
  0
POINT
  8
Default
 62
255
 10
     1093.468864
 20
      998.010317
 30
       18.246373
  0
POINT
  8
Default
 62
255
 10
     1093.397569
 20
      997.949482
 30
       18.227475
  0
POINT
  8
Default
 62
255
 10
     1093.314387
 20
      997.905292
 30
       18.227549
  0
POINT
  8
Default
 62
255
 10
     1093.250423
 20
      997.838997
 30
       18.228463
  0
POINT
  8
Default
 62
255
 10
     1093.191158
 20
      997.764603
 30
       18.235642
  0
POINT
  8
Default
 62
255
 10
     1093.141783
 20
      997.684872
 30
       18.220663
  0
POINT
  8
Default
 62
255
 10
     1093.086438
 20
      997.604285
 30
       18.213603
  0
POINT
  8
Default
 62
255
 10
     1093.032829
 20
      997.520895
 30
       18.220823
  0
POINT
  8
Default
 62
255
 10
     1093.036101
 20
      997.430151
 30
       18.226006
  0
POINT
  8
Default
 62
255
 10
     1092.087413
 20
      998.527939
 30
       18.306352
  0
POINT
  8
Default
 62
255
 10
     1092.699063
 20
      998.151529
 30
       18.272644
  0
POINT
  8
Default
 62
255
 10
     1092.745848
 20
      998.118172
 30
       18.280039
  0
POINT
  8
Default
 62
255
 10
     1092.817442
 20
      998.092572
 30
       18.282370
  0
POINT
  8
Default
 62
255
 10
     1092.873173
 20
      998.054883
 30
       18.274377
  0
POINT
  8
Default
 62
255
 10
     1092.932023
 20
      997.996854
 30
       18.275753
  0
POINT
  8
Default
 62
255
 10
     1093.016633
 20
      997.923639
 30
       18.265219
  0
POINT
  8
Default
 62
255
 10
     1093.095224
 20
      997.842273
 30
       18.237551
  0
POINT
  8
Default
 62
255
 10
     1093.107966
 20
      997.784465
 30
       18.231199
  0
POINT
  8
Default
 62
255
 10
     1093.244874
 20
      997.676038
 30
       18.242241
  0
POINT
  8
Default
 62
255
 10
     1093.381877
 20
      997.768313
 30
       18.257932
  0
POINT
  8
Default
 62
255
 10
     1093.476787
 20
      997.747841
 30
       18.314951
  0
POINT
  8
Default
 62
255
 10
     1093.507217
 20
      998.013136
 30
       18.260426
  0
POINT
  8
Default
 62
255
 10
     1093.517801
 20
      997.991624
 30
       18.268582
  0
POINT
  8
Default
 62
255
 10
     1093.518665
 20
      997.971438
 30
       18.272738
  0
POINT
  8
Default
 62
255
 10
     1093.522281
 20
      997.952534
 30
       18.285523
  0
POINT
  8
Default
 62
255
 10
     1093.530764
 20
      997.932918
 30
       18.294378
  0
POINT
  8
Default
 62
255
 10
     1093.444029
 20
      998.088950
 30
       18.262379
  0
POINT
  8
Default
 62
255
 10
     1093.382878
 20
      998.154962
 30
       18.273541
  0
POINT
  8
Default
 62
255
 10
     1093.303098
 20
      998.202912
 30
       18.278673
  0
POINT
  8
Default
 62
255
 10
     1093.283395
 20
      998.210665
 30
       18.277937
  0
POINT
  8
Default
 62
255
 10
     1092.729340
 20
      998.502739
 30
       18.291987
  0
POINT
  8
Default
 62
255
 10
     1092.813989
 20
      998.468091
 30
       18.299341
  0
POINT
  8
Default
 62
255
 10
     1092.904970
 20
      998.438077
 30
       18.294677
  0
POINT
  8
Default
 62
255
 10
     1092.987881
 20
      998.397355
 30
       18.287371
  0
POINT
  8
Default
 62
255
 10
     1093.074553
 20
      998.349845
 30
       18.293206
  0
POINT
  8
Default
 62
255
 10
     1092.577780
 20
      998.634327
 30
       18.292066
  0
POINT
  8
Default
 62
255
 10
     1092.519541
 20
      998.694079
 30
       18.298398
  0
POINT
  8
Default
 62
255
 10
     1092.441266
 20
      998.758441
 30
       18.302973
  0
POINT
  8
Default
 62
255
 10
     1092.385692
 20
      998.789209
 30
       18.310354
  0
POINT
  8
Default
 62
255
 10
     1092.270036
 20
      998.774589
 30
       18.295886
  0
POINT
  8
Default
 62
255
 10
     1092.190121
 20
      998.820679
 30
       18.295664
  0
POINT
  8
Default
 62
255
 10
     1092.026049
 20
      998.855713
 30
       18.308890
  0
POINT
  8
Default
 62
255
 10
     1091.968156
 20
      999.019789
 30
       18.349623
  0
POINT
  8
Default
 62
255
 10
     1091.902973
 20
      999.089136
 30
       18.380941
  0
POINT
  8
Default
 62
255
 10
     1091.811328
 20
      999.123910
 30
       18.400788
  0
POINT
  8
Default
 62
255
 10
     1091.729332
 20
      999.146063
 30
       18.402640
  0
POINT
  8
Default
 62
255
 10
     1091.677774
 20
      999.288561
 30
       18.475610
  0
POINT
  8
Default
 62
255
 10
     1091.701583
 20
      999.340450
 30
       18.581549
  0
POINT
  8
Default
 62
255
 10
     1091.706303
 20
      999.367033
 30
       18.638943
  0
POINT
  8
Default
 62
255
 10
     1091.699978
 20
      999.377373
 30
       18.653883
  0
POINT
  8
Default
 62
255
 10
     1093.523637
 20
      998.259070
 30
       18.784075
  0
POINT
  8
Default
 62
255
 10
     1093.346375
 20
      998.425113
 30
       18.855729
  0
POINT
  8
Default
 62
255
 10
     1092.019039
 20
      999.130503
 30
       18.365609
  0
POINT
  8
Default
 62
255
 10
     1092.389484
 20
      998.080183
 30
       18.283339
  0
POINT
  8
Default
 62
255
 10
     1092.657242
 20
      998.350928
 30
       18.289663
  0
POINT
  8
Default
 62
255
 10
     1092.444901
 20
      998.489462
 30
       18.277195
  0
POINT
  8
Default
 62
255
 10
     1092.099640
 20
      998.824856
 30
       18.314225
  0
POINT
  8
Default
 62
255
 10
     1091.774654
 20
      999.395367
 30
       18.719086
  0
POINT
  8
Default
 62
255
 10
     1091.590661
 20
      998.279536
 30
       18.304176
  0
POINT
  8
Default
 62
255
 10
     1091.883525
 20
      997.930678
 30
       18.346900
  0
POINT
  8
Default
 62
255
 10
     1091.697017
 20
      999.010324
 30
       18.394311
  0
POINT
  8
Default
 62
255
 10
     1091.742680
 20
      998.874100
 30
       18.361420
  0
POINT
  8
Default
 62
255
 10
     1092.337722
 20
      998.506950
 30
       18.290400
  0
POINT
  8
Default
 62
255
 10
     1093.299749
 20
      998.066333
 30
       18.224710
  0
POINT
  8
Default
 62
255
 10
     1093.839383
 20
      997.958899
 30
       18.880924
  0
POINT
  8
Default
 62
255
 10
     1093.801562
 20
      997.996741
 30
       18.883318
  0
POINT
  8
Default
 62
255
 10
     1093.739140
 20
      998.034818
 30
       18.858942
  0
POINT
  8
Default
 62
255
 10
     1093.900104
 20
      998.102349
 30
       18.883303
  0
POINT
  8
Default
 62
255
 10
     1093.990152
 20
      998.158868
 30
       18.971684
  0
POINT
  8
Default
 62
255
 10
     1093.877500
 20
      998.259403
 30
       18.955668
  0
POINT
  8
Default
 62
255
 10
     1093.804356
 20
      998.155939
 30
       18.886708
  0
POINT
  8
Default
 62
255
 10
     1093.640106
 20
      998.137471
 30
       18.875080
  0
POINT
  8
Default
 62
255
 10
     1093.750408
 20
      998.407085
 30
       18.884911
  0
POINT
  8
Default
 62
255
 10
     1093.614759
 20
      998.236499
 30
       18.814343
  0
POINT
  8
Default
 62
255
 10
     1093.606848
 20
      998.505148
 30
       18.879798
  0
POINT
  8
Default
 62
255
 10
     1093.456458
 20
      998.314055
 30
       18.783776
  0
POINT
  8
Default
 62
255
 10
     1093.500191
 20
      998.589492
 30
       18.864821
  0
POINT
  8
Default
 62
255
 10
     1093.299880
 20
      998.362936
 30
       18.819330
  0
POINT
  8
Default
 62
255
 10
     1093.447146
 20
      998.471078
 30
       18.811130
  0
POINT
  8
Default
 62
255
 10
     1093.366034
 20
      998.329102
 30
       18.775494
  0
POINT
  8
Default
 62
255
 10
     1093.201067
 20
      998.420359
 30
       18.915681
  0
POINT
  8
Default
 62
255
 10
     1093.267396
 20
      998.531167
 30
       18.914602
  0
POINT
  8
Default
 62
255
 10
     1093.345729
 20
      998.564660
 30
       18.848305
  0
POINT
  8
Default
 62
255
 10
     1093.384904
 20
      998.691344
 30
       18.866680
  0
POINT
  8
Default
 62
255
 10
     1093.239413
 20
      998.485817
 30
       18.923954
  0
POINT
  8
Default
 62
255
 10
     1093.158981
 20
      998.522768
 30
       18.802576
  0
POINT
  8
Default
 62
255
 10
     1093.202956
 20
      998.655586
 30
       18.831477
  0
POINT
  8
Default
 62
255
 10
     1093.216599
 20
      998.840101
 30
       18.903189
  0
POINT
  8
Default
 62
255
 10
     1093.071239
 20
      998.578661
 30
       18.890583
  0
POINT
  8
Default
 62
255
 10
     1093.121379
 20
      998.685584
 30
       18.904472
  0
POINT
  8
Default
 62
255
 10
     1093.162114
 20
      998.786334
 30
       18.898518
  0
POINT
  8
Default
 62
255
 10
     1092.986121
 20
      998.598582
 30
       18.848453
  0
POINT
  8
Default
 62
255
 10
     1093.038336
 20
      998.735864
 30
       18.871096
  0
POINT
  8
Default
 62
255
 10
     1093.068521
 20
      998.828392
 30
       18.872735
  0
POINT
  8
Default
 62
255
 10
     1093.005571
 20
      999.009829
 30
       18.887435
  0
POINT
  8
Default
 62
255
 10
     1093.042301
 20
      998.907865
 30
       18.837423
  0
POINT
  8
Default
 62
255
 10
     1092.948875
 20
      998.698365
 30
       18.751700
  0
POINT
  8
Default
 62
255
 10
     1092.854111
 20
      998.701424
 30
       18.836048
  0
POINT
  8
Default
 62
255
 10
     1092.862310
 20
      998.801802
 30
       18.880121
  0
POINT
  8
Default
 62
255
 10
     1092.935310
 20
      998.857630
 30
       18.857437
  0
POINT
  8
Default
 62
255
 10
     1092.923875
 20
      998.929661
 30
       18.850772
  0
POINT
  8
Default
 62
255
 10
     1092.659123
 20
      998.851144
 30
       18.777673
  0
POINT
  8
Default
 62
255
 10
     1092.729906
 20
      998.824972
 30
       18.771871
  0
POINT
  8
Default
 62
255
 10
     1092.673648
 20
      998.946427
 30
       18.845429
  0
POINT
  8
Default
 62
255
 10
     1092.893962
 20
      999.103245
 30
       18.882822
  0
POINT
  8
Default
 62
255
 10
     1092.812599
 20
      999.161147
 30
       18.903597
  0
POINT
  8
Default
 62
255
 10
     1092.817563
 20
      999.048270
 30
       18.826001
  0
POINT
  8
Default
 62
255
 10
     1092.578288
 20
      998.919667
 30
       18.853537
  0
POINT
  8
Default
 62
255
 10
     1092.588086
 20
      998.997335
 30
       18.868248
  0
POINT
  8
Default
 62
255
 10
     1092.496036
 20
      998.982418
 30
       18.847412
  0
POINT
  8
Default
 62
255
 10
     1092.659659
 20
      999.171904
 30
       18.847516
  0
POINT
  8
Default
 62
255
 10
     1092.589406
 20
      999.349568
 30
       18.869824
  0
POINT
  8
Default
 62
255
 10
     1092.481337
 20
      999.323820
 30
       18.861546
  0
POINT
  8
Default
 62
255
 10
     1092.501394
 20
      999.219876
 30
       18.871986
  0
POINT
  8
Default
 62
255
 10
     1092.415756
 20
      999.188580
 30
       18.871558
  0
POINT
  8
Default
 62
255
 10
     1092.545936
 20
      999.133182
 30
       18.861879
  0
POINT
  8
Default
 62
255
 10
     1092.383812
 20
      999.540416
 30
       18.850786
  0
POINT
  8
Default
 62
255
 10
     1092.397157
 20
      999.423454
 30
       18.840362
  0
POINT
  8
Default
 62
255
 10
     1092.301867
 20
      999.384533
 30
       18.869094
  0
POINT
  8
Default
 62
255
 10
     1092.244019
 20
      999.305097
 30
       18.849325
  0
POINT
  8
Default
 62
255
 10
     1092.314529
 20
      999.054226
 30
       18.859058
  0
POINT
  8
Default
 62
255
 10
     1092.232330
 20
      999.107095
 30
       18.847929
  0
POINT
  8
Default
 62
255
 10
     1092.140936
 20
      999.168766
 30
       18.849118
  0
POINT
  8
Default
 62
255
 10
     1092.092670
 20
      999.243356
 30
       18.842968
  0
POINT
  8
Default
 62
255
 10
     1092.209358
 20
      999.239929
 30
       18.864569
  0
POINT
  8
Default
 62
255
 10
     1092.299925
 20
      999.164646
 30
       18.859576
  0
POINT
  8
Default
 62
255
 10
     1092.209261
 20
      999.661698
 30
       18.893182
  0
POINT
  8
Default
 62
255
 10
     1092.239988
 20
      999.527007
 30
       18.856161
  0
POINT
  8
Default
 62
255
 10
     1092.168850
 20
      999.365658
 30
       18.846336
  0
POINT
  8
Default
 62
255
 10
     1092.109863
 20
      999.630022
 30
       18.894871
  0
POINT
  8
Default
 62
255
 10
     1092.045480
 20
      999.506532
 30
       18.930005
  0
POINT
  8
Default
 62
255
 10
     1092.008859
 20
      999.277768
 30
       18.865059
  0
POINT
  8
Default
 62
255
 10
     1091.947476
 20
      999.331411
 30
       18.912707
  0
POINT
  8
Default
 62
255
 10
     1091.919643
 20
      999.430404
 30
       18.898708
  0
POINT
  8
Default
 62
255
 10
     1092.050080
 20
      999.367249
 30
       18.906266
  0
POINT
  8
Default
 62
255
 10
     1092.132820
 20
      999.482742
 30
       18.895590
  0
POINT
  8
Default
 62
255
 10
     1091.840821
 20
      999.467010
 30
       18.930273
  0
POINT
  8
Default
 62
255
 10
     1091.793725
 20
      999.518949
 30
       18.964193
  0
POINT
  8
Default
 62
255
 10
     1091.726217
 20
      999.591916
 30
       18.994992
  0
POINT
  8
Default
 62
255
 10
     1091.837803
 20
      999.661916
 30
       18.956862
  0
POINT
  8
Default
 62
255
 10
     1091.958802
 20
      999.639899
 30
       18.938711
  0
POINT
  8
Default
 62
255
 10
     1091.939578
 20
      999.550103
 30
       18.929297
  0
POINT
  8
Default
 62
255
 10
     1091.860104
 20
      999.565099
 30
       18.938658
  0
POINT
  8
Default
 62
255
 10
     1091.863527
 20
      999.751447
 30
       18.957066
  0
POINT
  8
Default
 62
255
 10
     1092.063044
 20
      999.775334
 30
       18.931603
  0
POINT
  8
Default
 62
255
 10
     1091.923137
 20
      999.808108
 30
       18.975576
  0
POINT
  8
Default
 62
255
 10
     1091.765940
 20
      999.739129
 30
       19.002063
  0
POINT
  8
Default
 62
255
 10
     1091.621864
 20
      999.532405
 30
       18.777803
  0
POINT
  8
Default
 62
255
 10
     1091.750224
 20
      999.445315
 30
       18.727369
  0
POINT
  8
Default
 62
255
 10
     1091.513352
 20
      999.383005
 30
       18.775697
  0
POINT
  8
Default
 62
255
 10
     1091.438507
 20
      999.291398
 30
       18.811413
  0
POINT
  8
Default
 62
255
 10
     1091.366528
 20
      999.209411
 30
       18.882901
  0
POINT
  8
Default
 62
255
 10
     1091.276114
 20
      999.201750
 30
       18.934603
  0
POINT
  8
Default
 62
255
 10
     1092.731831
 20
      997.347947
 30
       18.297241
  0
POINT
  8
Default
 62
255
 10
     1092.615100
 20
      997.454220
 30
       18.334053
  0
POINT
  8
Default
 62
255
 10
     1092.402183
 20
      997.619411
 30
       18.329689
  0
POINT
  8
Default
 62
255
 10
     1092.254085
 20
      997.735477
 30
       18.336829
  0
POINT
  8
Default
 62
255
 10
     1092.164731
 20
      997.795295
 30
       18.338461
  0
POINT
  8
Default
 62
255
 10
     1092.093322
 20
      997.824054
 30
       18.345384
  0
POINT
  8
Default
 62
255
 10
     1091.757347
 20
      998.056493
 30
       18.320404
  0
POINT
  8
Default
 62
255
 10
     1091.624773
 20
      998.159044
 30
       18.306429
  0
POINT
  8
Default
 62
255
 10
     1091.515502
 20
      998.249830
 30
       18.327786
  0
POINT
  8
Default
 62
255
 10
     1091.464222
 20
      998.350304
 30
       18.327011
  0
POINT
  8
Default
 62
255
 10
     1091.382518
 20
      998.519032
 30
       18.348566
  0
POINT
  8
Default
 62
255
 10
     1091.405996
 20
      998.760599
 30
       18.358701
  0
POINT
  8
Default
 62
255
 10
     1091.437526
 20
      998.882189
 30
       18.398275
  0
POINT
  8
Default
 62
255
 10
     1091.489853
 20
      999.067645
 30
       18.421940
  0
POINT
  8
Default
 62
255
 10
     1091.540743
 20
      999.147662
 30
       18.439916
  0
POINT
  8
Default
 62
255
 10
     1091.615114
 20
      999.265835
 30
       18.501392
  0
POINT
  8
Default
 62
255
 10
     1091.674221
 20
      999.327774
 30
       18.502934
  0
POINT
  8
Default
 62
255
 10
     1091.902536
 20
      999.282424
 30
       18.454224
  0
POINT
  8
Default
 62
255
 10
     1092.017865
 20
      999.202385
 30
       18.420297
  0
POINT
  8
Default
 62
255
 10
     1092.290635
 20
      999.035828
 30
       18.354083
  0
POINT
  8
Default
 62
255
 10
     1092.674985
 20
      998.755218
 30
       18.344147
  0
POINT
  8
Default
 62
255
 10
     1093.018252
 20
      998.601905
 30
       18.330766
  0
POINT
  8
Default
 62
255
 10
     1093.174454
 20
      998.458035
 30
       18.321720
  0
POINT
  8
Default
 62
255
 10
     1093.460863
 20
      998.216218
 30
       18.315357
  0
POINT
  8
Default
 62
255
 10
     1093.656967
 20
      998.051434
 30
       18.319058
  0
POINT
  8
Default
 62
255
 10
     1093.599911
 20
      997.929909
 30
       18.329524
  0
POINT
  8
Default
 62
255
 10
     1093.500388
 20
      997.764639
 30
       18.294683
  0
POINT
  8
Default
 62
255
 10
     1093.442510
 20
      997.673711
 30
       18.294085
  0
POINT
  8
Default
 62
255
 10
     1093.406056
 20
      997.556950
 30
       18.309216
  0
POINT
  8
Default
 62
255
 10
     1093.351348
 20
      997.487264
 30
       18.301632
  0
POINT
  8
Default
 62
255
 10
     1093.234079
 20
      997.372371
 30
       18.248764
  0
POINT
  8
Default
 62
255
 10
     1093.100026
 20
      997.250220
 30
       18.260424
  0
POINT
  8
Default
 62
255
 10
     1093.170449
 20
      997.292694
 30
       18.261858
  0
POINT
  8
Default
 62
255
 10
     1092.934797
 20
      997.264306
 30
       18.262708
  0
POINT
  8
Default
 62
255
 10
     1091.608027
 20
      999.359812
 30
       18.723665
  0
POINT
  8
Default
 62
255
 10
     1091.591301
 20
      999.237299
 30
       18.638973
  0
POINT
  8
Default
 62
255
 10
     1091.497669
 20
      999.187037
 30
       18.753125
  0
POINT
  8
Default
 62
255
 10
     1091.661428
 20
      999.335664
 30
       18.620695
  0
POINT
  8
Default
 62
255
 10
     1091.536813
 20
      999.181677
 30
       18.650815
  0
POINT
  8
Default
 62
255
 10
     1091.502198
 20
      999.129005
 30
       18.590073
  0
POINT
  8
Default
 62
255
 10
     1091.653750
 20
      999.304919
 30
       18.595557
  0
POINT
  8
Default
 62
255
 10
     1091.675207
 20
      999.442523
 30
       18.709369
  0
POINT
  8
Default
 62
255
 10
     1091.436815
 20
      999.101560
 30
       18.774396
  0
POINT
  8
Default
 62
255
 10
     1091.393325
 20
      998.995000
 30
       18.788653
  0
POINT
  8
Default
 62
255
 10
     1091.366043
 20
      999.108106
 30
       18.837939
  0
POINT
  8
Default
 62
255
 10
     1091.342011
 20
      999.009373
 30
       18.869874
  0
POINT
  8
Default
 62
255
 10
     1091.395263
 20
      998.980477
 30
       18.643067
  0
POINT
  8
Default
 62
255
 10
     1091.420344
 20
      998.984010
 30
       18.511978
  0
POINT
  8
Default
 62
255
 10
     1091.462221
 20
      999.083540
 30
       18.532079
  0
POINT
  8
Default
 62
255
 10
     1091.367691
 20
      998.927526
 30
       18.785819
  0
POINT
  8
Default
 62
255
 10
     1091.121103
 20
      999.176065
 30
       19.005540
  0
POINT
  8
Default
 62
255
 10
     1091.238708
 20
      999.118378
 30
       18.922468
  0
POINT
  8
Default
 62
255
 10
     1091.154351
 20
      998.986005
 30
       18.947528
  0
POINT
  8
Default
 62
255
 10
     1091.284957
 20
      998.969986
 30
       18.901216
  0
POINT
  8
Default
 62
255
 10
     1091.038456
 20
      998.991084
 30
       19.019813
  0
POINT
  8
Default
 62
255
 10
     1091.163619
 20
      999.065309
 30
       18.963464
  0
POINT
  8
Default
 62
255
 10
     1091.001208
 20
      999.048074
 30
       19.089613
  0
POINT
  8
Default
 62
255
 10
     1090.946543
 20
      998.920807
 30
       19.109679
  0
POINT
  8
Default
 62
255
 10
     1090.824991
 20
      998.813954
 30
       19.150845
  0
POINT
  8
Default
 62
255
 10
     1090.839840
 20
      998.901919
 30
       19.142078
  0
POINT
  8
Default
 62
255
 10
     1090.918982
 20
      998.696200
 30
       19.157423
  0
POINT
  8
Default
 62
255
 10
     1091.016120
 20
      998.607422
 30
       19.120032
  0
POINT
  8
Default
 62
255
 10
     1090.997830
 20
      998.731230
 30
       19.122294
  0
POINT
  8
Default
 62
255
 10
     1091.032927
 20
      998.768143
 30
       19.084324
  0
POINT
  8
Default
 62
255
 10
     1091.104860
 20
      998.521660
 30
       19.104148
  0
POINT
  8
Default
 62
255
 10
     1091.149303
 20
      998.586644
 30
       19.087873
  0
POINT
  8
Default
 62
255
 10
     1091.082654
 20
      998.794086
 30
       19.011521
  0
POINT
  8
Default
 62
255
 10
     1091.154554
 20
      998.736414
 30
       18.987081
  0
POINT
  8
Default
 62
255
 10
     1091.141563
 20
      998.660614
 30
       19.055823
  0
POINT
  8
Default
 62
255
 10
     1090.899464
 20
      998.798777
 30
       19.133969
  0
POINT
  8
Default
 62
255
 10
     1090.983981
 20
      998.869073
 30
       19.071413
  0
POINT
  8
Default
 62
255
 10
     1091.296205
 20
      998.834390
 30
       18.867813
  0
POINT
  8
Default
 62
255
 10
     1091.226364
 20
      998.867769
 30
       18.922503
  0
POINT
  8
Default
 62
255
 10
     1091.255053
 20
      998.676963
 30
       18.874084
  0
POINT
  8
Default
 62
255
 10
     1091.239711
 20
      998.591458
 30
       18.922925
  0
POINT
  8
Default
 62
255
 10
     1091.239317
 20
      998.540603
 30
       18.966318
  0
POINT
  8
Default
 62
255
 10
     1091.208634
 20
      998.699850
 30
       18.959168
  0
POINT
  8
Default
 62
255
 10
     1091.193818
 20
      998.592406
 30
       19.006128
  0
POINT
  8
Default
 62
255
 10
     1091.191877
 20
      998.439860
 30
       19.101394
  0
POINT
  8
Default
 62
255
 10
     1091.284142
 20
      998.378612
 30
       19.088151
  0
POINT
  8
Default
 62
255
 10
     1091.266486
 20
      998.453559
 30
       19.062756
  0
POINT
  8
Default
 62
255
 10
     1091.366822
 20
      998.803395
 30
       18.438586
  0
POINT
  8
Default
 62
255
 10
     1091.340937
 20
      998.823248
 30
       18.555961
  0
POINT
  8
Default
 62
255
 10
     1091.331478
 20
      998.838740
 30
       18.664994
  0
POINT
  8
Default
 62
255
 10
     1091.311012
 20
      998.830682
 30
       18.753320
  0
POINT
  8
Default
 62
255
 10
     1091.337673
 20
      998.552479
 30
       18.416850
  0
POINT
  8
Default
 62
255
 10
     1091.281913
 20
      998.503606
 30
       18.559692
  0
POINT
  8
Default
 62
255
 10
     1091.260174
 20
      998.576855
 30
       18.812391
  0
POINT
  8
Default
 62
255
 10
     1091.276907
 20
      998.678584
 30
       18.726675
  0
POINT
  8
Default
 62
255
 10
     1091.301654
 20
      998.640967
 30
       18.573493
  0
POINT
  8
Default
 62
255
 10
     1091.347968
 20
      998.637260
 30
       18.432444
  0
POINT
  8
Default
 62
255
 10
     1091.315750
 20
      998.463203
 30
       18.456848
  0
POINT
  8
Default
 62
255
 10
     1091.373913
 20
      998.402050
 30
       18.379949
  0
POINT
  8
Default
 62
255
 10
     1091.321855
 20
      998.382071
 30
       18.625353
  0
POINT
  8
Default
 62
255
 10
     1091.274906
 20
      998.450222
 30
       18.741052
  0
POINT
  8
Default
 62
255
 10
     1091.257049
 20
      998.464704
 30
       18.889405
  0
POINT
  8
Default
 62
255
 10
     1091.287620
 20
      998.387070
 30
       18.750607
  0
POINT
  8
Default
 62
255
 10
     1092.949993
 20
      997.578127
 30
       18.213927
  0
POINT
  8
Default
 62
255
 10
     1093.004570
 20
      997.781359
 30
       18.228840
  0
POINT
  8
Default
 62
255
 10
     1092.667762
 20
      997.665876
 30
       18.300971
  0
POINT
  8
Default
 62
255
 10
     1092.726716
 20
      997.741562
 30
       18.289383
  0
POINT
  8
Default
 62
255
 10
     1092.840558
 20
      997.794257
 30
       18.259810
  0
POINT
  8
Default
 62
255
 10
     1092.800343
 20
      997.942583
 30
       18.279088
  0
POINT
  8
Default
 62
255
 10
     1092.790932
 20
      997.644158
 30
       18.229562
  0
POINT
  8
Default
 62
255
 10
     1092.798118
 20
      997.392749
 30
       18.261455
  0
POINT
  8
Default
 62
255
 10
     1092.961936
 20
      997.354286
 30
       18.234380
  0
POINT
  8
Default
 62
255
 10
     1092.904556
 20
      997.316696
 30
       18.257166
  0
POINT
  8
Default
 62
255
 10
     1092.867231
 20
      997.417662
 30
       18.240732
  0
POINT
  8
Default
 62
255
 10
     1093.192243
 20
      997.556261
 30
       18.236555
  0
POINT
  8
Default
 62
255
 10
     1093.321213
 20
      997.575403
 30
       18.260558
  0
POINT
  8
Default
 62
255
 10
     1093.310628
 20
      997.818274
 30
       18.229361
  0
POINT
  8
Default
 62
255
 10
     1093.156540
 20
      997.916305
 30
       18.231640
  0
POINT
  8
Default
 62
255
 10
     1093.028355
 20
      998.010610
 30
       18.258505
  0
POINT
  8
Default
 62
255
 10
     1093.144545
 20
      998.083377
 30
       18.247776
  0
POINT
  8
Default
 62
255
 10
     1093.269765
 20
      997.991982
 30
       18.217646
  0
POINT
  8
Default
 62
255
 10
     1092.925439
 20
      998.246846
 30
       18.281225
  0
POINT
  8
Default
 62
255
 10
     1092.796961
 20
      998.195970
 30
       18.279885
  0
POINT
  8
Default
 62
255
 10
     1092.771840
 20
      998.390959
 30
       18.300518
  0
POINT
  8
Default
 62
255
 10
     1092.908672
 20
      998.364601
 30
       18.285216
  0
POINT
  8
Default
 62
255
 10
     1092.918295
 20
      998.541054
 30
       18.304035
  0
POINT
  8
Default
 62
255
 10
     1093.090365
 20
      998.453214
 30
       18.302715
  0
POINT
  8
Default
 62
255
 10
     1092.408859
 20
      997.893081
 30
       18.303352
  0
POINT
  8
Default
 62
255
 10
     1092.251124
 20
      998.007872
 30
       18.308900
  0
POINT
  8
Default
 62
255
 10
     1092.121629
 20
      998.092894
 30
       18.305484
  0
POINT
  8
Default
 62
255
 10
     1092.223286
 20
      998.139667
 30
       18.294894
  0
POINT
  8
Default
 62
255
 10
     1092.335566
 20
      998.225446
 30
       18.283348
  0
POINT
  8
Default
 62
255
 10
     1092.512991
 20
      998.148944
 30
       18.263913
  0
POINT
  8
Default
 62
255
 10
     1092.611975
 20
      998.053864
 30
       18.257740
  0
POINT
  8
Default
 62
255
 10
     1092.509800
 20
      997.931553
 30
       18.268992
  0
POINT
  8
Default
 62
255
 10
     1091.994126
 20
      997.965108
 30
       18.332696
  0
POINT
  8
Default
 62
255
 10
     1091.702737
 20
      998.220897
 30
       18.289751
  0
POINT
  8
Default
 62
255
 10
     1091.573524
 20
      998.376756
 30
       18.300785
  0
POINT
  8
Default
 62
255
 10
     1091.687939
 20
      998.407389
 30
       18.281299
  0
POINT
  8
Default
 62
255
 10
     1091.845388
 20
      998.151114
 30
       18.311604
  0
POINT
  8
Default
 62
255
 10
     1091.834599
 20
      998.541724
 30
       18.302783
  0
POINT
  8
Default
 62
255
 10
     1091.932129
 20
      998.326386
 30
       18.292702
  0
POINT
  8
Default
 62
255
 10
     1091.910671
 20
      998.595639
 30
       18.308524
  0
POINT
  8
Default
 62
255
 10
     1092.022227
 20
      998.684494
 30
       18.309983
  0
POINT
  8
Default
 62
255
 10
     1092.218841
 20
      998.671997
 30
       18.307798
  0
POINT
  8
Default
 62
255
 10
     1092.414613
 20
      998.661322
 30
       18.295009
  0
POINT
  8
Default
 62
255
 10
     1092.243283
 20
      998.456229
 30
       18.301143
  0
POINT
  8
Default
 62
255
 10
     1092.612956
 20
      998.758021
 30
       18.314295
  0
POINT
  8
Default
 62
255
 10
     1092.443755
 20
      998.852466
 30
       18.321933
  0
POINT
  8
Default
 62
255
 10
     1092.090585
 20
      999.005461
 30
       18.316131
  0
POINT
  8
Default
 62
255
 10
     1091.837167
 20
      999.211535
 30
       18.414761
  0
POINT
  8
Default
 62
255
 10
     1091.728844
 20
      999.268738
 30
       18.443451
  0
POINT
  8
Default
 62
255
 10
     1091.624976
 20
      999.048266
 30
       18.404988
  0
POINT
  8
Default
 62
255
 10
     1091.797433
 20
      999.024735
 30
       18.388350
  0
POINT
  8
Default
 62
255
 10
     1091.889284
 20
      998.940890
 30
       18.359828
  0
POINT
  8
Default
 62
255
 10
     1091.616165
 20
      998.819625
 30
       18.355673
  0
POINT
  8
Default
 62
255
 10
     1091.701062
 20
      998.712612
 30
       18.330412
  0
POINT
  8
Default
 62
255
 10
     1091.480367
 20
      998.679477
 30
       18.322772
  0
POINT
  8
Default
 62
255
 10
     1091.557340
 20
      998.647174
 30
       18.319951
  0
POINT
  8
Default
 62
255
 10
     1091.500695
 20
      998.808175
 30
       18.343498
  0
POINT
  8
Default
 62
255
 10
     1091.482765
 20
      998.475721
 30
       18.322194
  0
LINE
  8
Default
 62
255
 10
     1091.276114
 20
      999.201750
 30
       18.934603
 11
     1091.366528
 21
      999.209411
 31
       18.882901
  0
LINE
  8
Default
 62
255
 10
     1091.366528
 20
      999.209411
 30
       18.882901
 11
     1091.438507
 21
      999.291398
 31
       18.811413
  0
LINE
  8
Default
 62
255
 10
     1091.438507
 20
      999.291398
 30
       18.811413
 11
     1091.513352
 21
      999.383005
 31
       18.775697
  0
LINE
  8
Default
 62
255
 10
     1091.513352
 20
      999.383005
 30
       18.775697
 11
     1091.621864
 21
      999.532405
 31
       18.777803
  0
LINE
  8
Default
 62
255
 10
     1092.934797
 20
      997.264306
 30
       18.262708
 11
     1092.731831
 21
      997.347947
 31
       18.297241
  0
LINE
  8
Default
 62
255
 10
     1092.731831
 20
      997.347947
 30
       18.297241
 11
     1092.615100
 21
      997.454220
 31
       18.334053
  0
LINE
  8
Default
 62
255
 10
     1092.615100
 20
      997.454220
 30
       18.334053
 11
     1092.402183
 21
      997.619411
 31
       18.329689
  0
LINE
  8
Default
 62
255
 10
     1092.402183
 20
      997.619411
 30
       18.329689
 11
     1092.254085
 21
      997.735477
 31
       18.336829
  0
LINE
  8
Default
 62
255
 10
     1092.254085
 20
      997.735477
 30
       18.336829
 11
     1092.164731
 21
      997.795295
 31
       18.338461
  0
LINE
  8
Default
 62
255
 10
     1092.164731
 20
      997.795295
 30
       18.338461
 11
     1092.093322
 21
      997.824054
 31
       18.345384
  0
LINE
  8
Default
 62
255
 10
     1092.093322
 20
      997.824054
 30
       18.345384
 11
     1091.930079
 21
      997.866683
 31
       18.360672
  0
LINE
  8
Default
 62
255
 10
     1091.930079
 20
      997.866683
 30
       18.360672
 11
     1091.883525
 21
      997.930678
 31
       18.346900
  0
LINE
  8
Default
 62
255
 10
     1091.883525
 20
      997.930678
 30
       18.346900
 11
     1091.757347
 21
      998.056493
 31
       18.320404
  0
LINE
  8
Default
 62
255
 10
     1091.757347
 20
      998.056493
 30
       18.320404
 11
     1091.624773
 21
      998.159044
 31
       18.306429
  0
LINE
  8
Default
 62
255
 10
     1091.624773
 20
      998.159044
 30
       18.306429
 11
     1091.515502
 21
      998.249830
 31
       18.327786
  0
LINE
  8
Default
 62
255
 10
     1091.515502
 20
      998.249830
 30
       18.327786
 11
     1091.464222
 21
      998.350304
 31
       18.327011
  0
LINE
  8
Default
 62
255
 10
     1091.464222
 20
      998.350304
 30
       18.327011
 11
     1091.422495
 21
      998.438657
 31
       18.347630
  0
LINE
  8
Default
 62
255
 10
     1091.422495
 20
      998.438657
 30
       18.347630
 11
     1091.382518
 21
      998.519032
 31
       18.348566
  0
LINE
  8
Default
 62
255
 10
     1091.382518
 20
      998.519032
 30
       18.348566
 11
     1091.393069
 21
      998.635769
 31
       18.356995
  0
LINE
  8
Default
 62
255
 10
     1091.393069
 20
      998.635769
 30
       18.356995
 11
     1091.405996
 21
      998.760599
 31
       18.358701
  0
LINE
  8
Default
 62
255
 10
     1091.405996
 20
      998.760599
 30
       18.358701
 11
     1091.437526
 21
      998.882189
 31
       18.398275
  0
LINE
  8
Default
 62
255
 10
     1091.437526
 20
      998.882189
 30
       18.398275
 11
     1091.448347
 21
      998.925931
 31
       18.427121
  0
LINE
  8
Default
 62
255
 10
     1091.448347
 20
      998.925931
 30
       18.427121
 11
     1091.489853
 21
      999.067645
 31
       18.421940
  0
LINE
  8
Default
 62
255
 10
     1091.489853
 20
      999.067645
 30
       18.421940
 11
     1091.540743
 21
      999.147662
 31
       18.439916
  0
LINE
  8
Default
 62
255
 10
     1091.540743
 20
      999.147662
 30
       18.439916
 11
     1091.615114
 21
      999.265835
 31
       18.501392
  0
LINE
  8
Default
 62
255
 10
     1091.615114
 20
      999.265835
 30
       18.501392
 11
     1091.674221
 21
      999.327774
 31
       18.502934
  0
LINE
  8
Default
 62
255
 10
     1091.902536
 20
      999.282424
 30
       18.454224
 11
     1092.017865
 21
      999.202385
 31
       18.420297
  0
LINE
  8
Default
 62
255
 10
     1092.290635
 20
      999.035828
 30
       18.354083
 11
     1092.352172
 21
      998.970798
 31
       18.344493
  0
LINE
  8
Default
 62
255
 10
     1092.674985
 20
      998.755218
 30
       18.344147
 11
     1092.793294
 21
      998.688700
 31
       18.340786
  0
LINE
  8
Default
 62
255
 10
     1093.018252
 20
      998.601905
 30
       18.330766
 11
     1093.174454
 21
      998.458035
 31
       18.321720
  0
LINE
  8
Default
 62
255
 10
     1093.375172
 20
      998.277116
 30
       18.306590
 11
     1093.460863
 21
      998.216218
 31
       18.315357
  0
LINE
  8
Default
 62
255
 10
     1093.460863
 20
      998.216218
 30
       18.315357
 11
     1093.635911
 21
      998.082233
 31
       18.361575
  0
LINE
  8
Default
 62
255
 10
     1093.635911
 20
      998.082233
 30
       18.361575
 11
     1093.656967
 21
      998.051434
 31
       18.319058
  0
LINE
  8
Default
 62
255
 10
     1093.656967
 20
      998.051434
 30
       18.319058
 11
     1093.599911
 21
      997.929909
 31
       18.329524
  0
LINE
  8
Default
 62
255
 10
     1093.599911
 20
      997.929909
 30
       18.329524
 11
     1093.500388
 21
      997.764639
 31
       18.294683
  0
LINE
  8
Default
 62
255
 10
     1093.500388
 20
      997.764639
 30
       18.294683
 11
     1093.476787
 21
      997.747841
 31
       18.314951
  0
LINE
  8
Default
 62
255
 10
     1093.476787
 20
      997.747841
 30
       18.314951
 11
     1093.442510
 21
      997.673711
 31
       18.294085
  0
LINE
  8
Default
 62
255
 10
     1093.442510
 20
      997.673711
 30
       18.294085
 11
     1093.406056
 21
      997.556950
 31
       18.309216
  0
LINE
  8
Default
 62
255
 10
     1093.406056
 20
      997.556950
 30
       18.309216
 11
     1093.351348
 21
      997.487264
 31
       18.301632
  0
LINE
  8
Default
 62
255
 10
     1093.351348
 20
      997.487264
 30
       18.301632
 11
     1093.279263
 21
      997.413336
 31
       18.256655
  0
LINE
  8
Default
 62
255
 10
     1093.279263
 20
      997.413336
 30
       18.256655
 11
     1093.234079
 21
      997.372371
 31
       18.248764
  0
LINE
  8
Default
 62
255
 10
     1093.234079
 20
      997.372371
 30
       18.248764
 11
     1093.170449
 21
      997.292694
 31
       18.261858
  0
LINE
  8
Default
 62
255
 10
     1093.170449
 20
      997.292694
 30
       18.261858
 11
     1093.100026
 21
      997.250220
 31
       18.260424
  0
LINE
  8
Default
 62
255
 10
     1093.100026
 20
      997.250220
 30
       18.260424
 11
     1093.032362
 21
      997.267344
 31
       18.289202
  0
LINE
  8
Default
 62
255
 10
     1093.032362
 20
      997.267344
 30
       18.289202
 11
     1092.934797
 21
      997.264306
 31
       18.262708
  0
LINE
  8
Default
 62
255
 10
     1091.726217
 20
      999.591916
 30
       18.994992
 11
     1091.793725
 21
      999.518949
 31
       18.964193
  0
LINE
  8
Default
 62
255
 10
     1091.793725
 20
      999.518949
 30
       18.964193
 11
     1091.840821
 21
      999.467010
 31
       18.930273
  0
LINE
  8
Default
 62
255
 10
     1091.840821
 20
      999.467010
 30
       18.930273
 11
     1091.919643
 21
      999.430404
 31
       18.898708
  0
LINE
  8
Default
 62
255
 10
     1091.919643
 20
      999.430404
 30
       18.898708
 11
     1091.947476
 21
      999.331411
 31
       18.912707
  0
LINE
  8
Default
 62
255
 10
     1091.947476
 20
      999.331411
 30
       18.912707
 11
     1092.008859
 21
      999.277768
 31
       18.865059
  0
LINE
  8
Default
 62
255
 10
     1092.008859
 20
      999.277768
 30
       18.865059
 11
     1092.092670
 21
      999.243356
 31
       18.842968
  0
LINE
  8
Default
 62
255
 10
     1092.092670
 20
      999.243356
 30
       18.842968
 11
     1092.140936
 21
      999.168766
 31
       18.849118
  0
LINE
  8
Default
 62
255
 10
     1092.140936
 20
      999.168766
 30
       18.849118
 11
     1092.232330
 21
      999.107095
 31
       18.847929
  0
LINE
  8
Default
 62
255
 10
     1092.232330
 20
      999.107095
 30
       18.847929
 11
     1092.314529
 21
      999.054226
 31
       18.859058
  0
LINE
  8
Default
 62
255
 10
     1092.314529
 20
      999.054226
 30
       18.859058
 11
     1092.401739
 21
      999.022415
 31
       18.855138
  0
LINE
  8
Default
 62
255
 10
     1092.401739
 20
      999.022415
 30
       18.855138
 11
     1092.496036
 21
      998.982418
 31
       18.847412
  0
LINE
  8
Default
 62
255
 10
     1092.496036
 20
      998.982418
 30
       18.847412
 11
     1092.578288
 21
      998.919667
 31
       18.853537
  0
LINE
  8
Default
 62
255
 10
     1092.578288
 20
      998.919667
 30
       18.853537
 11
     1092.659123
 21
      998.851144
 31
       18.777673
  0
LINE
  8
Default
 62
255
 10
     1092.659123
 20
      998.851144
 30
       18.777673
 11
     1092.729906
 21
      998.824972
 31
       18.771871
  0
LINE
  8
Default
 62
255
 10
     1092.854111
 20
      998.701424
 30
       18.836048
 11
     1092.948875
 21
      998.698365
 31
       18.751700
  0
LINE
  8
Default
 62
255
 10
     1092.948875
 20
      998.698365
 30
       18.751700
 11
     1092.986121
 21
      998.598582
 31
       18.848453
  0
LINE
  8
Default
 62
255
 10
     1092.986121
 20
      998.598582
 30
       18.848453
 11
     1093.071239
 21
      998.578661
 31
       18.890583
  0
LINE
  8
Default
 62
255
 10
     1093.071239
 20
      998.578661
 30
       18.890583
 11
     1093.158981
 21
      998.522768
 31
       18.802576
  0
LINE
  8
Default
 62
255
 10
     1093.158981
 20
      998.522768
 30
       18.802576
 11
     1093.201067
 21
      998.420359
 31
       18.915681
  0
LINE
  8
Default
 62
255
 10
     1093.201067
 20
      998.420359
 30
       18.915681
 11
     1093.299880
 21
      998.362936
 31
       18.819330
  0
LINE
  8
Default
 62
255
 10
     1093.299880
 20
      998.362936
 30
       18.819330
 11
     1093.366034
 21
      998.329102
 31
       18.775494
  0
LINE
  8
Default
 62
255
 10
     1093.434835
 20
      998.342463
 30
       18.762678
 11
     1093.366034
 21
      998.329102
 31
       18.775494
  0
LINE
  8
Default
 62
255
 10
     1093.434835
 20
      998.342463
 30
       18.762678
 11
     1093.456458
 21
      998.314055
 31
       18.783776
  0
LINE
  8
Default
 62
255
 10
     1093.456458
 20
      998.314055
 30
       18.783776
 11
     1093.523637
 21
      998.259070
 31
       18.784075
  0
LINE
  8
Default
 62
255
 10
     1093.523637
 20
      998.259070
 30
       18.784075
 11
     1093.614759
 21
      998.236499
 31
       18.814343
  0
LINE
  8
Default
 62
255
 10
     1093.614759
 20
      998.236499
 30
       18.814343
 11
     1093.640106
 21
      998.137471
 31
       18.875080
  0
LINE
  8
Default
 62
255
 10
     1093.640106
 20
      998.137471
 30
       18.875080
 11
     1093.719636
 21
      998.120913
 31
       18.864044
  0
LINE
  8
Default
 62
255
 10
     1093.719636
 20
      998.120913
 30
       18.864044
 11
     1093.739140
 21
      998.034818
 31
       18.858942
  0
LINE
  8
Default
 62
255
 10
     1093.739140
 20
      998.034818
 30
       18.858942
 11
     1093.801562
 21
      997.996741
 31
       18.883318
  0
LINE
  8
Default
 62
255
 10
     1093.801562
 20
      997.996741
 30
       18.883318
 11
     1093.839383
 21
      997.958899
 31
       18.880924
  0
LINE
  8
Default
 62
255
 10
     1093.839383
 20
      997.958899
 30
       18.880924
 11
     1093.900104
 21
      998.102349
 31
       18.883303
  0
LINE
  8
Default
 62
255
 10
     1093.900104
 20
      998.102349
 30
       18.883303
 11
     1093.990152
 21
      998.158868
 31
       18.971684
  0
LINE
  8
Default
 62
255
 10
     1093.990152
 20
      998.158868
 30
       18.971684
 11
     1093.877500
 21
      998.259403
 31
       18.955668
  0
LINE
  8
Default
 62
255
 10
     1093.877500
 20
      998.259403
 30
       18.955668
 11
     1093.750408
 21
      998.407085
 31
       18.884911
  0
LINE
  8
Default
 62
255
 10
     1093.750408
 20
      998.407085
 30
       18.884911
 11
     1093.606848
 21
      998.505148
 31
       18.879798
  0
LINE
  8
Default
 62
255
 10
     1093.606848
 20
      998.505148
 30
       18.879798
 11
     1093.500191
 21
      998.589492
 31
       18.864821
  0
LINE
  8
Default
 62
255
 10
     1093.500191
 20
      998.589492
 30
       18.864821
 11
     1093.384904
 21
      998.691344
 31
       18.866680
  0
LINE
  8
Default
 62
255
 10
     1093.384904
 20
      998.691344
 30
       18.866680
 11
     1093.216599
 21
      998.840101
 31
       18.903189
  0
LINE
  8
Default
 62
255
 10
     1093.216599
 20
      998.840101
 30
       18.903189
 11
     1093.005571
 21
      999.009829
 31
       18.887435
  0
LINE
  8
Default
 62
255
 10
     1093.005571
 20
      999.009829
 30
       18.887435
 11
     1092.893962
 21
      999.103245
 31
       18.882822
  0
LINE
  8
Default
 62
255
 10
     1092.893962
 20
      999.103245
 30
       18.882822
 11
     1092.812599
 21
      999.161147
 31
       18.903597
  0
LINE
  8
Default
 62
255
 10
     1092.812599
 20
      999.161147
 30
       18.903597
 11
     1092.589406
 21
      999.349568
 31
       18.869824
  0
LINE
  8
Default
 62
255
 10
     1092.589406
 20
      999.349568
 30
       18.869824
 11
     1092.383812
 21
      999.540416
 31
       18.850786
  0
LINE
  8
Default
 62
255
 10
     1092.383812
 20
      999.540416
 30
       18.850786
 11
     1092.209261
 21
      999.661698
 31
       18.893182
  0
LINE
  8
Default
 62
255
 10
     1092.209261
 20
      999.661698
 30
       18.893182
 11
     1092.063044
 21
      999.775334
 31
       18.931603
  0
LINE
  8
Default
 62
255
 10
     1092.063044
 20
      999.775334
 30
       18.931603
 11
     1091.923137
 21
      999.808108
 31
       18.975576
  0
LINE
  8
Default
 62
255
 10
     1091.923137
 20
      999.808108
 30
       18.975576
 11
     1091.765940
 21
      999.739129
 31
       19.002063
  0
LINE
  8
Default
 62
255
 10
     1091.765940
 20
      999.739129
 30
       19.002063
 11
     1091.744844
 21
      999.674399
 31
       18.984214
  0
LINE
  8
Default
 62
255
 10
     1091.744844
 20
      999.674399
 30
       18.984214
 11
     1091.726217
 21
      999.591916
 31
       18.994992
  0
LINE
  8
Default
 62
255
 10
     1092.352172
 20
      998.970798
 30
       18.344493
 11
     1092.674985
 21
      998.755218
 31
       18.344147
  0
LINE
  8
Default
 62
255
 10
     1092.793294
 20
      998.688700
 30
       18.340786
 11
     1093.018252
 21
      998.601905
 31
       18.330766
  0
LINE
  8
Default
 62
255
 10
     1093.174454
 20
      998.458035
 30
       18.321720
 11
     1093.375172
 21
      998.277116
 31
       18.306590
  0
LINE
  8
Default
 62
255
 10
     1091.497669
 20
      999.187037
 30
       18.753125
 11
     1091.436815
 21
      999.101560
 31
       18.774396
  0
LINE
  8
Default
 62
255
 10
     1091.436815
 20
      999.101560
 30
       18.774396
 11
     1091.393325
 21
      998.995000
 31
       18.788653
  0
LINE
  8
Default
 62
255
 10
     1091.393325
 20
      998.995000
 30
       18.788653
 11
     1091.367691
 21
      998.927526
 31
       18.785819
  0
LINE
  8
Default
 62
255
 10
     1091.367691
 20
      998.927526
 30
       18.785819
 11
     1091.345887
 21
      998.893506
 31
       18.780207
  0
LINE
  8
Default
 62
255
 10
     1091.345887
 20
      998.893506
 30
       18.780207
 11
     1091.296205
 21
      998.834390
 31
       18.867813
  0
LINE
  8
Default
 62
255
 10
     1091.296205
 20
      998.834390
 30
       18.867813
 11
     1091.278927
 21
      998.755764
 31
       18.873395
  0
LINE
  8
Default
 62
255
 10
     1091.278927
 20
      998.755764
 30
       18.873395
 11
     1091.255053
 21
      998.676963
 31
       18.874084
  0
LINE
  8
Default
 62
255
 10
     1091.255053
 20
      998.676963
 30
       18.874084
 11
     1091.239711
 21
      998.591458
 31
       18.922925
  0
LINE
  8
Default
 62
255
 10
     1091.239711
 20
      998.591458
 30
       18.922925
 11
     1091.239317
 21
      998.540603
 31
       18.966318
  0
LINE
  8
Default
 62
255
 10
     1091.239317
 20
      998.540603
 30
       18.966318
 11
     1091.266486
 21
      998.453559
 31
       19.062756
  0
LINE
  8
Default
 62
255
 10
     1091.266486
 20
      998.453559
 30
       19.062756
 11
     1091.284142
 21
      998.378612
 31
       19.088151
  0
LINE
  8
Default
 62
255
 10
     1091.497669
 20
      999.187037
 30
       18.753125
 11
     1091.608027
 21
      999.359812
 31
       18.723665
  0
LINE
  8
Default
 62
255
 10
     1091.608027
 20
      999.359812
 30
       18.723665
 11
     1091.685915
 21
      999.386361
 31
       18.667531
  0
LINE
  8
Default
 62
255
 10
     1091.685915
 20
      999.386361
 30
       18.667531
 11
     1091.774654
 21
      999.395367
 31
       18.719086
  0
LINE
  8
Default
 62
255
 10
     1092.729906
 20
      998.824972
 30
       18.771871
 11
     1092.799112
 21
      998.820126
 31
       18.833178
  0
LINE
  8
Default
 62
255
 10
     1092.799112
 20
      998.820126
 30
       18.833178
 11
     1092.854111
 21
      998.701424
 31
       18.836048
  0
LINE
  8
Default
 62
255
 10
     1091.674221
 20
      999.327774
 30
       18.502934
 11
     1091.902536
 21
      999.282424
 31
       18.454224
  0
LINE
  8
Default
 62
255
 10
     1092.017865
 20
      999.202385
 30
       18.420297
 11
     1092.290635
 21
      999.035828
 31
       18.354083
  0
ENDSEC
  0
EOF
