  0
SECTION
  2
HEADER
  9
$PDMODE
 70
   34
  9
$PDSIZE
 40
   -3.0
  0
ENDSEC
  0
SECTION
  2
TABLES
  0
TABLE
  2
LTYPE
 70
 1
  0
LTYPE
  2
CONTINUOUS
  70
 64
  3
Solid line
  72
 65
 73
 0
  40
 0.0
  0
ENDTAB
  0
TABLE
  2
LAYER
 70
 1
 0
LAYER
  2
Default
  70
 0
 62
 7
  6
CONTINUOUS
  0
ENDTAB
  0 
ENDSEC
  0
SECTION
  2
ENTITIES
  0
POINT
  8
Default
 62
255
 10
     1103.833116
 20
     1001.874408
 30
       19.328726
  0
POINT
  8
Default
 62
255
 10
     1103.474129
 20
     1002.345448
 30
       19.237202
  0
POINT
  8
Default
 62
255
 10
     1102.632495
 20
     1002.190966
 30
       19.396204
  0
POINT
  8
Default
 62
255
 10
     1101.739209
 20
     1001.024055
 30
       19.354609
  0
POINT
  8
Default
 62
255
 10
     1101.745544
 20
      999.843949
 30
       19.609093
  0
POINT
  8
Default
 62
255
 10
     1103.317508
 20
     1000.939173
 30
       19.317165
  0
POINT
  8
Default
 62
255
 10
     1102.261736
 20
      999.596644
 30
       19.452552
  0
POINT
  8
Default
 62
255
 10
     1102.345048
 20
      999.784028
 30
       19.428242
  0
POINT
  8
Default
 62
255
 10
     1102.506592
 20
     1000.018154
 30
       19.380635
  0
POINT
  8
Default
 62
255
 10
     1102.042838
 20
      999.695394
 30
       19.612003
  0
POINT
  8
Default
 62
255
 10
     1102.202805
 20
      999.738777
 30
       19.051591
  0
POINT
  8
Default
 62
255
 10
     1102.325539
 20
      999.940343
 30
       19.031518
  0
POINT
  8
Default
 62
255
 10
     1102.049546
 20
      999.994736
 30
       18.906307
  0
POINT
  8
Default
 62
255
 10
     1101.897719
 20
     1000.063927
 30
       18.781627
  0
POINT
  8
Default
 62
255
 10
     1101.699342
 20
     1000.148416
 30
       18.784850
  0
POINT
  8
Default
 62
255
 10
     1101.930689
 20
     1000.313706
 30
       18.792273
  0
POINT
  8
Default
 62
255
 10
     1102.288352
 20
     1000.153340
 30
       18.943952
  0
POINT
  8
Default
 62
255
 10
     1102.487837
 20
     1000.317554
 30
       18.902617
  0
POINT
  8
Default
 62
255
 10
     1102.300350
 20
     1000.453328
 30
       18.849679
  0
POINT
  8
Default
 62
255
 10
     1102.099257
 20
     1000.639168
 30
       18.782210
  0
POINT
  8
Default
 62
255
 10
     1101.887868
 20
     1000.735743
 30
       18.816423
  0
POINT
  8
Default
 62
255
 10
     1102.031315
 20
     1000.948308
 30
       18.789363
  0
POINT
  8
Default
 62
255
 10
     1102.379111
 20
     1000.796316
 30
       18.718455
  0
POINT
  8
Default
 62
255
 10
     1102.506876
 20
     1000.658590
 30
       18.800787
  0
POINT
  8
Default
 62
255
 10
     1102.178300
 20
     1001.097608
 30
       18.969452
  0
POINT
  8
Default
 62
255
 10
     1102.286398
 20
     1001.063599
 30
       18.976815
  0
POINT
  8
Default
 62
255
 10
     1102.357040
 20
     1001.017194
 30
       18.974068
  0
POINT
  8
Default
 62
255
 10
     1102.648873
 20
     1000.847794
 30
       18.941865
  0
POINT
  8
Default
 62
255
 10
     1102.520759
 20
     1000.949614
 30
       18.954742
  0
POINT
  8
Default
 62
255
 10
     1102.441933
 20
     1000.794257
 30
       18.983338
  0
POINT
  8
Default
 62
255
 10
     1102.545360
 20
     1000.757590
 30
       18.959363
  0
POINT
  8
Default
 62
255
 10
     1102.712606
 20
     1000.821390
 30
       18.907964
  0
POINT
  8
Default
 62
255
 10
     1102.264334
 20
     1001.331092
 30
       18.941630
  0
POINT
  8
Default
 62
255
 10
     1102.536979
 20
     1001.245030
 30
       18.938792
  0
POINT
  8
Default
 62
255
 10
     1102.702555
 20
     1001.226705
 30
       18.908738
  0
POINT
  8
Default
 62
255
 10
     1102.552735
 20
     1001.519712
 30
       18.910654
  0
POINT
  8
Default
 62
255
 10
     1102.760472
 20
     1001.251234
 30
       18.880553
  0
POINT
  8
Default
 62
255
 10
     1102.791555
 20
     1001.177073
 30
       18.886713
  0
POINT
  8
Default
 62
255
 10
     1102.847948
 20
     1001.139020
 30
       18.896052
  0
POINT
  8
Default
 62
255
 10
     1102.958023
 20
     1001.248508
 30
       18.893074
  0
POINT
  8
Default
 62
255
 10
     1102.920263
 20
     1000.841719
 30
       19.058765
  0
POINT
  8
Default
 62
255
 10
     1102.884699
 20
     1001.079158
 30
       19.014903
  0
POINT
  8
Default
 62
255
 10
     1103.005787
 20
     1001.117376
 30
       19.005660
  0
POINT
  8
Default
 62
255
 10
     1102.482920
 20
     1001.601713
 30
       18.903760
  0
POINT
  8
Default
 62
255
 10
     1102.580727
 20
     1001.651407
 30
       18.739519
  0
POINT
  8
Default
 62
255
 10
     1102.793381
 20
     1001.645049
 30
       18.749727
  0
POINT
  8
Default
 62
255
 10
     1102.716044
 20
     1001.948475
 30
       18.809704
  0
POINT
  8
Default
 62
255
 10
     1102.845757
 20
     1001.866584
 30
       18.803800
  0
POINT
  8
Default
 62
255
 10
     1103.051598
 20
     1001.735801
 30
       18.822423
  0
POINT
  8
Default
 62
255
 10
     1103.181555
 20
     1001.602633
 30
       18.809781
  0
POINT
  8
Default
 62
255
 10
     1103.272853
 20
     1001.522647
 30
       18.820736
  0
POINT
  8
Default
 62
255
 10
     1102.880940
 20
     1002.127268
 30
       18.813081
  0
POINT
  8
Default
 62
255
 10
     1103.001360
 20
     1002.038982
 30
       18.820487
  0
POINT
  8
Default
 62
255
 10
     1103.298105
 20
     1001.803456
 30
       18.839121
  0
POINT
  8
Default
 62
255
 10
     1103.418049
 20
     1001.895285
 30
       18.818076
  0
POINT
  8
Default
 62
255
 10
     1101.632719
 20
     1000.764226
 30
       19.402788
  0
POINT
  8
Default
 62
255
 10
     1101.907704
 20
     1001.238525
 30
       19.341799
  0
POINT
  8
Default
 62
255
 10
     1102.059129
 20
     1001.376910
 30
       19.335972
  0
POINT
  8
Default
 62
255
 10
     1102.190376
 20
     1001.500150
 30
       19.341196
  0
POINT
  8
Default
 62
255
 10
     1102.363564
 20
     1001.706342
 30
       19.327370
  0
POINT
  8
Default
 62
255
 10
     1102.620686
 20
      999.955471
 30
       19.386030
  0
POINT
  8
Default
 62
255
 10
     1102.985821
 20
     1000.707963
 30
       19.310988
  0
POINT
  8
Default
 62
255
 10
     1103.157221
 20
     1000.959514
 30
       19.329249
  0
POINT
  8
Default
 62
255
 10
     1103.372152
 20
     1001.271372
 30
       19.309825
  0
POINT
  8
Default
 62
255
 10
     1103.551725
 20
     1001.527833
 30
       19.331913
  0
POINT
  8
Default
 62
255
 10
     1102.920710
 20
     1002.570841
 30
       19.366411
  0
POINT
  8
Default
 62
255
 10
     1102.789320
 20
     1002.423218
 30
       19.366410
  0
POINT
  8
Default
 62
255
 10
     1103.236649
 20
     1001.271333
 30
       18.779091
  0
POINT
  8
Default
 62
255
 10
     1103.299562
 20
     1001.304481
 30
       18.801055
  0
POINT
  8
Default
 62
255
 10
     1103.304233
 20
     1001.379181
 30
       18.807814
  0
POINT
  8
Default
 62
255
 10
     1103.235869
 20
     1001.415929
 30
       18.775870
  0
POINT
  8
Default
 62
255
 10
     1103.200249
 20
     1001.406923
 30
       18.714996
  0
POINT
  8
Default
 62
255
 10
     1103.129572
 20
     1001.439643
 30
       18.727526
  0
POINT
  8
Default
 62
255
 10
     1103.066309
 20
     1001.503046
 30
       18.738116
  0
POINT
  8
Default
 62
255
 10
     1103.020660
 20
     1001.561233
 30
       18.786291
  0
POINT
  8
Default
 62
255
 10
     1102.962385
 20
     1001.627688
 30
       18.781384
  0
POINT
  8
Default
 62
255
 10
     1102.896620
 20
     1001.661325
 30
       18.741347
  0
POINT
  8
Default
 62
255
 10
     1102.832174
 20
     1001.698558
 30
       18.762452
  0
POINT
  8
Default
 62
255
 10
     1102.615757
 20
     1001.474205
 30
       18.778989
  0
POINT
  8
Default
 62
255
 10
     1102.657708
 20
     1001.469345
 30
       18.790726
  0
POINT
  8
Default
 62
255
 10
     1102.698487
 20
     1001.483982
 30
       18.796774
  0
POINT
  8
Default
 62
255
 10
     1102.738260
 20
     1001.503831
 30
       18.788136
  0
POINT
  8
Default
 62
255
 10
     1102.774558
 20
     1001.525890
 30
       18.767523
  0
POINT
  8
Default
 62
255
 10
     1102.766207
 20
     1001.557465
 30
       18.735159
  0
POINT
  8
Default
 62
255
 10
     1102.794756
 20
     1001.574421
 30
       18.703404
  0
POINT
  8
Default
 62
255
 10
     1102.831241
 20
     1001.591985
 30
       18.710376
  0
POINT
  8
Default
 62
255
 10
     1102.861821
 20
     1001.623662
 30
       18.726553
  0
POINT
  8
Default
 62
255
 10
     1102.877834
 20
     1001.709488
 30
       18.738460
  0
POINT
  8
Default
 62
255
 10
     1102.862638
 20
     1001.750305
 30
       18.753721
  0
POINT
  8
Default
 62
255
 10
     1102.860981
 20
     1001.788690
 30
       18.766807
  0
POINT
  8
Default
 62
255
 10
     1102.889595
 20
     1001.808632
 30
       18.792662
  0
POINT
  8
Default
 62
255
 10
     1102.940586
 20
     1001.804749
 30
       18.821269
  0
POINT
  8
Default
 62
255
 10
     1102.980813
 20
     1001.823408
 30
       18.831643
  0
POINT
  8
Default
 62
255
 10
     1103.025234
 20
     1001.845351
 30
       18.831360
  0
POINT
  8
Default
 62
255
 10
     1103.053637
 20
     1001.877560
 30
       18.823235
  0
POINT
  8
Default
 62
255
 10
     1103.076558
 20
     1001.914555
 30
       18.823020
  0
POINT
  8
Default
 62
255
 10
     1103.114429
 20
     1001.951414
 30
       18.824706
  0
POINT
  8
Default
 62
255
 10
     1103.147330
 20
     1001.987765
 30
       18.827221
  0
POINT
  8
Default
 62
255
 10
     1103.169548
 20
     1002.022164
 30
       18.807399
  0
POINT
  8
Default
 62
255
 10
     1103.190170
 20
     1002.057792
 30
       18.791719
  0
POINT
  8
Default
 62
255
 10
     1103.216586
 20
     1002.100664
 30
       18.789266
  0
POINT
  8
Default
 62
255
 10
     1103.239124
 20
     1002.135535
 30
       18.777614
  0
POINT
  8
Default
 62
255
 10
     1103.275715
 20
     1002.159001
 30
       18.766357
  0
POINT
  8
Default
 62
255
 10
     1103.311815
 20
     1002.147318
 30
       18.777842
  0
POINT
  8
Default
 62
255
 10
     1103.335857
 20
     1002.110570
 30
       18.779306
  0
POINT
  8
Default
 62
255
 10
     1103.370670
 20
     1002.080950
 30
       18.777066
  0
POINT
  8
Default
 62
255
 10
     1103.406673
 20
     1002.053484
 30
       18.787556
  0
POINT
  8
Default
 62
255
 10
     1103.400848
 20
     1002.013946
 30
       18.793159
  0
POINT
  8
Default
 62
255
 10
     1103.366177
 20
     1001.988689
 30
       18.784251
  0
POINT
  8
Default
 62
255
 10
     1103.326559
 20
     1001.963965
 30
       18.781764
  0
POINT
  8
Default
 62
255
 10
     1103.291798
 20
     1001.935713
 30
       18.781722
  0
POINT
  8
Default
 62
255
 10
     1103.253964
 20
     1001.877332
 30
       18.827765
  0
POINT
  8
Default
 62
255
 10
     1103.247793
 20
     1001.829879
 30
       18.838882
  0
POINT
  8
Default
 62
255
 10
     1103.227387
 20
     1001.791741
 30
       18.828320
  0
POINT
  8
Default
 62
255
 10
     1103.198940
 20
     1001.749512
 30
       18.823229
  0
POINT
  8
Default
 62
255
 10
     1103.168835
 20
     1001.717525
 30
       18.812875
  0
POINT
  8
Default
 62
255
 10
     1103.131014
 20
     1001.688914
 30
       18.807072
  0
POINT
  8
Default
 62
255
 10
     1103.113976
 20
     1001.646849
 30
       18.808359
  0
POINT
  8
Default
 62
255
 10
     1103.075336
 20
     1001.622403
 30
       18.798032
  0
POINT
  8
Default
 62
255
 10
     1103.028882
 20
     1001.613658
 30
       18.788124
  0
POINT
  8
Default
 62
255
 10
     1103.006412
 20
     1001.567875
 30
       18.788243
  0
POINT
  8
Default
 62
255
 10
     1102.982534
 20
     1001.537129
 30
       18.766230
  0
POINT
  8
Default
 62
255
 10
     1102.970708
 20
     1001.519674
 30
       18.724332
  0
POINT
  8
Default
 62
255
 10
     1102.963140
 20
     1001.488810
 30
       18.695628
  0
POINT
  8
Default
 62
255
 10
     1102.928671
 20
     1001.454593
 30
       18.703264
  0
POINT
  8
Default
 62
255
 10
     1102.892876
 20
     1001.432620
 30
       18.698987
  0
POINT
  8
Default
 62
255
 10
     1102.896248
 20
     1001.390848
 30
       18.692651
  0
POINT
  8
Default
 62
255
 10
     1102.937253
 20
     1001.379349
 30
       18.680350
  0
POINT
  8
Default
 62
255
 10
     1102.985530
 20
     1001.383079
 30
       18.676428
  0
POINT
  8
Default
 62
255
 10
     1103.026774
 20
     1001.397203
 30
       18.671571
  0
POINT
  8
Default
 62
255
 10
     1103.056519
 20
     1001.423724
 30
       18.674498
  0
POINT
  8
Default
 62
255
 10
     1103.087653
 20
     1001.434375
 30
       18.714275
  0
POINT
  8
Default
 62
255
 10
     1103.145590
 20
     1001.467557
 30
       18.761768
  0
POINT
  8
Default
 62
255
 10
     1103.177387
 20
     1001.485222
 30
       18.786662
  0
POINT
  8
Default
 62
255
 10
     1103.207932
 20
     1001.526559
 30
       18.804357
  0
POINT
  8
Default
 62
255
 10
     1103.240814
 20
     1001.557612
 30
       18.813595
  0
POINT
  8
Default
 62
255
 10
     1103.274460
 20
     1001.589810
 30
       18.828346
  0
POINT
  8
Default
 62
255
 10
     1103.309263
 20
     1001.597057
 30
       18.858588
  0
POINT
  8
Default
 62
255
 10
     1103.347323
 20
     1001.600455
 30
       18.868271
  0
POINT
  8
Default
 62
255
 10
     1103.358608
 20
     1001.638378
 30
       18.851027
  0
POINT
  8
Default
 62
255
 10
     1103.368736
 20
     1001.680403
 30
       18.862343
  0
POINT
  8
Default
 62
255
 10
     1103.401325
 20
     1001.704940
 30
       18.884938
  0
POINT
  8
Default
 62
255
 10
     1103.437279
 20
     1001.733211
 30
       18.889163
  0
POINT
  8
Default
 62
255
 10
     1103.478922
 20
     1001.752989
 30
       18.902741
  0
POINT
  8
Default
 62
255
 10
     1103.512452
 20
     1001.778023
 30
       18.909886
  0
POINT
  8
Default
 62
255
 10
     1103.545520
 20
     1001.812783
 30
       18.899661
  0
POINT
  8
Default
 62
255
 10
     1103.573976
 20
     1001.844671
 30
       18.890596
  0
POINT
  8
Default
 62
255
 10
     1102.944088
 20
     1001.904548
 30
       18.829093
  0
POINT
  8
Default
 62
255
 10
     1103.015806
 20
     1001.853831
 30
       18.831600
  0
POINT
  8
Default
 62
255
 10
     1103.095804
 20
     1001.808078
 30
       18.824112
  0
POINT
  8
Default
 62
255
 10
     1103.169535
 20
     1001.747885
 30
       18.820822
  0
POINT
  8
Default
 62
255
 10
     1103.244955
 20
     1001.685160
 30
       18.819509
  0
POINT
  8
Default
 62
255
 10
     1103.384882
 20
     1001.601613
 30
       18.882828
  0
POINT
  8
Default
 62
255
 10
     1103.458780
 20
     1001.555736
 30
       18.857348
  0
POINT
  8
Default
 62
255
 10
     1103.466649
 20
     1001.607062
 30
       18.862079
  0
POINT
  8
Default
 62
255
 10
     1103.414934
 20
     1001.691120
 30
       18.885146
  0
POINT
  8
Default
 62
255
 10
     1103.360360
 20
     1001.758241
 30
       18.858356
  0
POINT
  8
Default
 62
255
 10
     1103.326536
 20
     1001.830248
 30
       18.834934
  0
POINT
  8
Default
 62
255
 10
     1103.270226
 20
     1001.892795
 30
       18.801870
  0
POINT
  8
Default
 62
255
 10
     1103.217676
 20
     1001.978023
 30
       18.787002
  0
POINT
  8
Default
 62
255
 10
     1103.154881
 20
     1002.040437
 30
       18.807716
  0
POINT
  8
Default
 62
255
 10
     1103.075160
 20
     1002.070605
 30
       18.813466
  0
POINT
  8
Default
 62
255
 10
     1102.761546
 20
     1001.765676
 30
       18.791720
  0
POINT
  8
Default
 62
255
 10
     1102.696868
 20
     1001.915493
 30
       18.801435
  0
POINT
  8
Default
 62
255
 10
     1102.714823
 20
     1001.996659
 30
       18.814185
  0
POINT
  8
Default
 62
255
 10
     1102.860027
 20
     1001.941720
 30
       18.817039
  0
POINT
  8
Default
 62
255
 10
     1102.990048
 20
     1002.124145
 30
       18.807797
  0
POINT
  8
Default
 62
255
 10
     1102.946583
 20
     1002.196722
 30
       18.818267
  0
POINT
  8
Default
 62
255
 10
     1103.079804
 20
     1002.342661
 30
       18.848919
  0
POINT
  8
Default
 62
255
 10
     1103.090415
 20
     1002.324704
 30
       18.812315
  0
POINT
  8
Default
 62
255
 10
     1103.083033
 20
     1002.284120
 30
       18.813795
  0
POINT
  8
Default
 62
255
 10
     1103.052132
 20
     1002.252422
 30
       18.813557
  0
POINT
  8
Default
 62
255
 10
     1103.020552
 20
     1002.221363
 30
       18.831317
  0
POINT
  8
Default
 62
255
 10
     1102.986498
 20
     1002.194685
 30
       18.835424
  0
POINT
  8
Default
 62
255
 10
     1102.958251
 20
     1002.156771
 30
       18.813022
  0
POINT
  8
Default
 62
255
 10
     1102.934731
 20
     1002.119299
 30
       18.806455
  0
POINT
  8
Default
 62
255
 10
     1102.922063
 20
     1002.075788
 30
       18.814403
  0
POINT
  8
Default
 62
255
 10
     1102.910205
 20
     1002.034175
 30
       18.827216
  0
POINT
  8
Default
 62
255
 10
     1102.866048
 20
     1002.034661
 30
       18.812939
  0
POINT
  8
Default
 62
255
 10
     1102.826876
 20
     1002.022534
 30
       18.817965
  0
POINT
  8
Default
 62
255
 10
     1102.814525
 20
     1001.981014
 30
       18.823549
  0
POINT
  8
Default
 62
255
 10
     1102.781218
 20
     1001.943289
 30
       18.812154
  0
POINT
  8
Default
 62
255
 10
     1102.765299
 20
     1001.897223
 30
       18.810784
  0
POINT
  8
Default
 62
255
 10
     1102.752243
 20
     1001.854287
 30
       18.805206
  0
POINT
  8
Default
 62
255
 10
     1102.745313
 20
     1001.806034
 30
       18.798020
  0
POINT
  8
Default
 62
255
 10
     1102.740112
 20
     1001.757765
 30
       18.796843
  0
POINT
  8
Default
 62
255
 10
     1102.723013
 20
     1001.711880
 30
       18.790162
  0
POINT
  8
Default
 62
255
 10
     1102.706711
 20
     1001.664765
 30
       18.785912
  0
POINT
  8
Default
 62
255
 10
     1102.683251
 20
     1001.629787
 30
       18.772622
  0
POINT
  8
Default
 62
255
 10
     1102.615051
 20
     1000.397451
 30
       18.894753
  0
POINT
  8
Default
 62
255
 10
     1102.572572
 20
     1000.408598
 30
       18.884302
  0
POINT
  8
Default
 62
255
 10
     1102.500174
 20
     1000.454369
 30
       18.864929
  0
POINT
  8
Default
 62
255
 10
     1102.458349
 20
     1000.484355
 30
       18.868019
  0
POINT
  8
Default
 62
255
 10
     1102.418338
 20
     1000.513007
 30
       18.874979
  0
POINT
  8
Default
 62
255
 10
     1102.381387
 20
     1000.534062
 30
       18.863084
  0
POINT
  8
Default
 62
255
 10
     1102.344590
 20
     1000.559474
 30
       18.841313
  0
POINT
  8
Default
 62
255
 10
     1102.304031
 20
     1000.586414
 30
       18.825413
  0
POINT
  8
Default
 62
255
 10
     1102.272575
 20
     1000.612366
 30
       18.830289
  0
POINT
  8
Default
 62
255
 10
     1102.226347
 20
     1000.637271
 30
       18.825791
  0
POINT
  8
Default
 62
255
 10
     1102.196083
 20
     1000.652486
 30
       18.799014
  0
POINT
  8
Default
 62
255
 10
     1102.168837
 20
     1000.681586
 30
       18.778838
  0
POINT
  8
Default
 62
255
 10
     1102.129527
 20
     1000.713350
 30
       18.766493
  0
POINT
  8
Default
 62
255
 10
     1102.075451
 20
     1000.747317
 30
       18.780098
  0
POINT
  8
Default
 62
255
 10
     1102.038396
 20
     1000.773837
 30
       18.795620
  0
POINT
  8
Default
 62
255
 10
     1101.994501
 20
     1000.799449
 30
       18.805834
  0
POINT
  8
Default
 62
255
 10
     1101.947124
 20
     1000.808014
 30
       18.820702
  0
POINT
  8
Default
 62
255
 10
     1101.910977
 20
     1000.819914
 30
       18.846800
  0
POINT
  8
Default
 62
255
 10
     1101.863297
 20
     1000.599329
 30
       18.833077
  0
POINT
  8
Default
 62
255
 10
     1101.888384
 20
     1000.561721
 30
       18.823036
  0
POINT
  8
Default
 62
255
 10
     1101.909651
 20
     1000.522341
 30
       18.820828
  0
POINT
  8
Default
 62
255
 10
     1101.940599
 20
     1000.484849
 30
       18.822000
  0
POINT
  8
Default
 62
255
 10
     1101.964080
 20
     1000.443029
 30
       18.821741
  0
POINT
  8
Default
 62
255
 10
     1101.990621
 20
     1000.405289
 30
       18.825617
  0
POINT
  8
Default
 62
255
 10
     1102.019790
 20
     1000.361088
 30
       18.823207
  0
POINT
  8
Default
 62
255
 10
     1102.047606
 20
     1000.324277
 30
       18.832543
  0
POINT
  8
Default
 62
255
 10
     1102.079442
 20
     1000.303174
 30
       18.851790
  0
POINT
  8
Default
 62
255
 10
     1102.124512
 20
     1000.282359
 30
       18.862129
  0
POINT
  8
Default
 62
255
 10
     1102.166626
 20
     1000.268800
 30
       18.862744
  0
POINT
  8
Default
 62
255
 10
     1102.208678
 20
     1000.253967
 30
       18.878070
  0
POINT
  8
Default
 62
255
 10
     1102.253259
 20
     1000.237954
 30
       18.897286
  0
POINT
  8
Default
 62
255
 10
     1102.294503
 20
     1000.223130
 30
       18.917190
  0
POINT
  8
Default
 62
255
 10
     1102.336390
 20
     1000.207725
 30
       18.938286
  0
POINT
  8
Default
 62
255
 10
     1102.373754
 20
     1000.185957
 30
       18.954612
  0
POINT
  8
Default
 62
255
 10
     1102.411565
 20
     1000.158441
 30
       18.959419
  0
POINT
  8
Default
 62
255
 10
     1102.339196
 20
     1000.808540
 30
       18.720678
  0
POINT
  8
Default
 62
255
 10
     1102.305996
 20
     1000.776839
 30
       18.731986
  0
POINT
  8
Default
 62
255
 10
     1102.283274
 20
     1000.737326
 30
       18.741976
  0
POINT
  8
Default
 62
255
 10
     1102.258109
 20
     1000.708320
 30
       18.764058
  0
POINT
  8
Default
 62
255
 10
     1102.232422
 20
     1000.680823
 30
       18.790304
  0
POINT
  8
Default
 62
255
 10
     1102.185867
 20
     1000.603514
 30
       18.824115
  0
POINT
  8
Default
 62
255
 10
     1102.158538
 20
     1000.561410
 30
       18.842547
  0
POINT
  8
Default
 62
255
 10
     1102.141686
 20
     1000.518535
 30
       18.844496
  0
POINT
  8
Default
 62
255
 10
     1102.123629
 20
     1000.467798
 30
       18.848951
  0
POINT
  8
Default
 62
255
 10
     1102.106505
 20
     1000.421414
 30
       18.849552
  0
POINT
  8
Default
 62
255
 10
     1102.090469
 20
     1000.378799
 30
       18.852207
  0
POINT
  8
Default
 62
255
 10
     1102.076156
 20
     1000.336199
 30
       18.849824
  0
POINT
  8
Default
 62
255
 10
     1102.040689
 20
     1000.266289
 30
       18.832813
  0
POINT
  8
Default
 62
255
 10
     1102.004217
 20
     1000.230124
 30
       18.812253
  0
POINT
  8
Default
 62
255
 10
     1101.967032
 20
     1000.208326
 30
       18.795280
  0
POINT
  8
Default
 62
255
 10
     1101.935127
 20
     1000.176732
 30
       18.780478
  0
POINT
  8
Default
 62
255
 10
     1101.901039
 20
     1000.146280
 30
       18.776807
  0
POINT
  8
Default
 62
255
 10
     1101.865171
 20
     1000.128900
 30
       18.788523
  0
POINT
  8
Default
 62
255
 10
     1101.828438
 20
     1000.110546
 30
       18.779466
  0
POINT
  8
Default
 62
255
 10
     1101.804689
 20
     1000.092960
 30
       18.806334
  0
POINT
  8
Default
 62
255
 10
     1101.725406
 20
      999.937892
 30
       19.520753
  0
POINT
  8
Default
 62
255
 10
     1101.712036
 20
      999.909600
 30
       19.554006
  0
POINT
  8
Default
 62
255
 10
     1101.699715
 20
      999.881413
 30
       19.589524
  0
POINT
  8
Default
 62
255
 10
     1101.693867
 20
      999.834996
 30
       19.611297
  0
POINT
  8
Default
 62
255
 10
     1101.695223
 20
      999.790516
 30
       19.624418
  0
POINT
  8
Default
 62
255
 10
     1101.723017
 20
      999.747975
 30
       19.622080
  0
POINT
  8
Default
 62
255
 10
     1101.792826
 20
      999.711052
 30
       19.596031
  0
POINT
  8
Default
 62
255
 10
     1101.834405
 20
      999.699871
 30
       19.576107
  0
POINT
  8
Default
 62
255
 10
     1101.878099
 20
      999.699495
 30
       19.578065
  0
POINT
  8
Default
 62
255
 10
     1101.915570
 20
      999.690309
 30
       19.606129
  0
POINT
  8
Default
 62
255
 10
     1101.942399
 20
      999.660494
 30
       19.635019
  0
POINT
  8
Default
 62
255
 10
     1101.972791
 20
      999.685647
 30
       19.631152
  0
POINT
  8
Default
 62
255
 10
     1101.989763
 20
      999.716140
 30
       19.601087
  0
POINT
  8
Default
 62
255
 10
     1102.003593
 20
      999.731947
 30
       19.559989
  0
POINT
  8
Default
 62
255
 10
     1102.012666
 20
      999.745866
 30
       19.518606
  0
POINT
  8
Default
 62
255
 10
     1102.078473
 20
      999.826829
 30
       18.971333
  0
POINT
  8
Default
 62
255
 10
     1102.110724
 20
      999.863918
 30
       18.967977
  0
POINT
  8
Default
 62
255
 10
     1102.136914
 20
      999.901687
 30
       18.967434
  0
POINT
  8
Default
 62
255
 10
     1102.173636
 20
      999.930533
 30
       18.976969
  0
POINT
  8
Default
 62
255
 10
     1102.207338
 20
      999.963503
 30
       18.987684
  0
POINT
  8
Default
 62
255
 10
     1102.230995
 20
      999.996862
 30
       18.991589
  0
POINT
  8
Default
 62
255
 10
     1102.264862
 20
     1000.034778
 30
       18.995771
  0
POINT
  8
Default
 62
255
 10
     1102.291912
 20
     1000.068956
 30
       18.984222
  0
POINT
  8
Default
 62
255
 10
     1102.323019
 20
     1000.108965
 30
       18.972279
  0
POINT
  8
Default
 62
255
 10
     1102.354373
 20
     1000.141897
 30
       18.962186
  0
POINT
  8
Default
 62
255
 10
     1102.366687
 20
     1000.232194
 30
       18.941296
  0
POINT
  8
Default
 62
255
 10
     1102.384870
 20
     1000.267020
 30
       18.914971
  0
POINT
  8
Default
 62
255
 10
     1102.416246
 20
     1000.304588
 30
       18.883734
  0
POINT
  8
Default
 62
255
 10
     1102.436644
 20
     1000.345820
 30
       18.869933
  0
POINT
  8
Default
 62
255
 10
     1102.457935
 20
     1000.386660
 30
       18.864030
  0
POINT
  8
Default
 62
255
 10
     1102.481580
 20
     1000.426754
 30
       18.863443
  0
POINT
  8
Default
 62
255
 10
     1102.529650
 20
     1000.509317
 30
       18.861324
  0
POINT
  8
Default
 62
255
 10
     1102.552092
 20
     1000.543863
 30
       18.832880
  0
POINT
  8
Default
 62
255
 10
     1102.578759
 20
     1000.575159
 30
       18.816494
  0
POINT
  8
Default
 62
255
 10
     1102.589892
 20
     1000.609502
 30
       18.833309
  0
POINT
  8
Default
 62
255
 10
     1102.604310
 20
     1000.640613
 30
       18.863970
  0
POINT
  8
Default
 62
255
 10
     1102.617988
 20
     1000.678529
 30
       18.887744
  0
POINT
  8
Default
 62
255
 10
     1102.638336
 20
     1000.714796
 30
       18.914274
  0
POINT
  8
Default
 62
255
 10
     1102.657165
 20
     1000.754162
 30
       18.931372
  0
POINT
  8
Default
 62
255
 10
     1102.674838
 20
     1000.793804
 30
       18.921587
  0
POINT
  8
Default
 62
255
 10
     1102.688812
 20
     1000.828804
 30
       18.893046
  0
POINT
  8
Default
 62
255
 10
     1102.708503
 20
     1000.856042
 30
       18.863048
  0
POINT
  8
Default
 62
255
 10
     1102.335020
 20
      999.539184
 30
       19.456570
  0
POINT
  8
Default
 62
255
 10
     1102.249282
 20
      999.639093
 30
       19.445116
  0
POINT
  8
Default
 62
255
 10
     1102.278094
 20
      999.708604
 30
       19.437986
  0
POINT
  8
Default
 62
255
 10
     1102.374320
 20
      999.676367
 30
       19.424337
  0
POINT
  8
Default
 62
255
 10
     1102.313865
 20
      999.731854
 30
       19.431654
  0
POINT
  8
Default
 62
255
 10
     1102.367013
 20
      999.848803
 30
       19.418122
  0
POINT
  8
Default
 62
255
 10
     1102.456471
 20
      999.732764
 30
       19.410531
  0
POINT
  8
Default
 62
255
 10
     1102.511432
 20
      999.803356
 30
       19.412964
  0
POINT
  8
Default
 62
255
 10
     1102.414207
 20
      999.790340
 30
       19.421640
  0
POINT
  8
Default
 62
255
 10
     1102.404644
 20
      999.891366
 30
       19.418669
  0
POINT
  8
Default
 62
255
 10
     1102.471313
 20
      999.920334
 30
       19.411978
  0
POINT
  8
Default
 62
255
 10
     1102.449448
 20
      999.856858
 30
       19.417170
  0
POINT
  8
Default
 62
255
 10
     1102.563266
 20
      999.872580
 30
       19.395870
  0
POINT
  8
Default
 62
255
 10
     1102.539826
 20
      999.938357
 30
       19.395226
  0
POINT
  8
Default
 62
255
 10
     1101.552279
 20
     1000.796977
 30
       19.388955
  0
POINT
  8
Default
 62
255
 10
     1101.598246
 20
     1000.694906
 30
       19.390889
  0
POINT
  8
Default
 62
255
 10
     1101.615618
 20
     1000.884677
 30
       19.360025
  0
POINT
  8
Default
 62
255
 10
     1101.678993
 20
     1000.772911
 30
       19.384061
  0
POINT
  8
Default
 62
255
 10
     1101.715671
 20
     1000.883190
 30
       19.355485
  0
POINT
  8
Default
 62
255
 10
     1101.667592
 20
     1000.979908
 30
       19.359349
  0
POINT
  8
Default
 62
255
 10
     1101.741690
 20
     1000.947204
 30
       19.351726
  0
POINT
  8
Default
 62
255
 10
     1101.814894
 20
     1000.967085
 30
       19.352947
  0
POINT
  8
Default
 62
255
 10
     1101.679203
 20
     1000.694684
 30
       19.338227
  0
POINT
  8
Default
 62
255
 10
     1101.726265
 20
     1000.770203
 30
       19.351361
  0
POINT
  8
Default
 62
255
 10
     1101.781248
 20
     1000.812726
 30
       19.333627
  0
POINT
  8
Default
 62
255
 10
     1101.791747
 20
     1000.916008
 30
       19.326323
  0
POINT
  8
Default
 62
255
 10
     1101.767218
 20
     1001.093031
 30
       19.344854
  0
POINT
  8
Default
 62
255
 10
     1101.845721
 20
     1001.120233
 30
       19.348327
  0
POINT
  8
Default
 62
255
 10
     1101.888958
 20
     1001.133533
 30
       19.348614
  0
POINT
  8
Default
 62
255
 10
     1101.874973
 20
     1001.044692
 30
       19.353570
  0
POINT
  8
Default
 62
255
 10
     1101.934064
 20
     1001.095385
 30
       19.343245
  0
POINT
  8
Default
 62
255
 10
     1102.014296
 20
     1001.189662
 30
       19.338501
  0
POINT
  8
Default
 62
255
 10
     1102.015590
 20
     1001.252069
 30
       19.336402
  0
POINT
  8
Default
 62
255
 10
     1101.970001
 20
     1001.315014
 30
       19.341287
  0
POINT
  8
Default
 62
255
 10
     1102.070546
 20
     1001.298603
 30
       19.333277
  0
POINT
  8
Default
 62
255
 10
     1101.998902
 20
     1001.372884
 30
       19.338539
  0
POINT
  8
Default
 62
255
 10
     1102.137493
 20
     1001.378419
 30
       19.337096
  0
POINT
  8
Default
 62
255
 10
     1102.120326
 20
     1001.497277
 30
       19.338383
  0
POINT
  8
Default
 62
255
 10
     1102.104615
 20
     1001.418873
 30
       19.338847
  0
POINT
  8
Default
 62
255
 10
     1102.243984
 20
     1001.565468
 30
       19.340629
  0
POINT
  8
Default
 62
255
 10
     1102.238192
 20
     1001.632627
 30
       19.340030
  0
POINT
  8
Default
 62
255
 10
     1102.166504
 20
     1001.593261
 30
       19.336531
  0
POINT
  8
Default
 62
255
 10
     1102.256231
 20
     1001.687669
 30
       19.335536
  0
POINT
  8
Default
 62
255
 10
     1102.314055
 20
     1001.656005
 30
       19.334387
  0
POINT
  8
Default
 62
255
 10
     1102.312092
 20
     1001.576257
 30
       19.326407
  0
POINT
  8
Default
 62
255
 10
     1102.281284
 20
     1001.798360
 30
       19.329847
  0
POINT
  8
Default
 62
255
 10
     1102.297801
 20
     1001.833755
 30
       19.366558
  0
POINT
  8
Default
 62
255
 10
     1102.472960
 20
     1001.731052
 30
       19.350960
  0
POINT
  8
Default
 62
255
 10
     1102.417153
 20
     1001.819091
 30
       19.365121
  0
POINT
  8
Default
 62
255
 10
     1102.524517
 20
     1001.822343
 30
       19.358754
  0
POINT
  8
Default
 62
255
 10
     1102.374333
 20
     1001.966921
 30
       19.377408
  0
POINT
  8
Default
 62
255
 10
     1102.423320
 20
     1001.916479
 30
       19.374685
  0
POINT
  8
Default
 62
255
 10
     1102.500510
 20
     1001.905974
 30
       19.369092
  0
POINT
  8
Default
 62
255
 10
     1102.586777
 20
     1001.949620
 30
       19.372118
  0
POINT
  8
Default
 62
255
 10
     1102.661363
 20
     1002.060652
 30
       19.379160
  0
POINT
  8
Default
 62
255
 10
     1102.591273
 20
     1002.022874
 30
       19.379672
  0
POINT
  8
Default
 62
255
 10
     1102.437967
 20
     1002.065279
 30
       19.384903
  0
POINT
  8
Default
 62
255
 10
     1102.562950
 20
     1002.172527
 30
       19.398601
  0
POINT
  8
Default
 62
255
 10
     1102.504132
 20
     1002.081565
 30
       19.390047
  0
POINT
  8
Default
 62
255
 10
     1102.820418
 20
     1002.324393
 30
       19.395442
  0
POINT
  8
Default
 62
255
 10
     1102.657429
 20
     1002.420688
 30
       19.408354
  0
POINT
  8
Default
 62
255
 10
     1102.675688
 20
     1002.283718
 30
       19.397509
  0
POINT
  8
Default
 62
255
 10
     1102.747646
 20
     1002.365931
 30
       19.406209
  0
POINT
  8
Default
 62
255
 10
     1102.750988
 20
     1002.204331
 30
       19.386677
  0
POINT
  8
Default
 62
255
 10
     1102.678865
 20
     1002.500998
 30
       19.376278
  0
POINT
  8
Default
 62
255
 10
     1102.786409
 20
     1002.503554
 30
       19.369641
  0
POINT
  8
Default
 62
255
 10
     1102.737925
 20
     1002.547093
 30
       19.372073
  0
POINT
  8
Default
 62
255
 10
     1102.834100
 20
     1002.381809
 30
       19.357064
  0
POINT
  8
Default
 62
255
 10
     1102.860056
 20
     1002.433877
 30
       19.368027
  0
POINT
  8
Default
 62
255
 10
     1102.892404
 20
     1002.491247
 30
       19.359731
  0
POINT
  8
Default
 62
255
 10
     1102.859203
 20
     1002.577653
 30
       19.368642
  0
POINT
  8
Default
 62
255
 10
     1102.802818
 20
     1002.563634
 30
       19.367482
  0
POINT
  8
Default
 62
255
 10
     1102.802940
 20
     1002.644105
 30
       19.361664
  0
POINT
  8
Default
 62
255
 10
     1102.862206
 20
     1002.681664
 30
       19.352709
  0
POINT
  8
Default
 62
255
 10
     1102.925535
 20
     1002.648040
 30
       19.331454
  0
POINT
  8
Default
 62
255
 10
     1102.959420
 20
     1002.550156
 30
       19.355869
  0
POINT
  8
Default
 62
255
 10
     1103.023989
 20
     1002.605907
 30
       19.328525
  0
POINT
  8
Default
 62
255
 10
     1103.184255
 20
     1002.452796
 30
       19.274270
  0
POINT
  8
Default
 62
255
 10
     1103.139049
 20
     1002.514568
 30
       19.290383
  0
POINT
  8
Default
 62
255
 10
     1103.254246
 20
     1002.574795
 30
       19.271820
  0
POINT
  8
Default
 62
255
 10
     1103.177821
 20
     1002.604281
 30
       19.287252
  0
POINT
  8
Default
 62
255
 10
     1103.111937
 20
     1002.640133
 30
       19.305036
  0
POINT
  8
Default
 62
255
 10
     1103.082247
 20
     1002.544928
 30
       19.298614
  0
POINT
  8
Default
 62
255
 10
     1103.253261
 20
     1002.440485
 30
       19.267174
  0
POINT
  8
Default
 62
255
 10
     1103.298741
 20
     1002.361187
 30
       19.258518
  0
POINT
  8
Default
 62
255
 10
     1103.351269
 20
     1002.453169
 30
       19.254225
  0
POINT
  8
Default
 62
255
 10
     1103.377004
 20
     1002.326693
 30
       19.240182
  0
POINT
  8
Default
 62
255
 10
     1103.424887
 20
     1002.401427
 30
       19.242984
  0
POINT
  8
Default
 62
255
 10
     1103.485969
 20
     1002.196860
 30
       19.231932
  0
POINT
  8
Default
 62
255
 10
     1103.546828
 20
     1002.177816
 30
       19.226814
  0
POINT
  8
Default
 62
255
 10
     1103.435851
 20
     1002.254462
 30
       19.233951
  0
POINT
  8
Default
 62
255
 10
     1103.608508
 20
     1002.242825
 30
       19.232220
  0
POINT
  8
Default
 62
255
 10
     1103.528246
 20
     1002.383929
 30
       19.245513
  0
POINT
  8
Default
 62
255
 10
     1103.603767
 20
     1002.130390
 30
       19.229712
  0
POINT
  8
Default
 62
255
 10
     1103.673108
 20
     1002.083844
 30
       19.242573
  0
POINT
  8
Default
 62
255
 10
     1103.732204
 20
     1002.140987
 30
       19.247108
  0
POINT
  8
Default
 62
255
 10
     1103.804774
 20
     1002.046896
 30
       19.260218
  0
POINT
  8
Default
 62
255
 10
     1103.735984
 20
     1001.995963
 30
       19.254664
  0
POINT
  8
Default
 62
255
 10
     1103.704325
 20
     1002.040421
 30
       19.240441
  0
POINT
  8
Default
 62
255
 10
     1103.869101
 20
     1001.843016
 30
       19.328942
  0
POINT
  8
Default
 62
255
 10
     1103.911269
 20
     1001.924900
 30
       19.292036
  0
POINT
  8
Default
 62
255
 10
     1103.781585
 20
     1001.847702
 30
       19.351159
  0
POINT
  8
Default
 62
255
 10
     1103.804534
 20
     1001.913820
 30
       19.315167
  0
POINT
  8
Default
 62
255
 10
     1103.863185
 20
     1001.980930
 30
       19.280337
  0
POINT
  8
Default
 62
255
 10
     1103.748932
 20
     1001.772452
 30
       19.386418
  0
POINT
  8
Default
 62
255
 10
     1103.746360
 20
     1001.815083
 30
       19.395951
  0
POINT
  8
Default
 62
255
 10
     1103.675691
 20
     1001.809558
 30
       19.373945
  0
POINT
  8
Default
 62
255
 10
     1103.649017
 20
     1001.808736
 30
       19.365738
  0
POINT
  8
Default
 62
255
 10
     1103.725195
 20
     1001.723805
 30
       19.377191
  0
POINT
  8
Default
 62
255
 10
     1103.685275
 20
     1001.745879
 30
       19.370595
  0
POINT
  8
Default
 62
255
 10
     1103.651346
 20
     1001.780230
 30
       19.364440
  0
POINT
  8
Default
 62
255
 10
     1103.701366
 20
     1001.792736
 30
       19.388607
  0
POINT
  8
Default
 62
255
 10
     1103.710684
 20
     1001.821326
 30
       19.385639
  0
POINT
  8
Default
 62
255
 10
     1103.689652
 20
     1001.840435
 30
       19.371900
  0
POINT
  8
Default
 62
255
 10
     1103.758466
 20
     1001.752249
 30
       19.386857
  0
POINT
  8
Default
 62
255
 10
     1103.777781
 20
     1001.796626
 30
       19.389308
  0
POINT
  8
Default
 62
255
 10
     1103.859549
 20
     1001.751546
 30
       19.335880
  0
POINT
  8
Default
 62
255
 10
     1103.908614
 20
     1001.808338
 30
       19.324220
  0
POINT
  8
Default
 62
255
 10
     1103.638328
 20
     1001.693053
 30
       19.340675
  0
POINT
  8
Default
 62
255
 10
     1103.803349
 20
     1001.678899
 30
       19.348657
  0
POINT
  8
Default
 62
255
 10
     1103.829262
 20
     1001.632830
 30
       19.348488
  0
POINT
  8
Default
 62
255
 10
     1103.699292
 20
     1001.517643
 30
       19.333603
  0
POINT
  8
Default
 62
255
 10
     1103.736684
 20
     1001.623326
 30
       19.340451
  0
POINT
  8
Default
 62
255
 10
     1103.652184
 20
     1001.611963
 30
       19.337251
  0
POINT
  8
Default
 62
255
 10
     1103.658981
 20
     1001.409034
 30
       19.325906
  0
POINT
  8
Default
 62
255
 10
     1103.563992
 20
     1001.295274
 30
       19.316720
  0
POINT
  8
Default
 62
255
 10
     1103.493605
 20
     1001.412896
 30
       19.332722
  0
POINT
  8
Default
 62
255
 10
     1103.562694
 20
     1001.380198
 30
       19.320814
  0
POINT
  8
Default
 62
255
 10
     1103.425258
 20
     1001.327989
 30
       19.316199
  0
POINT
  8
Default
 62
255
 10
     1103.472645
 20
     1001.192172
 30
       19.309153
  0
POINT
  8
Default
 62
255
 10
     1103.445181
 20
     1001.111812
 30
       19.320059
  0
POINT
  8
Default
 62
255
 10
     1103.344807
 20
     1001.167880
 30
       19.324577
  0
POINT
  8
Default
 62
255
 10
     1103.418696
 20
     1000.992072
 30
       19.307218
  0
POINT
  8
Default
 62
255
 10
     1103.337409
 20
     1001.013662
 30
       19.307935
  0
POINT
  8
Default
 62
255
 10
     1103.284252
 20
     1001.155937
 30
       19.318523
  0
POINT
  8
Default
 62
255
 10
     1103.267409
 20
     1001.018995
 30
       19.312509
  0
POINT
  8
Default
 62
255
 10
     1103.212847
 20
     1001.069049
 30
       19.317837
  0
POINT
  8
Default
 62
255
 10
     1103.209000
 20
     1000.887810
 30
       19.312008
  0
POINT
  8
Default
 62
255
 10
     1103.288393
 20
     1000.870295
 30
       19.318578
  0
POINT
  8
Default
 62
255
 10
     1103.090631
 20
     1000.851202
 30
       19.320815
  0
POINT
  8
Default
 62
255
 10
     1103.355280
 20
     1000.858710
 30
       19.312772
  0
POINT
  8
Default
 62
255
 10
     1103.240052
 20
     1000.697391
 30
       19.312988
  0
POINT
  8
Default
 62
255
 10
     1103.170102
 20
     1000.804292
 30
       19.307283
  0
POINT
  8
Default
 62
255
 10
     1103.071147
 20
     1000.647001
 30
       19.309025
  0
POINT
  8
Default
 62
255
 10
     1103.135688
 20
     1000.522477
 30
       19.311583
  0
POINT
  8
Default
 62
255
 10
     1102.926505
 20
     1000.620627
 30
       19.337511
  0
POINT
  8
Default
 62
255
 10
     1102.787568
 20
     1000.411311
 30
       19.357832
  0
POINT
  8
Default
 62
255
 10
     1102.890954
 20
     1000.469896
 30
       19.358580
  0
POINT
  8
Default
 62
255
 10
     1103.074521
 20
     1000.509867
 30
       19.352365
  0
POINT
  8
Default
 62
255
 10
     1102.925256
 20
     1000.375777
 30
       19.369839
  0
POINT
  8
Default
 62
255
 10
     1102.973171
 20
     1000.372603
 30
       19.397583
  0
POINT
  8
Default
 62
255
 10
     1102.672214
 20
     1000.230480
 30
       19.386891
  0
POINT
  8
Default
 62
255
 10
     1102.761224
 20
     1000.193430
 30
       19.395458
  0
POINT
  8
Default
 62
255
 10
     1102.846503
 20
     1000.164921
 30
       19.386360
  0
POINT
  8
Default
 62
255
 10
     1102.762021
 20
     1000.031946
 30
       19.414040
  0
POINT
  8
Default
 62
255
 10
     1102.582125
 20
     1000.097121
 30
       19.403836
  0
POINT
  8
Default
 62
255
 10
     1102.672965
 20
     1000.050644
 30
       19.414384
  0
POINT
  8
Default
 62
255
 10
     1102.718813
 20
      999.918540
 30
       19.412048
  0
POINT
  8
Default
 62
255
 10
     1102.663059
 20
      999.956088
 30
       19.424741
  0
POINT
  8
Default
 62
255
 10
     1102.545259
 20
     1000.034920
 30
       19.411560
  0
POINT
  8
Default
 62
255
 10
     1102.391336
 20
     1000.847596
 30
       18.970039
  0
POINT
  8
Default
 62
255
 10
     1102.434780
 20
     1000.868914
 30
       18.974851
  0
POINT
  8
Default
 62
255
 10
     1102.469237
 20
     1000.927325
 30
       18.960366
  0
POINT
  8
Default
 62
255
 10
     1102.406269
 20
     1000.938980
 30
       18.974714
  0
POINT
  8
Default
 62
255
 10
     1102.328696
 20
     1000.886922
 30
       18.973240
  0
POINT
  8
Default
 62
255
 10
     1102.346284
 20
     1000.949144
 30
       18.975873
  0
POINT
  8
Default
 62
255
 10
     1102.296915
 20
     1001.003979
 30
       18.973790
  0
POINT
  8
Default
 62
255
 10
     1102.209744
 20
     1000.930062
 30
       18.970536
  0
POINT
  8
Default
 62
255
 10
     1102.142014
 20
     1000.974416
 30
       18.959637
  0
POINT
  8
Default
 62
255
 10
     1102.208331
 20
     1001.009009
 30
       18.967963
  0
POINT
  8
Default
 62
255
 10
     1102.152010
 20
     1001.038436
 30
       18.967081
  0
POINT
  8
Default
 62
255
 10
     1102.254689
 20
     1000.948751
 30
       18.968730
  0
POINT
  8
Default
 62
255
 10
     1102.478165
 20
     1000.900430
 30
       18.966856
  0
POINT
  8
Default
 62
255
 10
     1102.600352
 20
     1000.815455
 30
       18.951028
  0
POINT
  8
Default
 62
255
 10
     1102.563070
 20
     1000.800398
 30
       18.962336
  0
POINT
  8
Default
 62
255
 10
     1102.586669
 20
     1000.883369
 30
       18.954555
  0
POINT
  8
Default
 62
255
 10
     1102.622625
 20
     1000.906364
 30
       18.940730
  0
POINT
  8
Default
 62
255
 10
     1102.669283
 20
     1000.892131
 30
       18.916984
  0
POINT
  8
Default
 62
255
 10
     1102.489347
 20
     1000.767444
 30
       18.974471
  0
POINT
  8
Default
 62
255
 10
     1102.428423
 20
     1000.833814
 30
       18.973434
  0
POINT
  8
Default
 62
255
 10
     1102.485405
 20
     1000.849129
 30
       18.976331
  0
POINT
  8
Default
 62
255
 10
     1102.529950
 20
     1000.849734
 30
       18.979534
  0
POINT
  8
Default
 62
255
 10
     1102.515744
 20
     1000.800381
 30
       18.976961
  0
POINT
  8
Default
 62
255
 10
     1102.570857
 20
     1000.924991
 30
       18.952817
  0
POINT
  8
Default
 62
255
 10
     1102.659176
 20
     1000.669538
 30
       18.898193
  0
POINT
  8
Default
 62
255
 10
     1102.703992
 20
     1000.730391
 30
       18.925019
  0
POINT
  8
Default
 62
255
 10
     1102.627852
 20
     1000.770797
 30
       18.904611
  0
POINT
  8
Default
 62
255
 10
     1102.514519
 20
     1000.714329
 30
       18.867104
  0
POINT
  8
Default
 62
255
 10
     1102.557700
 20
     1000.642643
 30
       18.836930
  0
POINT
  8
Default
 62
255
 10
     1102.711375
 20
     1000.619686
 30
       18.895273
  0
POINT
  8
Default
 62
255
 10
     1102.648306
 20
     1000.598225
 30
       18.872018
  0
POINT
  8
Default
 62
255
 10
     1102.594902
 20
     1000.682036
 30
       18.861330
  0
POINT
  8
Default
 62
255
 10
     1102.742278
 20
     1000.682244
 30
       18.905010
  0
POINT
  8
Default
 62
255
 10
     1102.744563
 20
     1000.742538
 30
       18.915305
  0
POINT
  8
Default
 62
255
 10
     1102.761161
 20
     1000.800406
 30
       18.904590
  0
POINT
  8
Default
 62
255
 10
     1102.777362
 20
     1000.694389
 30
       18.914772
  0
POINT
  8
Default
 62
255
 10
     1102.131719
 20
     1001.110646
 30
       18.971692
  0
POINT
  8
Default
 62
255
 10
     1102.095505
 20
     1001.072129
 30
       18.974855
  0
POINT
  8
Default
 62
255
 10
     1102.087004
 20
     1001.034787
 30
       18.946121
  0
POINT
  8
Default
 62
255
 10
     1102.026460
 20
     1000.966641
 30
       18.976767
  0
POINT
  8
Default
 62
255
 10
     1102.036387
 20
     1001.028709
 30
       18.975308
  0
POINT
  8
Default
 62
255
 10
     1102.055348
 20
     1000.957910
 30
       18.939047
  0
POINT
  8
Default
 62
255
 10
     1102.006870
 20
     1000.930341
 30
       18.951138
  0
POINT
  8
Default
 62
255
 10
     1101.944469
 20
     1000.917271
 30
       18.932704
  0
POINT
  8
Default
 62
255
 10
     1101.975470
 20
     1000.930099
 30
       18.837923
  0
POINT
  8
Default
 62
255
 10
     1102.666015
 20
     1000.477340
 30
       18.837299
  0
POINT
  8
Default
 62
255
 10
     1102.623352
 20
     1000.556793
 30
       18.817672
  0
POINT
  8
Default
 62
255
 10
     1102.583773
 20
     1000.490430
 30
       18.838923
  0
POINT
  8
Default
 62
255
 10
     1102.546272
 20
     1000.608346
 30
       18.818898
  0
POINT
  8
Default
 62
255
 10
     1102.491159
 20
     1000.551690
 30
       18.840328
  0
POINT
  8
Default
 62
255
 10
     1102.457619
 20
     1000.597769
 30
       18.836656
  0
POINT
  8
Default
 62
255
 10
     1102.410917
 20
     1000.632222
 30
       18.829540
  0
POINT
  8
Default
 62
255
 10
     1102.345915
 20
     1000.651837
 30
       18.823238
  0
POINT
  8
Default
 62
255
 10
     1102.289414
 20
     1000.694725
 30
       18.811212
  0
POINT
  8
Default
 62
255
 10
     1102.293294
 20
     1000.650776
 30
       18.820393
  0
POINT
  8
Default
 62
255
 10
     1102.442955
 20
     1000.734303
 30
       18.745831
  0
POINT
  8
Default
 62
255
 10
     1102.316819
 20
     1000.749903
 30
       18.726688
  0
POINT
  8
Default
 62
255
 10
     1102.202084
 20
     1000.733948
 30
       18.760371
  0
POINT
  8
Default
 62
255
 10
     1102.113271
 20
     1000.797401
 30
       18.756312
  0
POINT
  8
Default
 62
255
 10
     1101.954212
 20
     1000.869184
 30
       18.796188
  0
POINT
  8
Default
 62
255
 10
     1102.123561
 20
     1000.955946
 30
       18.732211
  0
POINT
  8
Default
 62
255
 10
     1102.248391
 20
     1000.917676
 30
       18.708049
  0
POINT
  8
Default
 62
255
 10
     1102.063722
 20
     1000.877917
 30
       18.771170
  0
POINT
  8
Default
 62
255
 10
     1102.185637
 20
     1000.873244
 30
       18.723419
  0
POINT
  8
Default
 62
255
 10
     1102.262310
 20
     1000.811087
 30
       18.719940
  0
POINT
  8
Default
 62
255
 10
     1102.549893
 20
     1000.350489
 30
       18.900950
  0
POINT
  8
Default
 62
255
 10
     1102.483657
 20
     1000.238493
 30
       18.916413
  0
POINT
  8
Default
 62
255
 10
     1102.326395
 20
     1000.331948
 30
       18.871515
  0
POINT
  8
Default
 62
255
 10
     1102.181578
 20
     1000.391859
 30
       18.848656
  0
POINT
  8
Default
 62
255
 10
     1102.229709
 20
     1000.563579
 30
       18.831887
  0
POINT
  8
Default
 62
255
 10
     1102.395824
 20
     1000.407321
 30
       18.851359
  0
POINT
  8
Default
 62
255
 10
     1102.047478
 20
     1000.524748
 30
       18.812005
  0
POINT
  8
Default
 62
255
 10
     1101.935915
 20
     1000.620607
 30
       18.820729
  0
POINT
  8
Default
 62
255
 10
     1102.036104
 20
     1000.679317
 30
       18.777331
  0
POINT
  8
Default
 62
255
 10
     1101.952854
 20
     1000.709221
 30
       18.803554
  0
POINT
  8
Default
 62
255
 10
     1101.789472
 20
     1000.262410
 30
       18.771751
  0
POINT
  8
Default
 62
255
 10
     1101.847890
 20
     1000.423052
 30
       18.795229
  0
POINT
  8
Default
 62
255
 10
     1101.813986
 20
     1000.163703
 30
       18.771655
  0
POINT
  8
Default
 62
255
 10
     1102.187947
 20
     1000.126173
 30
       18.919053
  0
POINT
  8
Default
 62
255
 10
     1102.055444
 20
     1000.180268
 30
       18.827184
  0
POINT
  8
Default
 62
255
 10
     1102.038843
 20
     1000.063588
 30
       18.881463
  0
POINT
  8
Default
 62
255
 10
     1101.907615
 20
      999.975158
 30
       18.898949
  0
POINT
  8
Default
 62
255
 10
     1101.955912
 20
     1000.061308
 30
       18.844704
  0
POINT
  8
Default
 62
255
 10
     1102.060334
 20
      999.908403
 30
       18.929346
  0
POINT
  8
Default
 62
255
 10
     1102.150990
 20
     1000.036644
 30
       18.940649
  0
POINT
  8
Default
 62
255
 10
     1102.337353
 20
     1000.030839
 30
       19.001748
  0
POINT
  8
Default
 62
255
 10
     1102.213188
 20
      999.834307
 30
       19.012387
  0
POINT
  8
Default
 62
255
 10
     1102.237017
 20
      999.784084
 30
       19.050397
  0
POINT
  8
Default
 62
255
 10
     1102.271544
 20
      999.842737
 30
       19.049573
  0
POINT
  8
Default
 62
255
 10
     1102.309039
 20
      999.899858
 30
       19.051545
  0
POINT
  8
Default
 62
255
 10
     1102.362203
 20
      999.996428
 30
       19.024659
  0
POINT
  8
Default
 62
255
 10
     1102.398269
 20
     1000.118924
 30
       18.968310
  0
POINT
  8
Default
 62
255
 10
     1102.252105
 20
      999.927912
 30
       19.013558
  0
POINT
  8
Default
 62
255
 10
     1102.148434
 20
      999.743673
 30
       19.027526
  0
POINT
  8
Default
 62
255
 10
     1102.112379
 20
      999.777008
 30
       18.996293
  0
POINT
  8
Default
 62
255
 10
     1101.982894
 20
      999.838585
 30
       18.957318
  0
POINT
  8
Default
 62
255
 10
     1101.925834
 20
      999.887979
 30
       18.930420
  0
POINT
  8
Default
 62
255
 10
     1101.840611
 20
      999.962348
 30
       18.871962
  0
POINT
  8
Default
 62
255
 10
     1103.570675
 20
     1001.919413
 30
       18.847873
  0
POINT
  8
Default
 62
255
 10
     1103.507233
 20
     1001.985777
 30
       18.818001
  0
POINT
  8
Default
 62
255
 10
     1103.465492
 20
     1002.019926
 30
       18.803002
  0
POINT
  8
Default
 62
255
 10
     1103.269798
 20
     1002.199910
 30
       18.783035
  0
POINT
  8
Default
 62
255
 10
     1103.140622
 20
     1002.115556
 30
       18.802772
  0
POINT
  8
Default
 62
255
 10
     1103.181315
 20
     1002.261968
 30
       18.795539
  0
POINT
  8
Default
 62
255
 10
     1103.125142
 20
     1002.303645
 30
       18.810573
  0
POINT
  8
Default
 62
255
 10
     1103.090281
 20
     1002.218286
 30
       18.801084
  0
POINT
  8
Default
 62
255
 10
     1103.202911
 20
     1002.213683
 30
       18.787999
  0
POINT
  8
Default
 62
255
 10
     1103.302607
 20
     1002.034093
 30
       18.769614
  0
POINT
  8
Default
 62
255
 10
     1103.254215
 20
     1002.036491
 30
       18.768250
  0
POINT
  8
Default
 62
255
 10
     1103.348538
 20
     1001.910691
 30
       18.816804
  0
POINT
  8
Default
 62
255
 10
     1103.447348
 20
     1001.810172
 30
       18.860642
  0
POINT
  8
Default
 62
255
 10
     1103.530479
 20
     1001.740450
 30
       18.900319
  0
POINT
  8
Default
 62
255
 10
     1103.499780
 20
     1001.667028
 30
       18.892600
  0
POINT
  8
Default
 62
255
 10
     1103.623624
 20
     1001.865830
 30
       18.887089
  0
POINT
  8
Default
 62
255
 10
     1103.588121
 20
     1001.796735
 30
       18.902789
  0
POINT
  8
Default
 62
255
 10
     1103.310938
 20
     1001.709475
 30
       18.848191
  0
POINT
  8
Default
 62
255
 10
     1103.251567
 20
     1001.752052
 30
       18.823434
  0
POINT
  8
Default
 62
255
 10
     1103.188392
 20
     1001.830035
 30
       18.838229
  0
POINT
  8
Default
 62
255
 10
     1103.148757
 20
     1001.901852
 30
       18.834670
  0
POINT
  8
Default
 62
255
 10
     1103.215543
 20
     1001.904053
 30
       18.838552
  0
POINT
  8
Default
 62
255
 10
     1103.171336
 20
     1001.979083
 30
       18.836661
  0
POINT
  8
Default
 62
255
 10
     1102.931940
 20
     1001.978173
 30
       18.812090
  0
POINT
  8
Default
 62
255
 10
     1103.036884
 20
     1001.980676
 30
       18.815006
  0
POINT
  8
Default
 62
255
 10
     1102.823969
 20
     1001.775618
 30
       18.765881
  0
POINT
  8
Default
 62
255
 10
     1102.931534
 20
     1001.857194
 30
       18.819071
  0
POINT
  8
Default
 62
255
 10
     1102.915131
 20
     1001.710037
 30
       18.785277
  0
POINT
  8
Default
 62
255
 10
     1102.943213
 20
     1001.683078
 30
       18.792640
  0
POINT
  8
Default
 62
255
 10
     1102.943344
 20
     1001.753283
 30
       18.821175
  0
POINT
  8
Default
 62
255
 10
     1103.020318
 20
     1001.665985
 30
       18.796028
  0
POINT
  8
Default
 62
255
 10
     1102.996464
 20
     1001.767884
 30
       18.827167
  0
POINT
  8
Default
 62
255
 10
     1103.115444
 20
     1001.520328
 30
       18.774959
  0
POINT
  8
Default
 62
255
 10
     1103.109652
 20
     1001.598971
 30
       18.798382
  0
POINT
  8
Default
 62
255
 10
     1103.249724
 20
     1001.619129
 30
       18.824797
  0
POINT
  8
Default
 62
255
 10
     1103.263615
 20
     1001.451865
 30
       18.803938
  0
POINT
  8
Default
 62
255
 10
     1103.355993
 20
     1001.506108
 30
       18.871069
  0
POINT
  8
Default
 62
255
 10
     1103.315427
 20
     1001.540053
 30
       18.861748
  0
POINT
  8
Default
 62
255
 10
     1103.405032
 20
     1001.512153
 30
       18.872921
  0
POINT
  8
Default
 62
255
 10
     1103.324252
 20
     1001.427847
 30
       18.843602
  0
POINT
  8
Default
 62
255
 10
     1103.365872
 20
     1001.430487
 30
       18.862877
  0
POINT
  8
Default
 62
255
 10
     1103.182131
 20
     1001.316025
 30
       18.713547
  0
POINT
  8
Default
 62
255
 10
     1103.149254
 20
     1001.330279
 30
       18.644510
  0
POINT
  8
Default
 62
255
 10
     1103.122623
 20
     1001.405855
 30
       18.707861
  0
POINT
  8
Default
 62
255
 10
     1103.263847
 20
     1001.350479
 30
       18.776362
  0
POINT
  8
Default
 62
255
 10
     1103.209501
 20
     1001.375483
 30
       18.774947
  0
POINT
  8
Default
 62
255
 10
     1103.248078
 20
     1001.310467
 30
       18.766039
  0
POINT
  8
Default
 62
255
 10
     1103.032566
 20
     1001.296799
 30
       18.704125
  0
POINT
  8
Default
 62
255
 10
     1103.056402
 20
     1001.350578
 30
       18.698312
  0
POINT
  8
Default
 62
255
 10
     1103.020993
 20
     1001.350636
 30
       18.660444
  0
POINT
  8
Default
 62
255
 10
     1102.916074
 20
     1001.338535
 30
       18.687535
  0
POINT
  8
Default
 62
255
 10
     1102.975455
 20
     1001.581200
 30
       18.787883
  0
POINT
  8
Default
 62
255
 10
     1102.928680
 20
     1001.592054
 30
       18.776725
  0
POINT
  8
Default
 62
255
 10
     1102.948224
 20
     1001.556385
 30
       18.764988
  0
POINT
  8
Default
 62
255
 10
     1102.912017
 20
     1001.506671
 30
       18.704570
  0
POINT
  8
Default
 62
255
 10
     1102.901916
 20
     1001.563613
 30
       18.717850
  0
POINT
  8
Default
 62
255
 10
     1102.838580
 20
     1001.519568
 30
       18.718253
  0
POINT
  8
Default
 62
255
 10
     1102.794657
 20
     1001.488321
 30
       18.761193
  0
POINT
  8
Default
 62
255
 10
     1102.899686
 20
     1001.614891
 30
       18.721432
  0
POINT
  8
Default
 62
255
 10
     1102.821701
 20
     1001.450439
 30
       18.762255
  0
POINT
  8
Default
 62
255
 10
     1102.744346
 20
     1001.453677
 30
       18.786169
  0
POINT
  8
Default
 62
255
 10
     1102.840270
 20
     1001.373238
 30
       18.731758
  0
POINT
  8
Default
 62
255
 10
     1102.777398
 20
     1001.394774
 30
       18.754306
  0
POINT
  8
Default
 62
255
 10
     1102.850145
 20
     1001.309979
 30
       18.732869
  0
POINT
  8
Default
 62
255
 10
     1102.821922
 20
     1001.325163
 30
       18.843004
  0
POINT
  8
Default
 62
255
 10
     1102.837471
 20
     1001.287526
 30
       18.853075
  0
POINT
  8
Default
 62
255
 10
     1102.766431
 20
     1001.309580
 30
       18.884333
  0
POINT
  8
Default
 62
255
 10
     1102.961178
 20
     1001.311068
 30
       18.668960
  0
POINT
  8
Default
 62
255
 10
     1102.755051
 20
     1001.699726
 30
       18.787021
  0
POINT
  8
Default
 62
255
 10
     1102.721746
 20
     1001.577078
 30
       18.736450
  0
POINT
  8
Default
 62
255
 10
     1102.715900
 20
     1001.638700
 30
       18.779489
  0
POINT
  8
Default
 62
255
 10
     1102.659996
 20
     1001.520650
 30
       18.781627
  0
POINT
  8
Default
 62
255
 10
     1102.522260
 20
     1001.550010
 30
       18.737438
  0
POINT
  8
Default
 62
255
 10
     1102.632515
 20
     1001.757257
 30
       18.793422
  0
POINT
  8
Default
 62
255
 10
     1102.649457
 20
     1001.868230
 30
       18.800365
  0
POINT
  8
Default
 62
255
 10
     1102.689387
 20
     1001.808674
 30
       18.806305
  0
POINT
  8
Default
 62
255
 10
     1102.696816
 20
     1001.866718
 30
       18.802285
  0
POINT
  8
Default
 62
255
 10
     1102.908413
 20
     1002.170418
 30
       18.809920
  0
POINT
  8
Default
 62
255
 10
     1102.828500
 20
     1002.079503
 30
       18.809179
  0
POINT
  8
Default
 62
255
 10
     1102.786452
 20
     1002.041864
 30
       18.807961
  0
POINT
  8
Default
 62
255
 10
     1103.038261
 20
     1002.305198
 30
       18.807750
  0
POINT
  8
Default
 62
255
 10
     1102.987689
 20
     1002.285355
 30
       18.806551
  0
POINT
  8
Default
 62
255
 10
     1102.928910
 20
     1002.230092
 30
       18.822464
  0
POINT
  8
Default
 62
255
 10
     1102.782916
 20
     1001.216841
 30
       18.885179
  0
POINT
  8
Default
 62
255
 10
     1102.886046
 20
     1001.246700
 30
       18.883798
  0
POINT
  8
Default
 62
255
 10
     1102.965783
 20
     1001.218271
 30
       18.901534
  0
POINT
  8
Default
 62
255
 10
     1102.945382
 20
     1001.278997
 30
       18.878450
  0
POINT
  8
Default
 62
255
 10
     1102.878767
 20
     1001.204334
 30
       18.892260
  0
POINT
  8
Default
 62
255
 10
     1102.835854
 20
     1001.258087
 30
       18.871631
  0
POINT
  8
Default
 62
255
 10
     1102.730578
 20
     1001.202667
 30
       18.867780
  0
POINT
  8
Default
 62
255
 10
     1102.955341
 20
     1001.173622
 30
       18.963567
  0
POINT
  8
Default
 62
255
 10
     1102.898306
 20
     1001.176162
 30
       18.947529
  0
POINT
  8
Default
 62
255
 10
     1102.906332
 20
     1001.203286
 30
       18.907429
  0
POINT
  8
Default
 62
255
 10
     1102.942665
 20
     1001.143146
 30
       18.956459
  0
POINT
  8
Default
 62
255
 10
     1103.251154
 20
     1001.203900
 30
       18.935062
  0
POINT
  8
Default
 62
255
 10
     1103.052814
 20
     1001.344662
 30
       18.936756
  0
POINT
  8
Default
 62
255
 10
     1103.036383
 20
     1001.293485
 30
       18.944106
  0
POINT
  8
Default
 62
255
 10
     1103.021321
 20
     1001.196424
 30
       18.936801
  0
POINT
  8
Default
 62
255
 10
     1103.221129
 20
     1001.230521
 30
       18.939458
  0
POINT
  8
Default
 62
255
 10
     1103.013823
 20
     1001.161927
 30
       18.927389
  0
POINT
  8
Default
 62
255
 10
     1103.070344
 20
     1001.175729
 30
       18.952120
  0
POINT
  8
Default
 62
255
 10
     1103.163556
 20
     1001.171273
 30
       18.948095
  0
POINT
  8
Default
 62
255
 10
     1103.144431
 20
     1001.210585
 30
       18.951372
  0
POINT
  8
Default
 62
255
 10
     1103.092661
 20
     1001.325425
 30
       18.939640
  0
POINT
  8
Default
 62
255
 10
     1103.144087
 20
     1001.296824
 30
       18.937625
  0
POINT
  8
Default
 62
255
 10
     1103.094485
 20
     1001.244409
 30
       18.951175
  0
POINT
  8
Default
 62
255
 10
     1102.701463
 20
     1001.429634
 30
       18.913460
  0
POINT
  8
Default
 62
255
 10
     1102.754275
 20
     1001.402044
 30
       18.903448
  0
POINT
  8
Default
 62
255
 10
     1102.733702
 20
     1001.333966
 30
       18.917027
  0
POINT
  8
Default
 62
255
 10
     1102.716039
 20
     1001.280709
 30
       18.918506
  0
POINT
  8
Default
 62
255
 10
     1102.700660
 20
     1001.353391
 30
       18.920535
  0
POINT
  8
Default
 62
255
 10
     1102.662132
 20
     1001.270932
 30
       18.914205
  0
POINT
  8
Default
 62
255
 10
     1102.649890
 20
     1001.330227
 30
       18.924432
  0
POINT
  8
Default
 62
255
 10
     1102.652399
 20
     1001.388992
 30
       18.920622
  0
POINT
  8
Default
 62
255
 10
     1102.637064
 20
     1001.470771
 30
       18.926774
  0
POINT
  8
Default
 62
255
 10
     1102.621955
 20
     1001.433465
 30
       18.945960
  0
POINT
  8
Default
 62
255
 10
     1102.586116
 20
     1001.385937
 30
       18.951485
  0
POINT
  8
Default
 62
255
 10
     1102.565125
 20
     1001.347193
 30
       18.962913
  0
POINT
  8
Default
 62
255
 10
     1102.605305
 20
     1001.293226
 30
       18.921448
  0
POINT
  8
Default
 62
255
 10
     1102.687568
 20
     1001.204710
 30
       18.906627
  0
POINT
  8
Default
 62
255
 10
     1102.653914
 20
     1001.201168
 30
       18.915262
  0
POINT
  8
Default
 62
255
 10
     1102.603493
 20
     1001.232650
 30
       18.927723
  0
POINT
  8
Default
 62
255
 10
     1102.560334
 20
     1001.211426
 30
       18.924651
  0
POINT
  8
Default
 62
255
 10
     1102.590868
 20
     1001.492853
 30
       18.917493
  0
POINT
  8
Default
 62
255
 10
     1102.542353
 20
     1001.377725
 30
       18.933847
  0
POINT
  8
Default
 62
255
 10
     1102.575269
 20
     1001.431941
 30
       18.934084
  0
POINT
  8
Default
 62
255
 10
     1102.536085
 20
     1001.431583
 30
       18.924972
  0
POINT
  8
Default
 62
255
 10
     1102.532699
 20
     1001.311721
 30
       18.964830
  0
POINT
  8
Default
 62
255
 10
     1102.516560
 20
     1001.365091
 30
       18.965977
  0
POINT
  8
Default
 62
255
 10
     1102.492635
 20
     1001.220011
 30
       18.931307
  0
POINT
  8
Default
 62
255
 10
     1102.376319
 20
     1001.290928
 30
       18.936029
  0
POINT
  8
Default
 62
255
 10
     1102.411147
 20
     1001.270095
 30
       18.937681
  0
POINT
  8
Default
 62
255
 10
     1102.337177
 20
     1001.306299
 30
       18.941845
  0
POINT
  8
Default
 62
255
 10
     1102.256966
 20
     1001.357188
 30
       18.947347
  0
POINT
  8
Default
 62
255
 10
     1102.290117
 20
     1001.418975
 30
       18.934528
  0
POINT
  8
Default
 62
255
 10
     1102.313251
 20
     1001.465935
 30
       18.927294
  0
POINT
  8
Default
 62
255
 10
     1102.361885
 20
     1001.514985
 30
       18.932672
  0
POINT
  8
Default
 62
255
 10
     1102.376988
 20
     1001.429644
 30
       18.929735
  0
POINT
  8
Default
 62
255
 10
     1102.420413
 20
     1001.469728
 30
       18.933446
  0
POINT
  8
Default
 62
255
 10
     1102.378190
 20
     1001.344097
 30
       18.940661
  0
POINT
  8
Default
 62
255
 10
     1102.438921
 20
     1001.397208
 30
       18.960171
  0
POINT
  8
Default
 62
255
 10
     1102.406617
 20
     1001.562745
 30
       18.928111
  0
POINT
  8
Default
 62
255
 10
     1102.488267
 20
     1001.564971
 30
       18.913066
  0
POINT
  8
Default
 62
255
 10
     1102.376565
 20
     1001.139600
 30
       18.667983
  0
POINT
  8
Default
 62
255
 10
     1102.449781
 20
     1001.190421
 30
       18.660341
  0
POINT
  8
Default
 62
255
 10
     1102.399281
 20
     1001.080491
 30
       18.672691
  0
POINT
  8
Default
 62
255
 10
     1102.474171
 20
     1001.129639
 30
       18.661321
  0
POINT
  8
Default
 62
255
 10
     1102.504303
 20
     1001.079852
 30
       18.660792
  0
POINT
  8
Default
 62
255
 10
     1102.504466
 20
     1001.024603
 30
       18.666539
  0
POINT
  8
Default
 62
255
 10
     1102.561482
 20
     1001.132271
 30
       18.669869
  0
POINT
  8
Default
 62
255
 10
     1102.499344
 20
     1001.190888
 30
       18.660725
  0
POINT
  8
Default
 62
255
 10
     1102.608269
 20
     1001.082518
 30
       18.653650
  0
POINT
  8
Default
 62
255
 10
     1102.570906
 20
     1001.002110
 30
       18.665165
  0
POINT
  8
Default
 62
255
 10
     1102.628492
 20
     1001.165416
 30
       18.762037
  0
POINT
  8
Default
 62
255
 10
     1102.625439
 20
     1001.140837
 30
       18.673995
  0
POINT
  8
Default
 62
255
 10
     1102.765921
 20
     1001.067657
 30
       18.673787
  0
POINT
  8
Default
 62
255
 10
     1102.725077
 20
     1001.083769
 30
       18.660088
  0
POINT
  8
Default
 62
255
 10
     1102.702099
 20
     1001.135316
 30
       18.774107
  0
POINT
  8
Default
 62
255
 10
     1102.763045
 20
     1001.130201
 30
       18.782386
  0
POINT
  8
Default
 62
255
 10
     1102.728846
 20
     1001.109626
 30
       18.762296
  0
POINT
  8
Default
 62
255
 10
     1102.856585
 20
     1001.008454
 30
       18.649196
  0
POINT
  8
Default
 62
255
 10
     1102.808847
 20
     1001.025735
 30
       18.647709
  0
POINT
  8
Default
 62
255
 10
     1102.807714
 20
     1001.075992
 30
       18.700890
  0
POINT
  8
Default
 62
255
 10
     1102.834473
 20
     1001.095524
 30
       18.757891
  0
POINT
  8
Default
 62
255
 10
     1102.340188
 20
     1001.064867
 30
       18.690151
  0
POINT
  8
Default
 62
255
 10
     1102.305882
 20
     1001.083998
 30
       18.697511
  0
POINT
  8
Default
 62
255
 10
     1102.392198
 20
     1001.039694
 30
       18.692190
  0
POINT
  8
Default
 62
255
 10
     1102.422850
 20
     1001.021968
 30
       18.694729
  0
POINT
  8
Default
 62
255
 10
     1102.520177
 20
     1000.982784
 30
       18.678145
  0
POINT
  8
Default
 62
255
 10
     1102.630807
 20
     1000.978434
 30
       18.657900
  0
POINT
  8
Default
 62
255
 10
     1102.671064
 20
     1000.902407
 30
       18.676838
  0
POINT
  8
Default
 62
255
 10
     1102.605343
 20
     1000.932790
 30
       18.686133
  0
POINT
  8
Default
 62
255
 10
     1102.675471
 20
     1001.012580
 30
       18.664402
  0
POINT
  8
Default
 62
255
 10
     1102.730243
 20
     1000.999529
 30
       18.667550
  0
POINT
  8
Default
 62
255
 10
     1102.717168
 20
     1000.918982
 30
       18.671808
  0
POINT
  8
Default
 62
255
 10
     1102.742173
 20
     1000.867269
 30
       18.684292
  0
POINT
  8
Default
 62
255
 10
     1102.780571
 20
     1000.941942
 30
       18.662325
  0
POINT
  8
Default
 62
255
 10
     1102.820515
 20
     1000.843169
 30
       18.699869
  0
POINT
  8
Default
 62
255
 10
     1102.847358
 20
     1000.899860
 30
       18.680989
  0
POINT
  8
Default
 62
255
 10
     1102.869077
 20
     1000.954027
 30
       18.662834
  0
POINT
  8
Default
 62
255
 10
     1102.153479
 20
     1001.294045
 30
       18.717224
  0
POINT
  8
Default
 62
255
 10
     1102.230831
 20
     1001.271959
 30
       18.693262
  0
POINT
  8
Default
 62
255
 10
     1102.302742
 20
     1001.231724
 30
       18.696788
  0
POINT
  8
Default
 62
255
 10
     1102.102960
 20
     1001.150905
 30
       18.741042
  0
POINT
  8
Default
 62
255
 10
     1102.394656
 20
     1001.198232
 30
       18.685713
  0
POINT
  8
Default
 62
255
 10
     1102.335675
 20
     1001.210760
 30
       18.690416
  0
POINT
  8
Default
 62
255
 10
     1103.149235
 20
     1001.130793
 30
       19.008820
  0
POINT
  8
Default
 62
255
 10
     1103.104750
 20
     1001.148110
 30
       18.999011
  0
POINT
  8
Default
 62
255
 10
     1103.043425
 20
     1001.144920
 30
       18.999941
  0
POINT
  8
Default
 62
255
 10
     1102.942659
 20
     1001.120497
 30
       18.990825
  0
POINT
  8
Default
 62
255
 10
     1102.847410
 20
     1001.100987
 30
       18.994799
  0
POINT
  8
Default
 62
255
 10
     1103.079212
 20
     1001.075300
 30
       19.038423
  0
POINT
  8
Default
 62
255
 10
     1103.050366
 20
     1001.035762
 30
       19.019228
  0
POINT
  8
Default
 62
255
 10
     1103.069470
 20
     1001.003773
 30
       19.041635
  0
POINT
  8
Default
 62
255
 10
     1103.095052
 20
     1001.056392
 30
       19.040642
  0
POINT
  8
Default
 62
255
 10
     1103.039191
 20
     1001.094215
 30
       19.025123
  0
POINT
  8
Default
 62
255
 10
     1103.001891
 20
     1001.060029
 30
       19.016725
  0
POINT
  8
Default
 62
255
 10
     1102.991485
 20
     1000.979412
 30
       19.013239
  0
POINT
  8
Default
 62
255
 10
     1103.029644
 20
     1000.943489
 30
       19.025535
  0
POINT
  8
Default
 62
255
 10
     1102.953733
 20
     1001.029367
 30
       19.008524
  0
POINT
  8
Default
 62
255
 10
     1102.994841
 20
     1000.900361
 30
       19.016408
  0
POINT
  8
Default
 62
255
 10
     1102.955978
 20
     1000.970201
 30
       19.012166
  0
POINT
  8
Default
 62
255
 10
     1102.869799
 20
     1000.944470
 30
       19.050183
  0
POINT
  8
Default
 62
255
 10
     1102.830473
 20
     1001.055367
 30
       18.998771
  0
POINT
  8
Default
 62
255
 10
     1102.868824
 20
     1001.005657
 30
       19.031844
  0
POINT
  8
Default
 62
255
 10
     1102.831739
 20
     1000.990223
 30
       19.004046
  0
POINT
  8
Default
 62
255
 10
     1102.930319
 20
     1000.890310
 30
       19.018752
  0
POINT
  8
Default
 62
255
 10
     1102.871900
 20
     1000.870890
 30
       19.055515
  0
POINT
  8
Default
 62
255
 10
     1102.813452
 20
     1000.935959
 30
       19.022144
  0
POINT
  8
Default
 62
255
 10
     1102.817081
 20
     1000.881832
 30
       19.053485
  0
POINT
  8
Default
 62
255
 10
     1102.779300
 20
     1000.888304
 30
       19.013763
  0
POINT
  8
Default
 62
255
 10
     1102.895686
 20
     1000.790958
 30
       19.054659
  0
POINT
  8
Default
 62
255
 10
     1102.861435
 20
     1000.744309
 30
       19.019791
  0
POINT
  8
Default
 62
255
 10
     1102.783752
 20
     1000.819373
 30
       18.994370
  0
POINT
  8
Default
 62
255
 10
     1102.840079
 20
     1000.791685
 30
       19.005132
  0
POINT
  8
Default
 62
255
 10
     1102.791252
 20
     1000.774186
 30
       18.990877
  0
POINT
  8
Default
 62
255
 10
     1102.858051
 20
     1000.811978
 30
       19.055320
  0
POINT
  8
Default
 62
255
 10
     1102.841377
 20
     1000.711963
 30
       18.994626
  0
POINT
  8
Default
 62
255
 10
     1102.812451
 20
     1000.653661
 30
       18.977692
  0
POINT
  8
Default
 62
255
 10
     1102.778380
 20
     1000.708292
 30
       18.971166
  0
POINT
  8
Default
 62
255
 10
     1102.786877
 20
     1000.601005
 30
       18.954838
  0
POINT
  8
Default
 62
255
 10
     1102.777175
 20
     1000.628731
 30
       18.915386
  0
POINT
  8
Default
 62
255
 10
     1102.228501
 20
     1001.335155
 30
       19.086449
  0
POINT
  8
Default
 62
255
 10
     1102.210684
 20
     1001.263860
 30
       19.080664
  0
POINT
  8
Default
 62
255
 10
     1102.200562
 20
     1001.293460
 30
       19.094797
  0
POINT
  8
Default
 62
255
 10
     1102.151407
 20
     1001.174241
 30
       19.080955
  0
POINT
  8
Default
 62
255
 10
     1102.163324
 20
     1001.230264
 30
       19.089646
  0
POINT
  8
Default
 62
255
 10
     1102.140781
 20
     1001.132278
 30
       19.038065
  0
POINT
  8
Default
 62
255
 10
     1102.083769
 20
     1001.132301
 30
       19.068897
  0
POINT
  8
Default
 62
255
 10
     1102.024406
 20
     1001.086881
 30
       19.053703
  0
POINT
  8
Default
 62
255
 10
     1101.987215
 20
     1001.056605
 30
       19.059997
  0
POINT
  8
Default
 62
255
 10
     1102.008496
 20
     1001.029556
 30
       19.038945
  0
POINT
  8
Default
 62
255
 10
     1102.079210
 20
     1001.079773
 30
       19.040676
  0
POINT
  8
Default
 62
255
 10
     1102.039403
 20
     1001.038530
 30
       19.023100
  0
POINT
  8
Default
 62
255
 10
     1101.997473
 20
     1001.001284
 30
       19.021144
  0
POINT
  8
Default
 62
255
 10
     1101.965143
 20
     1001.010463
 30
       19.066324
  0
POINT
  8
Default
 62
255
 10
     1101.961364
 20
     1000.962420
 30
       19.039837
  0
POINT
  8
Default
 62
255
 10
     1102.200645
 20
     1001.224907
 30
       19.062869
  0
POINT
  8
Default
 62
255
 10
     1102.239457
 20
     1001.404374
 30
       19.069162
  0
POINT
  8
Default
 62
255
 10
     1102.268769
 20
     1001.422692
 30
       18.999532
  0
POINT
  8
Default
 62
255
 10
     1102.236999
 20
     1001.375719
 30
       19.075034
  0
POINT
  8
Default
 62
255
 10
     1102.233045
 20
     1001.350672
 30
       19.011917
  0
POINT
  8
Default
 62
255
 10
     1101.629473
 20
      999.854963
 30
       19.581646
  0
POINT
  8
Default
 62
255
 10
     1101.668253
 20
      999.890155
 30
       19.584930
  0
POINT
  8
Default
 62
255
 10
     1101.679532
 20
      999.949596
 30
       19.483851
  0
POINT
  8
Default
 62
255
 10
     1101.721104
 20
      999.872653
 30
       19.596824
  0
POINT
  8
Default
 62
255
 10
     1101.757330
 20
      999.883145
 30
       19.601038
  0
POINT
  8
Default
 62
255
 10
     1101.737795
 20
      999.780068
 30
       19.636614
  0
POINT
  8
Default
 62
255
 10
     1101.782850
 20
      999.821934
 30
       19.607389
  0
POINT
  8
Default
 62
255
 10
     1101.794129
 20
      999.863494
 30
       19.599494
  0
POINT
  8
Default
 62
255
 10
     1101.833266
 20
      999.832988
 30
       19.588323
  0
POINT
  8
Default
 62
255
 10
     1101.809545
 20
      999.785934
 30
       19.605308
  0
POINT
  8
Default
 62
255
 10
     1101.844953
 20
      999.793444
 30
       19.572954
  0
POINT
  8
Default
 62
255
 10
     1101.805179
 20
      999.749039
 30
       19.589085
  0
POINT
  8
Default
 62
255
 10
     1101.849187
 20
      999.763843
 30
       19.559311
  0
POINT
  8
Default
 62
255
 10
     1101.827394
 20
      999.726255
 30
       19.561068
  0
POINT
  8
Default
 62
255
 10
     1101.861520
 20
      999.731228
 30
       19.547515
  0
POINT
  8
Default
 62
255
 10
     1101.888543
 20
      999.771947
 30
       19.521665
  0
POINT
  8
Default
 62
255
 10
     1101.870268
 20
      999.802537
 30
       19.534092
  0
POINT
  8
Default
 62
255
 10
     1101.977590
 20
      999.740880
 30
       19.569620
  0
POINT
  8
Default
 62
255
 10
     1101.930719
 20
      999.731326
 30
       19.563049
  0
POINT
  8
Default
 62
255
 10
     1101.953465
 20
      999.760067
 30
       19.533056
  0
POINT
  8
Default
 62
255
 10
     1101.972997
 20
      999.615082
 30
       19.611718
  0
POINT
  8
Default
 62
255
 10
     1102.013316
 20
      999.652310
 30
       19.637299
  0
POINT
  8
Default
 62
255
 10
     1102.054150
 20
      999.621425
 30
       19.646036
  0
POINT
  8
Default
 62
255
 10
     1102.081007
 20
      999.666868
 30
       19.628042
  0
POINT
  8
Default
 62
255
 10
     1102.098192
 20
      999.648928
 30
       19.626106
  0
POINT
  8
Default
 62
255
 10
     1102.021254
 20
      999.567167
 30
       19.618482
  0
POINT
  8
Default
 62
255
 10
     1102.107188
 20
      999.604286
 30
       19.618684
  0
POINT
  8
Default
 62
255
 10
     1102.131198
 20
      999.637874
 30
       19.597828
  0
POINT
  8
Default
 62
255
 10
     1102.124554
 20
      999.586475
 30
       19.633652
  0
POINT
  8
Default
 62
255
 10
     1102.163692
 20
      999.600256
 30
       19.590636
  0
POINT
  8
Default
 62
255
 10
     1102.223623
 20
      999.604887
 30
       19.462056
  0
POINT
  8
Default
 62
255
 10
     1102.202494
 20
      999.562635
 30
       19.508235
  0
POINT
  8
Default
 62
255
 10
     1101.910997
 20
     1000.813421
 30
       18.806906
  0
POINT
  8
Default
 62
255
 10
     1101.840098
 20
     1000.654854
 30
       18.831840
  0
POINT
  8
Default
 62
255
 10
     1101.813921
 20
     1000.586956
 30
       18.799539
  0
POINT
  8
Default
 62
255
 10
     1101.862836
 20
     1000.533752
 30
       18.804551
  0
POINT
  8
Default
 62
255
 10
     1101.893358
 20
     1000.454659
 30
       18.795659
  0
POINT
  8
Default
 62
255
 10
     1101.816057
 20
     1000.362033
 30
       18.784631
  0
POINT
  8
Default
 62
255
 10
     1101.724443
 20
     1000.227153
 30
       18.764919
  0
POINT
  8
Default
 62
255
 10
     1102.748588
 20
     1000.529408
 30
       18.947020
  0
POINT
  8
Default
 62
255
 10
     1102.710572
 20
     1000.494923
 30
       18.971525
  0
POINT
  8
Default
 62
255
 10
     1102.702196
 20
     1000.576940
 30
       18.912296
  0
POINT
  8
Default
 62
255
 10
     1102.772195
 20
     1000.604538
 30
       18.902636
  0
POINT
  8
Default
 62
255
 10
     1102.691239
 20
     1000.534659
 30
       18.908616
  0
POINT
  8
Default
 62
255
 10
     1102.680509
 20
     1000.487416
 30
       18.923506
  0
POINT
  8
Default
 62
255
 10
     1102.675717
 20
     1000.498647
 30
       18.860021
  0
POINT
  8
Default
 62
255
 10
     1101.609808
 20
     1000.642877
 30
       19.390234
  0
POINT
  8
Default
 62
255
 10
     1101.503107
 20
     1000.732271
 30
       19.408515
  0
POINT
  8
Default
 62
255
 10
     1101.546836
 20
     1000.672796
 30
       19.410271
  0
LINE
  8
Default
 62
255
 10
     1102.666015
 20
     1000.477340
 30
       18.837299
 11
     1102.623352
 21
     1000.556793
 31
       18.817672
  0
LINE
  8
Default
 62
255
 10
     1102.546272
 20
     1000.608346
 30
       18.818898
 11
     1102.506876
 21
     1000.658590
 31
       18.800787
  0
LINE
  8
Default
 62
255
 10
     1102.506876
 20
     1000.658590
 30
       18.800787
 11
     1102.442955
 21
     1000.734303
 31
       18.745831
  0
LINE
  8
Default
 62
255
 10
     1102.442955
 20
     1000.734303
 30
       18.745831
 11
     1102.379111
 21
     1000.796316
 31
       18.718455
  0
LINE
  8
Default
 62
255
 10
     1102.379111
 20
     1000.796316
 30
       18.718455
 11
     1102.248391
 21
     1000.917676
 31
       18.708049
  0
LINE
  8
Default
 62
255
 10
     1102.248391
 20
     1000.917676
 30
       18.708049
 11
     1102.123561
 21
     1000.955946
 31
       18.732211
  0
LINE
  8
Default
 62
255
 10
     1102.123561
 20
     1000.955946
 30
       18.732211
 11
     1102.031315
 21
     1000.948308
 31
       18.789363
  0
LINE
  8
Default
 62
255
 10
     1102.031315
 20
     1000.948308
 30
       18.789363
 11
     1101.954212
 21
     1000.869184
 31
       18.796188
  0
LINE
  8
Default
 62
255
 10
     1102.546272
 20
     1000.608346
 30
       18.818898
 11
     1102.578759
 21
     1000.575159
 31
       18.816494
  0
LINE
  8
Default
 62
255
 10
     1102.578759
 20
     1000.575159
 30
       18.816494
 11
     1102.623352
 21
     1000.556793
 31
       18.817672
  0
LINE
  8
Default
 62
255
 10
     1102.666015
 20
     1000.477340
 30
       18.837299
 11
     1102.572572
 21
     1000.408598
 31
       18.884302
  0
LINE
  8
Default
 62
255
 10
     1102.572572
 20
     1000.408598
 30
       18.884302
 11
     1102.549893
 21
     1000.350489
 31
       18.900950
  0
LINE
  8
Default
 62
255
 10
     1102.549893
 20
     1000.350489
 30
       18.900950
 11
     1102.483657
 21
     1000.238493
 31
       18.916413
  0
LINE
  8
Default
 62
255
 10
     1102.483657
 20
     1000.238493
 30
       18.916413
 11
     1102.411565
 21
     1000.158441
 31
       18.959419
  0
LINE
  8
Default
 62
255
 10
     1102.411565
 20
     1000.158441
 30
       18.959419
 11
     1102.398269
 21
     1000.118924
 31
       18.968310
  0
LINE
  8
Default
 62
255
 10
     1102.398269
 20
     1000.118924
 30
       18.968310
 11
     1102.362203
 21
      999.996428
 31
       19.024659
  0
LINE
  8
Default
 62
255
 10
     1102.362203
 20
      999.996428
 30
       19.024659
 11
     1102.325539
 21
      999.940343
 31
       19.031518
  0
LINE
  8
Default
 62
255
 10
     1102.325539
 20
      999.940343
 30
       19.031518
 11
     1102.309039
 21
      999.899858
 31
       19.051545
  0
LINE
  8
Default
 62
255
 10
     1102.309039
 20
      999.899858
 30
       19.051545
 11
     1102.271544
 21
      999.842737
 31
       19.049573
  0
LINE
  8
Default
 62
255
 10
     1102.271544
 20
      999.842737
 30
       19.049573
 11
     1102.237017
 21
      999.784084
 31
       19.050397
  0
LINE
  8
Default
 62
255
 10
     1102.237017
 20
      999.784084
 30
       19.050397
 11
     1102.202805
 21
      999.738777
 31
       19.051591
  0
LINE
  8
Default
 62
255
 10
     1102.202805
 20
      999.738777
 30
       19.051591
 11
     1102.148434
 21
      999.743673
 31
       19.027526
  0
LINE
  8
Default
 62
255
 10
     1102.148434
 20
      999.743673
 30
       19.027526
 11
     1102.112379
 21
      999.777008
 31
       18.996293
  0
LINE
  8
Default
 62
255
 10
     1102.112379
 20
      999.777008
 30
       18.996293
 11
     1101.982894
 21
      999.838585
 31
       18.957318
  0
LINE
  8
Default
 62
255
 10
     1101.982894
 20
      999.838585
 30
       18.957318
 11
     1101.925834
 21
      999.887979
 31
       18.930420
  0
LINE
  8
Default
 62
255
 10
     1102.520759
 20
     1000.949614
 30
       18.954742
 11
     1102.478165
 21
     1000.900430
 31
       18.966856
  0
LINE
  8
Default
 62
255
 10
     1102.478165
 20
     1000.900430
 30
       18.966856
 11
     1102.428423
 21
     1000.833814
 31
       18.973434
  0
LINE
  8
Default
 62
255
 10
     1102.428423
 20
     1000.833814
 30
       18.973434
 11
     1102.441933
 21
     1000.794257
 31
       18.983338
  0
LINE
  8
Default
 62
255
 10
     1102.441933
 20
     1000.794257
 30
       18.983338
 11
     1102.489347
 21
     1000.767444
 31
       18.974471
  0
LINE
  8
Default
 62
255
 10
     1102.489347
 20
     1000.767444
 30
       18.974471
 11
     1102.545360
 21
     1000.757590
 31
       18.959363
  0
LINE
  8
Default
 62
255
 10
     1102.545360
 20
     1000.757590
 30
       18.959363
 11
     1102.600352
 21
     1000.815455
 31
       18.951028
  0
LINE
  8
Default
 62
255
 10
     1102.600352
 20
     1000.815455
 30
       18.951028
 11
     1102.648873
 21
     1000.847794
 31
       18.941865
  0
LINE
  8
Default
 62
255
 10
     1102.648873
 20
     1000.847794
 30
       18.941865
 11
     1102.669283
 21
     1000.892131
 31
       18.916984
  0
LINE
  8
Default
 62
255
 10
     1102.669283
 20
     1000.892131
 30
       18.916984
 11
     1102.622625
 21
     1000.906364
 31
       18.940730
  0
LINE
  8
Default
 62
255
 10
     1102.622625
 20
     1000.906364
 30
       18.940730
 11
     1102.570857
 21
     1000.924991
 31
       18.952817
  0
LINE
  8
Default
 62
255
 10
     1102.570857
 20
     1000.924991
 30
       18.952817
 11
     1102.520759
 21
     1000.949614
 31
       18.954742
  0
LINE
  8
Default
 62
255
 10
     1101.954212
 20
     1000.869184
 30
       18.796188
 11
     1101.910997
 21
     1000.813421
 31
       18.806906
  0
LINE
  8
Default
 62
255
 10
     1101.910997
 20
     1000.813421
 30
       18.806906
 11
     1101.887868
 21
     1000.735743
 31
       18.816423
  0
LINE
  8
Default
 62
255
 10
     1101.887868
 20
     1000.735743
 30
       18.816423
 11
     1101.840098
 21
     1000.654854
 31
       18.831840
  0
LINE
  8
Default
 62
255
 10
     1101.840098
 20
     1000.654854
 30
       18.831840
 11
     1101.813921
 21
     1000.586956
 31
       18.799539
  0
LINE
  8
Default
 62
255
 10
     1101.813921
 20
     1000.586956
 30
       18.799539
 11
     1101.862836
 21
     1000.533752
 31
       18.804551
  0
LINE
  8
Default
 62
255
 10
     1101.862836
 20
     1000.533752
 30
       18.804551
 11
     1101.893358
 21
     1000.454659
 31
       18.795659
  0
LINE
  8
Default
 62
255
 10
     1101.893358
 20
     1000.454659
 30
       18.795659
 11
     1101.847890
 21
     1000.423052
 31
       18.795229
  0
LINE
  8
Default
 62
255
 10
     1101.847890
 20
     1000.423052
 30
       18.795229
 11
     1101.816057
 21
     1000.362033
 31
       18.784631
  0
LINE
  8
Default
 62
255
 10
     1101.816057
 20
     1000.362033
 30
       18.784631
 11
     1101.789472
 21
     1000.262410
 31
       18.771751
  0
LINE
  8
Default
 62
255
 10
     1101.789472
 20
     1000.262410
 30
       18.771751
 11
     1101.724443
 21
     1000.227153
 31
       18.764919
  0
LINE
  8
Default
 62
255
 10
     1101.724443
 20
     1000.227153
 30
       18.764919
 11
     1101.699342
 21
     1000.148416
 31
       18.784850
  0
LINE
  8
Default
 62
255
 10
     1101.699342
 20
     1000.148416
 30
       18.784850
 11
     1101.804689
 21
     1000.092960
 31
       18.806334
  0
LINE
  8
Default
 62
255
 10
     1101.804689
 20
     1000.092960
 30
       18.806334
 11
     1101.840611
 21
      999.962348
 31
       18.871962
  0
LINE
  8
Default
 62
255
 10
     1101.840611
 20
      999.962348
 30
       18.871962
 11
     1101.925834
 21
      999.887979
 31
       18.930420
  0
LINE
  8
Default
 62
255
 10
     1102.469237
 20
     1000.927325
 30
       18.960366
 11
     1102.434780
 21
     1000.868914
 31
       18.974851
  0
LINE
  8
Default
 62
255
 10
     1102.434780
 20
     1000.868914
 30
       18.974851
 11
     1102.391336
 21
     1000.847596
 31
       18.970039
  0
LINE
  8
Default
 62
255
 10
     1102.391336
 20
     1000.847596
 30
       18.970039
 11
     1102.328696
 21
     1000.886922
 31
       18.973240
  0
LINE
  8
Default
 62
255
 10
     1102.328696
 20
     1000.886922
 30
       18.973240
 11
     1102.209744
 21
     1000.930062
 31
       18.970536
  0
LINE
  8
Default
 62
255
 10
     1102.209744
 20
     1000.930062
 30
       18.970536
 11
     1102.142014
 21
     1000.974416
 31
       18.959637
  0
LINE
  8
Default
 62
255
 10
     1102.142014
 20
     1000.974416
 30
       18.959637
 11
     1102.095505
 21
     1001.072129
 31
       18.974855
  0
LINE
  8
Default
 62
255
 10
     1102.095505
 20
     1001.072129
 30
       18.974855
 11
     1102.131719
 21
     1001.110646
 31
       18.971692
  0
LINE
  8
Default
 62
255
 10
     1102.131719
 20
     1001.110646
 30
       18.971692
 11
     1102.178300
 21
     1001.097608
 31
       18.969452
  0
LINE
  8
Default
 62
255
 10
     1102.178300
 20
     1001.097608
 30
       18.969452
 11
     1102.286398
 21
     1001.063599
 31
       18.976815
  0
LINE
  8
Default
 62
255
 10
     1102.286398
 20
     1001.063599
 30
       18.976815
 11
     1102.357040
 21
     1001.017194
 31
       18.974068
  0
LINE
  8
Default
 62
255
 10
     1102.357040
 20
     1001.017194
 30
       18.974068
 11
     1102.469237
 21
     1000.927325
 31
       18.960366
  0
LINE
  8
Default
 62
255
 10
     1102.754275
 20
     1001.402044
 30
       18.903448
 11
     1102.733702
 21
     1001.333966
 31
       18.917027
  0
LINE
  8
Default
 62
255
 10
     1102.733702
 20
     1001.333966
 30
       18.917027
 11
     1102.716039
 21
     1001.280709
 31
       18.918506
  0
LINE
  8
Default
 62
255
 10
     1102.716039
 20
     1001.280709
 30
       18.918506
 11
     1102.702555
 21
     1001.226705
 31
       18.908738
  0
LINE
  8
Default
 62
255
 10
     1102.702555
 20
     1001.226705
 30
       18.908738
 11
     1102.687568
 21
     1001.204710
 31
       18.906627
  0
LINE
  8
Default
 62
255
 10
     1102.687568
 20
     1001.204710
 30
       18.906627
 11
     1102.653914
 21
     1001.201168
 31
       18.915262
  0
LINE
  8
Default
 62
255
 10
     1102.653914
 20
     1001.201168
 30
       18.915262
 11
     1102.560334
 21
     1001.211426
 31
       18.924651
  0
LINE
  8
Default
 62
255
 10
     1102.560334
 20
     1001.211426
 30
       18.924651
 11
     1102.492635
 21
     1001.220011
 31
       18.931307
  0
LINE
  8
Default
 62
255
 10
     1102.492635
 20
     1001.220011
 30
       18.931307
 11
     1102.411147
 21
     1001.270095
 31
       18.937681
  0
LINE
  8
Default
 62
255
 10
     1102.411147
 20
     1001.270095
 30
       18.937681
 11
     1102.376319
 21
     1001.290928
 31
       18.936029
  0
LINE
  8
Default
 62
255
 10
     1102.376319
 20
     1001.290928
 30
       18.936029
 11
     1102.337177
 21
     1001.306299
 31
       18.941845
  0
LINE
  8
Default
 62
255
 10
     1102.337177
 20
     1001.306299
 30
       18.941845
 11
     1102.264334
 21
     1001.331092
 31
       18.941630
  0
LINE
  8
Default
 62
255
 10
     1102.264334
 20
     1001.331092
 30
       18.941630
 11
     1102.256966
 21
     1001.357188
 31
       18.947347
  0
LINE
  8
Default
 62
255
 10
     1102.256966
 20
     1001.357188
 30
       18.947347
 11
     1102.290117
 21
     1001.418975
 31
       18.934528
  0
LINE
  8
Default
 62
255
 10
     1102.290117
 20
     1001.418975
 30
       18.934528
 11
     1102.313251
 21
     1001.465935
 31
       18.927294
  0
LINE
  8
Default
 62
255
 10
     1102.313251
 20
     1001.465935
 30
       18.927294
 11
     1102.361885
 21
     1001.514985
 31
       18.932672
  0
LINE
  8
Default
 62
255
 10
     1102.361885
 20
     1001.514985
 30
       18.932672
 11
     1102.406617
 21
     1001.562745
 31
       18.928111
  0
LINE
  8
Default
 62
255
 10
     1102.406617
 20
     1001.562745
 30
       18.928111
 11
     1102.488267
 21
     1001.564971
 31
       18.913066
  0
LINE
  8
Default
 62
255
 10
     1102.488267
 20
     1001.564971
 30
       18.913066
 11
     1102.552735
 21
     1001.519712
 31
       18.910654
  0
LINE
  8
Default
 62
255
 10
     1102.552735
 20
     1001.519712
 30
       18.910654
 11
     1102.590868
 21
     1001.492853
 31
       18.917493
  0
LINE
  8
Default
 62
255
 10
     1102.590868
 20
     1001.492853
 30
       18.917493
 11
     1102.637064
 21
     1001.470771
 31
       18.926774
  0
LINE
  8
Default
 62
255
 10
     1102.637064
 20
     1001.470771
 30
       18.926774
 11
     1102.701463
 21
     1001.429634
 31
       18.913460
  0
LINE
  8
Default
 62
255
 10
     1102.701463
 20
     1001.429634
 30
       18.913460
 11
     1102.754275
 21
     1001.402044
 31
       18.903448
  0
LINE
  8
Default
 62
255
 10
     1103.149235
 20
     1001.130793
 30
       19.008820
 11
     1103.104750
 21
     1001.148110
 31
       18.999011
  0
LINE
  8
Default
 62
255
 10
     1103.104750
 20
     1001.148110
 30
       18.999011
 11
     1103.043425
 21
     1001.144920
 31
       18.999941
  0
LINE
  8
Default
 62
255
 10
     1103.043425
 20
     1001.144920
 30
       18.999941
 11
     1102.942659
 21
     1001.120497
 31
       18.990825
  0
LINE
  8
Default
 62
255
 10
     1102.942659
 20
     1001.120497
 30
       18.990825
 11
     1102.847410
 21
     1001.100987
 31
       18.994799
  0
LINE
  8
Default
 62
255
 10
     1102.847410
 20
     1001.100987
 30
       18.994799
 11
     1102.830473
 21
     1001.055367
 31
       18.998771
  0
LINE
  8
Default
 62
255
 10
     1102.830473
 20
     1001.055367
 30
       18.998771
 11
     1102.831739
 21
     1000.990223
 31
       19.004046
  0
LINE
  8
Default
 62
255
 10
     1102.831739
 20
     1000.990223
 30
       19.004046
 11
     1102.779300
 21
     1000.888304
 31
       19.013763
  0
LINE
  8
Default
 62
255
 10
     1102.779300
 20
     1000.888304
 30
       19.013763
 11
     1102.783752
 21
     1000.819373
 31
       18.994370
  0
LINE
  8
Default
 62
255
 10
     1102.783752
 20
     1000.819373
 30
       18.994370
 11
     1102.791252
 21
     1000.774186
 31
       18.990877
  0
LINE
  8
Default
 62
255
 10
     1102.791252
 20
     1000.774186
 30
       18.990877
 11
     1102.778380
 21
     1000.708292
 31
       18.971166
  0
LINE
  8
Default
 62
255
 10
     1102.778380
 20
     1000.708292
 30
       18.971166
 11
     1102.812451
 21
     1000.653661
 31
       18.977692
  0
LINE
  8
Default
 62
255
 10
     1102.812451
 20
     1000.653661
 30
       18.977692
 11
     1102.841377
 21
     1000.711963
 31
       18.994626
  0
LINE
  8
Default
 62
255
 10
     1102.841377
 20
     1000.711963
 30
       18.994626
 11
     1102.861435
 21
     1000.744309
 31
       19.019791
  0
LINE
  8
Default
 62
255
 10
     1102.861435
 20
     1000.744309
 30
       19.019791
 11
     1102.895686
 21
     1000.790958
 31
       19.054659
  0
LINE
  8
Default
 62
255
 10
     1102.895686
 20
     1000.790958
 30
       19.054659
 11
     1102.994841
 21
     1000.900361
 31
       19.016408
  0
LINE
  8
Default
 62
255
 10
     1102.994841
 20
     1000.900361
 30
       19.016408
 11
     1103.029644
 21
     1000.943489
 31
       19.025535
  0
LINE
  8
Default
 62
255
 10
     1103.029644
 20
     1000.943489
 30
       19.025535
 11
     1103.069470
 21
     1001.003773
 31
       19.041635
  0
LINE
  8
Default
 62
255
 10
     1103.069470
 20
     1001.003773
 30
       19.041635
 11
     1103.095052
 21
     1001.056392
 31
       19.040642
  0
LINE
  8
Default
 62
255
 10
     1103.095052
 20
     1001.056392
 30
       19.040642
 11
     1103.149235
 21
     1001.130793
 31
       19.008820
  0
LINE
  8
Default
 62
255
 10
     1103.251154
 20
     1001.203900
 30
       18.935062
 11
     1103.221129
 21
     1001.230521
 31
       18.939458
  0
LINE
  8
Default
 62
255
 10
     1103.221129
 20
     1001.230521
 30
       18.939458
 11
     1103.144087
 21
     1001.296824
 31
       18.937625
  0
LINE
  8
Default
 62
255
 10
     1103.144087
 20
     1001.296824
 30
       18.937625
 11
     1103.092661
 21
     1001.325425
 31
       18.939640
  0
LINE
  8
Default
 62
255
 10
     1103.092661
 20
     1001.325425
 30
       18.939640
 11
     1103.052814
 21
     1001.344662
 31
       18.936756
  0
LINE
  8
Default
 62
255
 10
     1103.052814
 20
     1001.344662
 30
       18.936756
 11
     1103.036383
 21
     1001.293485
 31
       18.944106
  0
LINE
  8
Default
 62
255
 10
     1103.036383
 20
     1001.293485
 30
       18.944106
 11
     1103.021321
 21
     1001.196424
 31
       18.936801
  0
LINE
  8
Default
 62
255
 10
     1103.021321
 20
     1001.196424
 30
       18.936801
 11
     1103.013823
 21
     1001.161927
 31
       18.927389
  0
LINE
  8
Default
 62
255
 10
     1103.013823
 20
     1001.161927
 30
       18.927389
 11
     1103.070344
 21
     1001.175729
 31
       18.952120
  0
LINE
  8
Default
 62
255
 10
     1103.070344
 20
     1001.175729
 30
       18.952120
 11
     1103.163556
 21
     1001.171273
 31
       18.948095
  0
LINE
  8
Default
 62
255
 10
     1103.163556
 20
     1001.171273
 30
       18.948095
 11
     1103.251154
 21
     1001.203900
 31
       18.935062
  0
LINE
  8
Default
 62
255
 10
     1102.965783
 20
     1001.218271
 30
       18.901534
 11
     1102.958023
 21
     1001.248508
 31
       18.893074
  0
LINE
  8
Default
 62
255
 10
     1102.958023
 20
     1001.248508
 30
       18.893074
 11
     1102.945382
 21
     1001.278997
 31
       18.878450
  0
LINE
  8
Default
 62
255
 10
     1102.945382
 20
     1001.278997
 30
       18.878450
 11
     1102.835854
 21
     1001.258087
 31
       18.871631
  0
LINE
  8
Default
 62
255
 10
     1102.835854
 20
     1001.258087
 30
       18.871631
 11
     1102.782916
 21
     1001.216841
 31
       18.885179
  0
LINE
  8
Default
 62
255
 10
     1102.782916
 20
     1001.216841
 30
       18.885179
 11
     1102.791555
 21
     1001.177073
 31
       18.886713
  0
LINE
  8
Default
 62
255
 10
     1102.791555
 20
     1001.177073
 30
       18.886713
 11
     1102.847948
 21
     1001.139020
 31
       18.896052
  0
LINE
  8
Default
 62
255
 10
     1102.847948
 20
     1001.139020
 30
       18.896052
 11
     1102.906332
 21
     1001.203286
 31
       18.907429
  0
LINE
  8
Default
 62
255
 10
     1102.906332
 20
     1001.203286
 30
       18.907429
 11
     1102.965783
 21
     1001.218271
 31
       18.901534
  0
LINE
  8
Default
 62
255
 10
     1102.777175
 20
     1000.628731
 30
       18.915386
 11
     1102.777362
 21
     1000.694389
 31
       18.914772
  0
LINE
  8
Default
 62
255
 10
     1102.777362
 20
     1000.694389
 30
       18.914772
 11
     1102.761161
 21
     1000.800406
 31
       18.904590
  0
LINE
  8
Default
 62
255
 10
     1102.761161
 20
     1000.800406
 30
       18.904590
 11
     1102.712606
 21
     1000.821390
 31
       18.907964
  0
LINE
  8
Default
 62
255
 10
     1102.712606
 20
     1000.821390
 30
       18.907964
 11
     1102.674838
 21
     1000.793804
 31
       18.921587
  0
LINE
  8
Default
 62
255
 10
     1102.674838
 20
     1000.793804
 30
       18.921587
 11
     1102.627852
 21
     1000.770797
 31
       18.904611
  0
LINE
  8
Default
 62
255
 10
     1102.627852
 20
     1000.770797
 30
       18.904611
 11
     1102.594902
 21
     1000.682036
 31
       18.861330
  0
LINE
  8
Default
 62
255
 10
     1102.594902
 20
     1000.682036
 30
       18.861330
 11
     1102.557700
 21
     1000.642643
 31
       18.836930
  0
LINE
  8
Default
 62
255
 10
     1102.557700
 20
     1000.642643
 30
       18.836930
 11
     1102.648306
 21
     1000.598225
 31
       18.872018
  0
LINE
  8
Default
 62
255
 10
     1102.648306
 20
     1000.598225
 30
       18.872018
 11
     1102.711375
 21
     1000.619686
 31
       18.895273
  0
LINE
  8
Default
 62
255
 10
     1102.711375
 20
     1000.619686
 30
       18.895273
 11
     1102.777175
 21
     1000.628731
 31
       18.915386
  0
LINE
  8
Default
 62
255
 10
     1102.666015
 20
     1000.477340
 30
       18.837299
 11
     1102.675717
 21
     1000.498647
 31
       18.860021
  0
LINE
  8
Default
 62
255
 10
     1102.675717
 20
     1000.498647
 30
       18.860021
 11
     1102.680509
 21
     1000.487416
 31
       18.923506
  0
LINE
  8
Default
 62
255
 10
     1102.680509
 20
     1000.487416
 30
       18.923506
 11
     1102.710572
 21
     1000.494923
 31
       18.971525
  0
LINE
  8
Default
 62
255
 10
     1102.710572
 20
     1000.494923
 30
       18.971525
 11
     1102.748588
 21
     1000.529408
 31
       18.947020
  0
LINE
  8
Default
 62
255
 10
     1102.748588
 20
     1000.529408
 30
       18.947020
 11
     1102.772195
 21
     1000.604538
 31
       18.902636
  0
LINE
  8
Default
 62
255
 10
     1102.772195
 20
     1000.604538
 30
       18.902636
 11
     1102.777175
 21
     1000.628731
 31
       18.915386
  0
LINE
  8
Default
 62
255
 10
     1102.777175
 20
     1000.628731
 30
       18.915386
 11
     1102.812451
 21
     1000.653661
 31
       18.977692
  0
LINE
  8
Default
 62
255
 10
     1103.588121
 20
     1001.796735
 30
       18.902789
 11
     1103.623624
 21
     1001.865830
 31
       18.887089
  0
LINE
  8
Default
 62
255
 10
     1103.623624
 20
     1001.865830
 30
       18.887089
 11
     1103.570675
 21
     1001.919413
 31
       18.847873
  0
LINE
  8
Default
 62
255
 10
     1103.570675
 20
     1001.919413
 30
       18.847873
 11
     1103.507233
 21
     1001.985777
 31
       18.818001
  0
LINE
  8
Default
 62
255
 10
     1103.507233
 20
     1001.985777
 30
       18.818001
 11
     1103.465492
 21
     1002.019926
 31
       18.803002
  0
LINE
  8
Default
 62
255
 10
     1103.465492
 20
     1002.019926
 30
       18.803002
 11
     1103.406673
 21
     1002.053484
 31
       18.787556
  0
LINE
  8
Default
 62
255
 10
     1103.406673
 20
     1002.053484
 30
       18.787556
 11
     1103.269798
 21
     1002.199910
 31
       18.783035
  0
LINE
  8
Default
 62
255
 10
     1103.269798
 20
     1002.199910
 30
       18.783035
 11
     1103.181315
 21
     1002.261968
 31
       18.795539
  0
LINE
  8
Default
 62
255
 10
     1103.181315
 20
     1002.261968
 30
       18.795539
 11
     1103.125142
 21
     1002.303645
 31
       18.810573
  0
LINE
  8
Default
 62
255
 10
     1103.125142
 20
     1002.303645
 30
       18.810573
 11
     1103.090415
 21
     1002.324704
 31
       18.812315
  0
LINE
  8
Default
 62
255
 10
     1103.090415
 20
     1002.324704
 30
       18.812315
 11
     1103.038261
 21
     1002.305198
 31
       18.807750
  0
LINE
  8
Default
 62
255
 10
     1103.038261
 20
     1002.305198
 30
       18.807750
 11
     1102.987689
 21
     1002.285355
 31
       18.806551
  0
LINE
  8
Default
 62
255
 10
     1102.987689
 20
     1002.285355
 30
       18.806551
 11
     1102.928910
 21
     1002.230092
 31
       18.822464
  0
LINE
  8
Default
 62
255
 10
     1103.588121
 20
     1001.796735
 30
       18.902789
 11
     1103.530479
 21
     1001.740450
 31
       18.900319
  0
LINE
  8
Default
 62
255
 10
     1103.530479
 20
     1001.740450
 30
       18.900319
 11
     1103.499780
 21
     1001.667028
 31
       18.892600
  0
LINE
  8
Default
 62
255
 10
     1103.499780
 20
     1001.667028
 30
       18.892600
 11
     1103.466649
 21
     1001.607062
 31
       18.862079
  0
LINE
  8
Default
 62
255
 10
     1103.466649
 20
     1001.607062
 30
       18.862079
 11
     1103.458780
 21
     1001.555736
 31
       18.857348
  0
LINE
  8
Default
 62
255
 10
     1103.458780
 20
     1001.555736
 30
       18.857348
 11
     1103.405032
 21
     1001.512153
 31
       18.872921
  0
LINE
  8
Default
 62
255
 10
     1103.405032
 20
     1001.512153
 30
       18.872921
 11
     1103.365872
 21
     1001.430487
 31
       18.862877
  0
LINE
  8
Default
 62
255
 10
     1103.365872
 20
     1001.430487
 30
       18.862877
 11
     1103.299562
 21
     1001.304481
 31
       18.801055
  0
LINE
  8
Default
 62
255
 10
     1103.299562
 20
     1001.304481
 30
       18.801055
 11
     1103.236649
 21
     1001.271333
 31
       18.779091
  0
LINE
  8
Default
 62
255
 10
     1103.236649
 20
     1001.271333
 30
       18.779091
 11
     1103.182131
 21
     1001.316025
 31
       18.713547
  0
LINE
  8
Default
 62
255
 10
     1103.182131
 20
     1001.316025
 30
       18.713547
 11
     1103.032566
 21
     1001.296799
 31
       18.704125
  0
LINE
  8
Default
 62
255
 10
     1103.032566
 20
     1001.296799
 30
       18.704125
 11
     1102.850145
 21
     1001.309979
 31
       18.732869
  0
LINE
  8
Default
 62
255
 10
     1102.850145
 20
     1001.309979
 30
       18.732869
 11
     1102.777398
 21
     1001.394774
 31
       18.754306
  0
LINE
  8
Default
 62
255
 10
     1102.777398
 20
     1001.394774
 30
       18.754306
 11
     1102.657708
 21
     1001.469345
 31
       18.790726
  0
LINE
  8
Default
 62
255
 10
     1102.821922
 20
     1001.325163
 30
       18.843004
 11
     1102.766431
 21
     1001.309580
 31
       18.884333
  0
LINE
  8
Default
 62
255
 10
     1102.766431
 20
     1001.309580
 30
       18.884333
 11
     1102.760472
 21
     1001.251234
 31
       18.880553
  0
LINE
  8
Default
 62
255
 10
     1102.760472
 20
     1001.251234
 30
       18.880553
 11
     1102.837471
 21
     1001.287526
 31
       18.853075
  0
LINE
  8
Default
 62
255
 10
     1102.837471
 20
     1001.287526
 30
       18.853075
 11
     1102.821922
 21
     1001.325163
 31
       18.843004
  0
LINE
  8
Default
 62
255
 10
     1102.657708
 20
     1001.469345
 30
       18.790726
 11
     1102.615757
 21
     1001.474205
 31
       18.778989
  0
LINE
  8
Default
 62
255
 10
     1102.615757
 20
     1001.474205
 30
       18.778989
 11
     1102.522260
 21
     1001.550010
 31
       18.737438
  0
LINE
  8
Default
 62
255
 10
     1102.522260
 20
     1001.550010
 30
       18.737438
 11
     1102.580727
 21
     1001.651407
 31
       18.739519
  0
LINE
  8
Default
 62
255
 10
     1102.580727
 20
     1001.651407
 30
       18.739519
 11
     1102.632515
 21
     1001.757257
 31
       18.793422
  0
LINE
  8
Default
 62
255
 10
     1102.632515
 20
     1001.757257
 30
       18.793422
 11
     1102.649457
 21
     1001.868230
 31
       18.800365
  0
LINE
  8
Default
 62
255
 10
     1102.649457
 20
     1001.868230
 30
       18.800365
 11
     1102.714823
 21
     1001.996659
 31
       18.814185
  0
LINE
  8
Default
 62
255
 10
     1102.714823
 20
     1001.996659
 30
       18.814185
 11
     1102.786452
 21
     1002.041864
 31
       18.807961
  0
LINE
  8
Default
 62
255
 10
     1102.786452
 20
     1002.041864
 30
       18.807961
 11
     1102.828500
 21
     1002.079503
 31
       18.809179
  0
LINE
  8
Default
 62
255
 10
     1102.828500
 20
     1002.079503
 30
       18.809179
 11
     1102.880940
 21
     1002.127268
 31
       18.813081
  0
LINE
  8
Default
 62
255
 10
     1102.880940
 20
     1002.127268
 30
       18.813081
 11
     1102.908413
 21
     1002.170418
 31
       18.809920
  0
LINE
  8
Default
 62
255
 10
     1102.908413
 20
     1002.170418
 30
       18.809920
 11
     1102.928910
 21
     1002.230092
 31
       18.822464
  0
LINE
  8
Default
 62
255
 10
     1101.997473
 20
     1001.001284
 30
       19.021144
 11
     1102.039403
 21
     1001.038530
 31
       19.023100
  0
LINE
  8
Default
 62
255
 10
     1102.039403
 20
     1001.038530
 30
       19.023100
 11
     1102.079210
 21
     1001.079773
 31
       19.040676
  0
LINE
  8
Default
 62
255
 10
     1102.079210
 20
     1001.079773
 30
       19.040676
 11
     1102.140781
 21
     1001.132278
 31
       19.038065
  0
LINE
  8
Default
 62
255
 10
     1102.140781
 20
     1001.132278
 30
       19.038065
 11
     1102.200645
 21
     1001.224907
 31
       19.062869
  0
LINE
  8
Default
 62
255
 10
     1102.200645
 20
     1001.224907
 30
       19.062869
 11
     1102.236999
 21
     1001.375719
 31
       19.075034
  0
LINE
  8
Default
 62
255
 10
     1102.236999
 20
     1001.375719
 30
       19.075034
 11
     1102.228501
 21
     1001.335155
 31
       19.086449
  0
LINE
  8
Default
 62
255
 10
     1102.228501
 20
     1001.335155
 30
       19.086449
 11
     1102.200562
 21
     1001.293460
 31
       19.094797
  0
LINE
  8
Default
 62
255
 10
     1102.200562
 20
     1001.293460
 30
       19.094797
 11
     1102.163324
 21
     1001.230264
 31
       19.089646
  0
LINE
  8
Default
 62
255
 10
     1102.163324
 20
     1001.230264
 30
       19.089646
 11
     1102.083769
 21
     1001.132301
 31
       19.068897
  0
LINE
  8
Default
 62
255
 10
     1102.083769
 20
     1001.132301
 30
       19.068897
 11
     1102.024406
 21
     1001.086881
 31
       19.053703
  0
LINE
  8
Default
 62
255
 10
     1102.024406
 20
     1001.086881
 30
       19.053703
 11
     1101.987215
 21
     1001.056605
 31
       19.059997
  0
LINE
  8
Default
 62
255
 10
     1101.987215
 20
     1001.056605
 30
       19.059997
 11
     1101.965143
 21
     1001.010463
 31
       19.066324
  0
LINE
  8
Default
 62
255
 10
     1101.965143
 20
     1001.010463
 30
       19.066324
 11
     1101.961364
 21
     1000.962420
 31
       19.039837
  0
LINE
  8
Default
 62
255
 10
     1101.503107
 20
     1000.732271
 30
       19.408515
 11
     1101.546836
 21
     1000.672796
 31
       19.410271
  0
LINE
  8
Default
 62
255
 10
     1101.546836
 20
     1000.672796
 30
       19.410271
 11
     1101.609808
 21
     1000.642877
 31
       19.390234
  0
LINE
  8
Default
 62
255
 10
     1101.609808
 20
     1000.642877
 30
       19.390234
 11
     1101.726265
 21
     1000.770203
 31
       19.351361
  0
LINE
  8
Default
 62
255
 10
     1101.726265
 20
     1000.770203
 30
       19.351361
 11
     1101.781248
 21
     1000.812726
 31
       19.333627
  0
LINE
  8
Default
 62
255
 10
     1101.781248
 20
     1000.812726
 30
       19.333627
 11
     1101.814894
 21
     1000.967085
 31
       19.352947
  0
LINE
  8
Default
 62
255
 10
     1101.814894
 20
     1000.967085
 30
       19.352947
 11
     1101.874973
 21
     1001.044692
 31
       19.353570
  0
LINE
  8
Default
 62
255
 10
     1101.874973
 20
     1001.044692
 30
       19.353570
 11
     1101.934064
 21
     1001.095385
 31
       19.343245
  0
LINE
  8
Default
 62
255
 10
     1101.934064
 20
     1001.095385
 30
       19.343245
 11
     1102.014296
 21
     1001.189662
 31
       19.338501
  0
LINE
  8
Default
 62
255
 10
     1102.312092
 20
     1001.576257
 30
       19.326407
 11
     1102.014296
 21
     1001.189662
 31
       19.338501
  0
LINE
  8
Default
 62
255
 10
     1102.363564
 20
     1001.706342
 30
       19.327370
 11
     1102.472960
 21
     1001.731052
 31
       19.350960
  0
LINE
  8
Default
 62
255
 10
     1102.472960
 20
     1001.731052
 30
       19.350960
 11
     1102.524517
 21
     1001.822343
 31
       19.358754
  0
LINE
  8
Default
 62
255
 10
     1102.524517
 20
     1001.822343
 30
       19.358754
 11
     1102.661363
 21
     1002.060652
 31
       19.379160
  0
LINE
  8
Default
 62
255
 10
     1102.661363
 20
     1002.060652
 30
       19.379160
 11
     1102.750988
 21
     1002.204331
 31
       19.386677
  0
LINE
  8
Default
 62
255
 10
     1102.750988
 20
     1002.204331
 30
       19.386677
 11
     1102.820418
 21
     1002.324393
 31
       19.395442
  0
LINE
  8
Default
 62
255
 10
     1102.820418
 20
     1002.324393
 30
       19.395442
 11
     1102.834100
 21
     1002.381809
 31
       19.357064
  0
LINE
  8
Default
 62
255
 10
     1102.834100
 20
     1002.381809
 30
       19.357064
 11
     1102.860056
 21
     1002.433877
 31
       19.368027
  0
LINE
  8
Default
 62
255
 10
     1102.860056
 20
     1002.433877
 30
       19.368027
 11
     1102.959420
 21
     1002.550156
 31
       19.355869
  0
LINE
  8
Default
 62
255
 10
     1102.959420
 20
     1002.550156
 30
       19.355869
 11
     1103.023989
 21
     1002.605907
 31
       19.328525
  0
LINE
  8
Default
 62
255
 10
     1103.023989
 20
     1002.605907
 30
       19.328525
 11
     1103.082247
 21
     1002.544928
 31
       19.298614
  0
LINE
  8
Default
 62
255
 10
     1103.082247
 20
     1002.544928
 30
       19.298614
 11
     1103.184255
 21
     1002.452796
 31
       19.274270
  0
LINE
  8
Default
 62
255
 10
     1103.184255
 20
     1002.452796
 30
       19.274270
 11
     1103.298741
 21
     1002.361187
 31
       19.258518
  0
LINE
  8
Default
 62
255
 10
     1103.298741
 20
     1002.361187
 30
       19.258518
 11
     1103.485969
 21
     1002.196860
 31
       19.231932
  0
LINE
  8
Default
 62
255
 10
     1103.485969
 20
     1002.196860
 30
       19.231932
 11
     1103.735984
 21
     1001.995963
 31
       19.254664
  0
LINE
  8
Default
 62
255
 10
     1103.735984
 20
     1001.995963
 30
       19.254664
 11
     1103.804534
 21
     1001.913820
 31
       19.315167
  0
LINE
  8
Default
 62
255
 10
     1103.804534
 20
     1001.913820
 30
       19.315167
 11
     1103.781585
 21
     1001.847702
 31
       19.351159
  0
LINE
  8
Default
 62
255
 10
     1103.781585
 20
     1001.847702
 30
       19.351159
 11
     1103.689652
 21
     1001.840435
 31
       19.371900
  0
LINE
  8
Default
 62
255
 10
     1103.689652
 20
     1001.840435
 30
       19.371900
 11
     1103.649017
 21
     1001.808736
 31
       19.365738
  0
LINE
  8
Default
 62
255
 10
     1103.649017
 20
     1001.808736
 30
       19.365738
 11
     1103.651346
 21
     1001.780230
 31
       19.364440
  0
LINE
  8
Default
 62
255
 10
     1103.651346
 20
     1001.780230
 30
       19.364440
 11
     1103.638328
 21
     1001.693053
 31
       19.340675
  0
LINE
  8
Default
 62
255
 10
     1103.638328
 20
     1001.693053
 30
       19.340675
 11
     1103.372152
 21
     1001.271372
 31
       19.309825
  0
LINE
  8
Default
 62
255
 10
     1103.372152
 20
     1001.271372
 30
       19.309825
 11
     1103.284252
 21
     1001.155937
 31
       19.318523
  0
LINE
  8
Default
 62
255
 10
     1103.284252
 20
     1001.155937
 30
       19.318523
 11
     1103.212847
 21
     1001.069049
 31
       19.317837
  0
LINE
  8
Default
 62
255
 10
     1103.212847
 20
     1001.069049
 30
       19.317837
 11
     1103.157221
 21
     1000.959514
 31
       19.329249
  0
LINE
  8
Default
 62
255
 10
     1103.157221
 20
     1000.959514
 30
       19.329249
 11
     1102.985821
 21
     1000.707963
 31
       19.310988
  0
LINE
  8
Default
 62
255
 10
     1102.985821
 20
     1000.707963
 30
       19.310988
 11
     1102.926505
 21
     1000.620627
 31
       19.337511
  0
LINE
  8
Default
 62
255
 10
     1102.926505
 20
     1000.620627
 30
       19.337511
 11
     1102.787568
 21
     1000.411311
 31
       19.357832
  0
LINE
  8
Default
 62
255
 10
     1102.787568
 20
     1000.411311
 30
       19.357832
 11
     1102.672214
 21
     1000.230480
 31
       19.386891
  0
LINE
  8
Default
 62
255
 10
     1102.672214
 20
     1000.230480
 30
       19.386891
 11
     1102.582125
 21
     1000.097121
 31
       19.403836
  0
LINE
  8
Default
 62
255
 10
     1102.582125
 20
     1000.097121
 30
       19.403836
 11
     1102.545259
 21
     1000.034920
 31
       19.411560
  0
LINE
  8
Default
 62
255
 10
     1102.545259
 20
     1000.034920
 30
       19.411560
 11
     1102.506592
 21
     1000.018154
 31
       19.380635
  0
LINE
  8
Default
 62
255
 10
     1102.506592
 20
     1000.018154
 30
       19.380635
 11
     1102.404644
 21
      999.891366
 31
       19.418669
  0
LINE
  8
Default
 62
255
 10
     1102.404644
 20
      999.891366
 30
       19.418669
 11
     1102.367013
 21
      999.848803
 31
       19.418122
  0
LINE
  8
Default
 62
255
 10
     1102.367013
 20
      999.848803
 30
       19.418122
 11
     1102.278094
 21
      999.708604
 31
       19.437986
  0
LINE
  8
Default
 62
255
 10
     1102.278094
 20
      999.708604
 30
       19.437986
 11
     1102.249282
 21
      999.639093
 31
       19.445116
  0
LINE
  8
Default
 62
255
 10
     1102.249282
 20
      999.639093
 30
       19.445116
 11
     1102.223623
 21
      999.604887
 31
       19.462056
  0
LINE
  8
Default
 62
255
 10
     1102.223623
 20
      999.604887
 30
       19.462056
 11
     1102.163692
 21
      999.600256
 31
       19.590636
  0
LINE
  8
Default
 62
255
 10
     1102.163692
 20
      999.600256
 30
       19.590636
 11
     1102.131198
 21
      999.637874
 31
       19.597828
  0
LINE
  8
Default
 62
255
 10
     1102.131198
 20
      999.637874
 30
       19.597828
 11
     1102.098192
 21
      999.648928
 31
       19.626106
  0
LINE
  8
Default
 62
255
 10
     1102.098192
 20
      999.648928
 30
       19.626106
 11
     1102.081007
 21
      999.666868
 31
       19.628042
  0
LINE
  8
Default
 62
255
 10
     1102.081007
 20
      999.666868
 30
       19.628042
 11
     1102.042838
 21
      999.695394
 31
       19.612003
  0
LINE
  8
Default
 62
255
 10
     1102.042838
 20
      999.695394
 30
       19.612003
 11
     1101.977590
 21
      999.740880
 31
       19.569620
  0
LINE
  8
Default
 62
255
 10
     1101.977590
 20
      999.740880
 30
       19.569620
 11
     1101.953465
 21
      999.760067
 31
       19.533056
  0
LINE
  8
Default
 62
255
 10
     1101.953465
 20
      999.760067
 30
       19.533056
 11
     1101.888543
 21
      999.771947
 31
       19.521665
  0
LINE
  8
Default
 62
255
 10
     1101.888543
 20
      999.771947
 30
       19.521665
 11
     1101.870268
 21
      999.802537
 31
       19.534092
  0
LINE
  8
Default
 62
255
 10
     1101.870268
 20
      999.802537
 30
       19.534092
 11
     1101.833266
 21
      999.832988
 31
       19.588323
  0
LINE
  8
Default
 62
255
 10
     1101.833266
 20
      999.832988
 30
       19.588323
 11
     1101.794129
 21
      999.863494
 31
       19.599494
  0
LINE
  8
Default
 62
255
 10
     1101.794129
 20
      999.863494
 30
       19.599494
 11
     1101.757330
 21
      999.883145
 31
       19.601038
  0
LINE
  8
Default
 62
255
 10
     1101.757330
 20
      999.883145
 30
       19.601038
 11
     1101.725406
 21
      999.937892
 31
       19.520753
  0
LINE
  8
Default
 62
255
 10
     1101.725406
 20
      999.937892
 30
       19.520753
 11
     1101.679532
 21
      999.949596
 31
       19.483851
  0
LINE
  8
Default
 62
255
 10
     1101.679532
 20
      999.949596
 30
       19.483851
 11
     1101.629473
 21
      999.854963
 31
       19.581646
  0
LINE
  8
Default
 62
255
 10
     1102.312092
 20
     1001.576257
 30
       19.326407
 11
     1102.363564
 21
     1001.706342
 31
       19.327370
  0
LINE
  8
Default
 62
255
 10
     1102.305882
 20
     1001.083998
 30
       18.697511
 11
     1102.340188
 21
     1001.064867
 31
       18.690151
  0
LINE
  8
Default
 62
255
 10
     1102.340188
 20
     1001.064867
 30
       18.690151
 11
     1102.392198
 21
     1001.039694
 31
       18.692190
  0
LINE
  8
Default
 62
255
 10
     1102.392198
 20
     1001.039694
 30
       18.692190
 11
     1102.422850
 21
     1001.021968
 31
       18.694729
  0
LINE
  8
Default
 62
255
 10
     1102.422850
 20
     1001.021968
 30
       18.694729
 11
     1102.520177
 21
     1000.982784
 31
       18.678145
  0
LINE
  8
Default
 62
255
 10
     1102.520177
 20
     1000.982784
 30
       18.678145
 11
     1102.605343
 21
     1000.932790
 31
       18.686133
  0
LINE
  8
Default
 62
255
 10
     1102.605343
 20
     1000.932790
 30
       18.686133
 11
     1102.671064
 21
     1000.902407
 31
       18.676838
  0
LINE
  8
Default
 62
255
 10
     1102.671064
 20
     1000.902407
 30
       18.676838
 11
     1102.742173
 21
     1000.867269
 31
       18.684292
  0
LINE
  8
Default
 62
255
 10
     1102.742173
 20
     1000.867269
 30
       18.684292
 11
     1102.820515
 21
     1000.843169
 31
       18.699869
  0
LINE
  8
Default
 62
255
 10
     1102.820515
 20
     1000.843169
 30
       18.699869
 11
     1102.847358
 21
     1000.899860
 31
       18.680989
  0
LINE
  8
Default
 62
255
 10
     1102.847358
 20
     1000.899860
 30
       18.680989
 11
     1102.869077
 21
     1000.954027
 31
       18.662834
  0
LINE
  8
Default
 62
255
 10
     1102.305882
 20
     1001.083998
 30
       18.697511
 11
     1102.102960
 21
     1001.150905
 31
       18.741042
  0
LINE
  8
Default
 62
255
 10
     1102.102960
 20
     1001.150905
 30
       18.741042
 11
     1102.153479
 21
     1001.294045
 31
       18.717224
  0
LINE
  8
Default
 62
255
 10
     1102.153479
 20
     1001.294045
 30
       18.717224
 11
     1102.230831
 21
     1001.271959
 31
       18.693262
  0
LINE
  8
Default
 62
255
 10
     1102.869077
 20
     1000.954027
 30
       18.662834
 11
     1102.856585
 21
     1001.008454
 31
       18.649196
  0
LINE
  8
Default
 62
255
 10
     1102.856585
 20
     1001.008454
 30
       18.649196
 11
     1102.808847
 21
     1001.025735
 31
       18.647709
  0
LINE
  8
Default
 62
255
 10
     1102.808847
 20
     1001.025735
 30
       18.647709
 11
     1102.765921
 21
     1001.067657
 31
       18.673787
  0
LINE
  8
Default
 62
255
 10
     1102.765921
 20
     1001.067657
 30
       18.673787
 11
     1102.725077
 21
     1001.083769
 31
       18.660088
  0
LINE
  8
Default
 62
255
 10
     1102.725077
 20
     1001.083769
 30
       18.660088
 11
     1102.625439
 21
     1001.140837
 31
       18.673995
  0
LINE
  8
Default
 62
255
 10
     1102.625439
 20
     1001.140837
 30
       18.673995
 11
     1102.499344
 21
     1001.190888
 31
       18.660725
  0
LINE
  8
Default
 62
255
 10
     1102.230831
 20
     1001.271959
 30
       18.693262
 11
     1102.302742
 21
     1001.231724
 31
       18.696788
  0
LINE
  8
Default
 62
255
 10
     1102.302742
 20
     1001.231724
 30
       18.696788
 11
     1102.335675
 21
     1001.210760
 31
       18.690416
  0
LINE
  8
Default
 62
255
 10
     1102.335675
 20
     1001.210760
 30
       18.690416
 11
     1102.394656
 21
     1001.198232
 31
       18.685713
  0
LINE
  8
Default
 62
255
 10
     1102.394656
 20
     1001.198232
 30
       18.685713
 11
     1102.449781
 21
     1001.190421
 31
       18.660341
  0
LINE
  8
Default
 62
255
 10
     1102.449781
 20
     1001.190421
 30
       18.660341
 11
     1102.499344
 21
     1001.190888
 31
       18.660725
  0
LINE
  8
Default
 62
255
 10
     1102.469237
 20
     1000.927325
 30
       18.960366
 11
     1102.520759
 21
     1000.949614
 31
       18.954742
  0
LINE
  8
Default
 62
255
 10
     1102.669283
 20
     1000.892131
 30
       18.916984
 11
     1102.688812
 21
     1000.828804
 31
       18.893046
  0
LINE
  8
Default
 62
255
 10
     1102.688812
 20
     1000.828804
 30
       18.893046
 11
     1102.712606
 21
     1000.821390
 31
       18.907964
  0
LINE
  8
Default
 62
255
 10
     1102.545360
 20
     1000.757590
 30
       18.959363
 11
     1102.557700
 21
     1000.642643
 31
       18.836930
  0
LINE
  8
Default
 62
255
 10
     1102.391336
 20
     1000.847596
 30
       18.970039
 11
     1102.428423
 21
     1000.833814
 31
       18.973434
  0
LINE
  8
Default
 62
255
 10
     1102.754275
 20
     1001.402044
 30
       18.903448
 11
     1102.821922
 21
     1001.325163
 31
       18.843004
  0
LINE
  8
Default
 62
255
 10
     1102.821922
 20
     1001.325163
 30
       18.843004
 11
     1102.945382
 21
     1001.278997
 31
       18.878450
  0
LINE
  8
Default
 62
255
 10
     1102.945382
 20
     1001.278997
 30
       18.878450
 11
     1103.052814
 21
     1001.344662
 31
       18.936756
  0
LINE
  8
Default
 62
255
 10
     1103.149235
 20
     1001.130793
 30
       19.008820
 11
     1103.163556
 21
     1001.171273
 31
       18.948095
  0
LINE
  8
Default
 62
255
 10
     1103.251154
 20
     1001.203900
 30
       18.935062
 11
     1103.299562
 21
     1001.304481
 31
       18.801055
  0
LINE
  8
Default
 62
255
 10
     1102.687568
 20
     1001.204710
 30
       18.906627
 11
     1102.730578
 21
     1001.202667
 31
       18.867780
  0
LINE
  8
Default
 62
255
 10
     1102.730578
 20
     1001.202667
 30
       18.867780
 11
     1102.791555
 21
     1001.177073
 31
       18.886713
  0
LINE
  8
Default
 62
255
 10
     1101.997473
 20
     1001.001284
 30
       19.021144
 11
     1101.961364
 21
     1000.962420
 31
       19.039837
  0
ENDSEC
  0
EOF
