  0
SECTION
  2
HEADER
  9
$PDMODE
 70
   34
  9
$PDSIZE
 40
   -3.0
  0
ENDSEC
  0
SECTION
  2
TABLES
  0
TABLE
  2
LTYPE
 70
 1
  0
LTYPE
  2
CONTINUOUS
  70
 64
  3
Solid line
  72
 65
 73
 0
  40
 0.0
  0
ENDTAB
  0
TABLE
  2
LAYER
 70
 1
 0
LAYER
  2
Default
  70
 0
 62
 7
  6
CONTINUOUS
  0
ENDTAB
  0 
ENDSEC
  0
SECTION
  2
ENTITIES
  0
POINT
  8
Default
 62
255
 10
     1086.732000
 20
      990.966000
 30
       19.877000
  0
POINT
  8
Default
 62
255
 10
     1087.365607
 20
      991.177004
 30
       19.698675
  0
POINT
  8
Default
 62
255
 10
     1085.862000
 20
      989.846000
 30
       19.994000
  0
POINT
  8
Default
 62
255
 10
     1088.120000
 20
      992.173000
 30
       19.578000
  0
POINT
  8
Default
 62
255
 10
     1087.345979
 20
      991.182979
 30
       19.715289
  0
POINT
  8
Default
 62
255
 10
     1087.342251
 20
      991.305810
 30
       19.554745
  0
POINT
  8
Default
 62
255
 10
     1088.747022
 20
      991.438601
 30
       19.209630
  0
POINT
  8
Default
 62
255
 10
     1088.525122
 20
      991.330835
 30
       19.206388
  0
POINT
  8
Default
 62
255
 10
     1089.054524
 20
      991.686344
 30
       19.436544
  0
POINT
  8
Default
 62
255
 10
     1091.190000
 20
      989.996000
 30
       19.568000
  0
POINT
  8
Default
 62
255
 10
     1091.718000
 20
      989.311000
 30
       19.738000
  0
POINT
  8
Default
 62
255
 10
     1090.962000
 20
      988.277000
 30
       19.998000
  0
POINT
  8
Default
 62
255
 10
     1090.041000
 20
      987.283000
 30
       19.877000
  0
POINT
  8
Default
 62
255
 10
     1089.346000
 20
      986.530000
 30
       19.985000
  0
POINT
  8
Default
 62
255
 10
     1087.982000
 20
      987.848000
 30
       19.830000
  0
POINT
  8
Default
 62
255
 10
     1089.317862
 20
      989.110790
 30
       19.810749
  0
POINT
  8
Default
 62
255
 10
     1089.349747
 20
      988.853705
 30
       19.821680
  0
POINT
  8
Default
 62
255
 10
     1089.314555
 20
      989.071084
 30
       19.821667
  0
POINT
  8
Default
 62
255
 10
     1087.369000
 20
      988.366000
 30
       19.822000
  0
POINT
  8
Default
 62
255
 10
     1088.749915
 20
      990.723570
 30
       19.790581
  0
POINT
  8
Default
 62
255
 10
     1087.499025
 20
      990.542930
 30
       19.717581
  0
POINT
  8
Default
 62
255
 10
     1087.781069
 20
      991.698336
 30
       19.576431
  0
POINT
  8
Default
 62
255
 10
     1088.015734
 20
      991.947762
 30
       19.581674
  0
POINT
  8
Default
 62
255
 10
     1088.262144
 20
      991.891764
 30
       19.476481
  0
POINT
  8
Default
 62
255
 10
     1088.676327
 20
      991.184577
 30
       19.328249
  0
POINT
  8
Default
 62
255
 10
     1088.445743
 20
      991.212099
 30
       19.271555
  0
POINT
  8
Default
 62
255
 10
     1088.499516
 20
      990.924888
 30
       19.439816
  0
POINT
  8
Default
 62
255
 10
     1088.340667
 20
      991.142851
 30
       19.283372
  0
POINT
  8
Default
 62
255
 10
     1088.385145
 20
      991.884474
 30
       19.515796
  0
POINT
  8
Default
 62
255
 10
     1088.036712
 20
      991.686357
 30
       19.490112
  0
POINT
  8
Default
 62
255
 10
     1090.689586
 20
      989.978031
 30
       19.591118
  0
POINT
  8
Default
 62
255
 10
     1090.070759
 20
      989.391983
 30
       19.791601
  0
POINT
  8
Default
 62
255
 10
     1090.628340
 20
      989.318753
 30
       19.832892
  0
POINT
  8
Default
 62
255
 10
     1090.361108
 20
      989.547550
 30
       19.827740
  0
POINT
  8
Default
 62
255
 10
     1087.990739
 20
      988.169771
 30
       19.886706
  0
POINT
  8
Default
 62
255
 10
     1087.738636
 20
      988.259955
 30
       19.846833
  0
POINT
  8
Default
 62
255
 10
     1088.500866
 20
      988.048495
 30
       19.845780
  0
POINT
  8
Default
 62
255
 10
     1088.423520
 20
      987.774464
 30
       19.841845
  0
POINT
  8
Default
 62
255
 10
     1088.940917
 20
      989.054098
 30
       19.714486
  0
POINT
  8
Default
 62
255
 10
     1089.153903
 20
      988.683125
 30
       19.786358
  0
POINT
  8
Default
 62
255
 10
     1088.693482
 20
      988.321720
 30
       19.830364
  0
POINT
  8
Default
 62
255
 10
     1087.812387
 20
      989.758399
 30
       19.579594
  0
POINT
  8
Default
 62
255
 10
     1087.738157
 20
      990.213314
 30
       19.490637
  0
POINT
  8
Default
 62
255
 10
     1087.358084
 20
      990.474685
 30
       19.513509
  0
POINT
  8
Default
 62
255
 10
     1088.420359
 20
      990.111844
 30
       19.452138
  0
POINT
  8
Default
 62
255
 10
     1088.723737
 20
      990.113540
 30
       19.531329
  0
POINT
  8
Default
 62
255
 10
     1088.851703
 20
      989.624410
 30
       19.513671
  0
POINT
  8
Default
 62
255
 10
     1087.975539
 20
      990.599638
 30
       19.596522
  0
POINT
  8
Default
 62
255
 10
     1088.842528
 20
      988.548013
 30
       19.811992
  0
POINT
  8
Default
 62
255
 10
     1086.571231
 20
      990.117555
 30
       19.391202
  0
POINT
  8
Default
 62
255
 10
     1086.899719
 20
      990.164987
 30
       19.550190
  0
POINT
  8
Default
 62
255
 10
     1086.627294
 20
      989.969910
 30
       19.407256
  0
POINT
  8
Default
 62
255
 10
     1086.779484
 20
      989.577169
 30
       19.448154
  0
POINT
  8
Default
 62
255
 10
     1086.525428
 20
      989.513350
 30
       19.421276
  0
POINT
  8
Default
 62
255
 10
     1087.213959
 20
      989.633294
 30
       19.639873
  0
POINT
  8
Default
 62
255
 10
     1087.057712
 20
      989.918392
 30
       19.479470
  0
POINT
  8
Default
 62
255
 10
     1086.857053
 20
      990.038041
 30
       19.412562
  0
POINT
  8
Default
 62
255
 10
     1086.737500
 20
      989.795393
 30
       19.433969
  0
POINT
  8
Default
 62
255
 10
     1087.066177
 20
      989.642535
 30
       19.524170
  0
POINT
  8
Default
 62
255
 10
     1086.978933
 20
      989.653601
 30
       19.473862
  0
POINT
  8
Default
 62
255
 10
     1087.129498
 20
      990.265133
 30
       19.550973
  0
POINT
  8
Default
 62
255
 10
     1087.443854
 20
      990.297417
 30
       19.539876
  0
POINT
  8
Default
 62
255
 10
     1087.541514
 20
      990.000282
 30
       19.565446
  0
POINT
  8
Default
 62
255
 10
     1088.237688
 20
      990.124788
 30
       19.638051
  0
POINT
  8
Default
 62
255
 10
     1088.360071
 20
      989.303674
 30
       19.609462
  0
POINT
  8
Default
 62
255
 10
     1087.903546
 20
      990.013440
 30
       19.554591
  0
POINT
  8
Default
 62
255
 10
     1087.763724
 20
      990.032329
 30
       19.565406
  0
POINT
  8
Default
 62
255
 10
     1088.153106
 20
      990.865205
 30
       19.630300
  0
POINT
  8
Default
 62
255
 10
     1088.846933
 20
      989.123016
 30
       19.709053
  0
POINT
  8
Default
 62
255
 10
     1088.605704
 20
      989.505992
 30
       19.678113
  0
POINT
  8
Default
 62
255
 10
     1086.428000
 20
      989.216000
 30
       19.373000
  0
POINT
  8
Default
 62
255
 10
     1088.455207
 20
      987.318491
 30
       19.572793
  0
POINT
  8
Default
 62
255
 10
     1089.448000
 20
      991.283000
 30
       19.462000
  0
POINT
  8
Default
 62
255
 10
     1090.353000
 20
      990.620000
 30
       19.554000
  0
POINT
  8
Default
 62
255
 10
     1089.702261
 20
      987.389060
 30
       19.949539
  0
POINT
  8
Default
 62
255
 10
     1089.962066
 20
      988.775593
 30
       19.804523
  0
POINT
  8
Default
 62
255
 10
     1090.097211
 20
      988.719997
 30
       19.797982
  0
POINT
  8
Default
 62
255
 10
     1089.498849
 20
      987.765809
 30
       19.844829
  0
POINT
  8
Default
 62
255
 10
     1090.234346
 20
      987.778275
 30
       19.890158
  0
POINT
  8
Default
 62
255
 10
     1089.039823
 20
      987.580477
 30
       19.801054
  0
POINT
  8
Default
 62
255
 10
     1089.476845
 20
      988.301868
 30
       19.816630
  0
POINT
  8
Default
 62
255
 10
     1089.526993
 20
      989.657145
 30
       19.803001
  0
POINT
  8
Default
 62
255
 10
     1090.946014
 20
      989.516331
 30
       19.793218
  0
POINT
  8
Default
 62
255
 10
     1089.231138
 20
      987.553713
 30
       19.811039
  0
POINT
  8
Default
 62
255
 10
     1089.747761
 20
      987.195565
 30
       19.938782
  0
POINT
  8
Default
 62
255
 10
     1089.704577
 20
      987.275654
 30
       19.949019
  0
POINT
  8
Default
 62
255
 10
     1089.385634
 20
      986.758434
 30
       19.708134
  0
POINT
  8
Default
 62
255
 10
     1088.753058
 20
      987.654116
 30
       19.855200
  0
POINT
  8
Default
 62
255
 10
     1088.386202
 20
      987.539050
 30
       19.836406
  0
POINT
  8
Default
 62
255
 10
     1088.508472
 20
      987.675055
 30
       19.860186
  0
POINT
  8
Default
 62
255
 10
     1088.644103
 20
      987.541115
 30
       19.865131
  0
POINT
  8
Default
 62
255
 10
     1089.079717
 20
      986.970549
 30
       19.742055
  0
POINT
  8
Default
 62
255
 10
     1088.634412
 20
      987.028492
 30
       19.553658
  0
POINT
  8
Default
 62
255
 10
     1088.434262
 20
      987.173326
 30
       19.921331
  0
POINT
  8
Default
 62
255
 10
     1088.445003
 20
      987.201471
 30
       19.728600
  0
POINT
  8
Default
 62
255
 10
     1088.691821
 20
      986.924295
 30
       19.832226
  0
POINT
  8
Default
 62
255
 10
     1088.592947
 20
      987.115549
 30
       19.586810
  0
POINT
  8
Default
 62
255
 10
     1088.576198
 20
      986.997116
 30
       19.929523
  0
POINT
  8
Default
 62
255
 10
     1088.548422
 20
      987.061608
 30
       19.664138
  0
POINT
  8
Default
 62
255
 10
     1088.416715
 20
      987.249659
 30
       19.633275
  0
POINT
  8
Default
 62
255
 10
     1088.690377
 20
      986.880357
 30
       19.924925
  0
POINT
  8
Default
 62
255
 10
     1088.586193
 20
      986.992789
 30
       19.781910
  0
POINT
  8
Default
 62
255
 10
     1089.393266
 20
      988.197629
 30
       19.813651
  0
POINT
  8
Default
 62
255
 10
     1089.677671
 20
      988.184280
 30
       19.828805
  0
POINT
  8
Default
 62
255
 10
     1089.758878
 20
      987.779369
 30
       19.893863
  0
POINT
  8
Default
 62
255
 10
     1089.863368
 20
      988.319555
 30
       19.828710
  0
POINT
  8
Default
 62
255
 10
     1090.415951
 20
      987.701601
 30
       19.866729
  0
POINT
  8
Default
 62
255
 10
     1090.175315
 20
      988.168203
 30
       19.862604
  0
POINT
  8
Default
 62
255
 10
     1088.287330
 20
      990.886089
 30
       19.640847
  0
POINT
  8
Default
 62
255
 10
     1087.995261
 20
      991.255154
 30
       19.589842
  0
POINT
  8
Default
 62
255
 10
     1088.029502
 20
      991.126228
 30
       19.591102
  0
POINT
  8
Default
 62
255
 10
     1088.122934
 20
      991.014146
 30
       19.617337
  0
POINT
  8
Default
 62
255
 10
     1088.205257
 20
      990.947023
 30
       19.622988
  0
POINT
  8
Default
 62
255
 10
     1088.372985
 20
      990.851364
 30
       19.642930
  0
POINT
  8
Default
 62
255
 10
     1088.503337
 20
      990.848790
 30
       19.635525
  0
POINT
  8
Default
 62
255
 10
     1088.592940
 20
      990.862185
 30
       19.640955
  0
POINT
  8
Default
 62
255
 10
     1088.681861
 20
      990.882509
 30
       19.653287
  0
POINT
  8
Default
 62
255
 10
     1087.976689
 20
      991.384502
 30
       19.573265
  0
POINT
  8
Default
 62
255
 10
     1087.979904
 20
      991.327592
 30
       19.577702
  0
POINT
  8
Default
 62
255
 10
     1087.972230
 20
      991.450905
 30
       19.550983
  0
POINT
  8
Default
 62
255
 10
     1087.958668
 20
      991.578819
 30
       19.559187
  0
POINT
  8
Default
 62
255
 10
     1087.873660
 20
      991.542331
 30
       19.556904
  0
POINT
  8
Default
 62
255
 10
     1087.918832
 20
      991.488233
 30
       19.559632
  0
POINT
  8
Default
 62
255
 10
     1088.441216
 20
      990.974872
 30
       19.386833
  0
POINT
  8
Default
 62
255
 10
     1088.362551
 20
      991.066749
 30
       19.319776
  0
POINT
  8
Default
 62
255
 10
     1088.514223
 20
      991.066429
 30
       19.367507
  0
POINT
  8
Default
 62
255
 10
     1088.578427
 20
      990.996234
 30
       19.421780
  0
POINT
  8
Default
 62
255
 10
     1088.257561
 20
      991.254826
 30
       19.238193
  0
POINT
  8
Default
 62
255
 10
     1088.235851
 20
      991.327601
 30
       19.203665
  0
POINT
  8
Default
 62
255
 10
     1088.368489
 20
      991.378023
 30
       19.187648
  0
POINT
  8
Default
 62
255
 10
     1088.375723
 20
      991.262870
 30
       19.252888
  0
POINT
  8
Default
 62
255
 10
     1088.231420
 20
      991.441694
 30
       19.194557
  0
POINT
  8
Default
 62
255
 10
     1088.277973
 20
      991.505579
 30
       19.183577
  0
POINT
  8
Default
 62
255
 10
     1088.339979
 20
      991.469432
 30
       19.187312
  0
POINT
  8
Default
 62
255
 10
     1088.349493
 20
      991.549639
 30
       19.165100
  0
POINT
  8
Default
 62
255
 10
     1088.470686
 20
      991.527603
 30
       19.173014
  0
POINT
  8
Default
 62
255
 10
     1088.474237
 20
      991.452917
 30
       19.190347
  0
POINT
  8
Default
 62
255
 10
     1088.597751
 20
      991.423389
 30
       19.197872
  0
POINT
  8
Default
 62
255
 10
     1088.475698
 20
      991.638747
 30
       19.154423
  0
POINT
  8
Default
 62
255
 10
     1088.577054
 20
      991.644463
 30
       19.160232
  0
POINT
  8
Default
 62
255
 10
     1088.644816
 20
      991.621706
 30
       19.176230
  0
POINT
  8
Default
 62
255
 10
     1088.683865
 20
      991.576829
 30
       19.175692
  0
POINT
  8
Default
 62
255
 10
     1088.596710
 20
      991.519374
 30
       19.162326
  0
POINT
  8
Default
 62
255
 10
     1088.769556
 20
      991.360245
 30
       19.250675
  0
POINT
  8
Default
 62
255
 10
     1088.612193
 20
      991.265604
 30
       19.267777
  0
POINT
  8
Default
 62
255
 10
     1088.558213
 20
      991.163584
 30
       19.320199
  0
POINT
  8
Default
 62
255
 10
     1088.760886
 20
      991.054733
 30
       19.416911
  0
POINT
  8
Default
 62
255
 10
     1088.632820
 20
      990.931679
 30
       19.472516
  0
POINT
  8
Default
 62
255
 10
     1088.746639
 20
      990.998601
 30
       19.442398
  0
POINT
  8
Default
 62
255
 10
     1088.622299
 20
      991.066829
 30
       19.391802
  0
POINT
  8
Default
 62
255
 10
     1088.778254
 20
      991.156402
 30
       19.358270
  0
POINT
  8
Default
 62
255
 10
     1088.816118
 20
      991.254455
 30
       19.321307
  0
POINT
  8
Default
 62
255
 10
     1089.012951
 20
      987.643207
 30
       19.805789
  0
POINT
  8
Default
 62
255
 10
     1088.865780
 20
      987.657858
 30
       19.824153
  0
POINT
  8
Default
 62
255
 10
     1088.827645
 20
      987.665062
 30
       19.854788
  0
POINT
  8
Default
 62
255
 10
     1089.157522
 20
      987.544851
 30
       19.793857
  0
POINT
  8
Default
 62
255
 10
     1088.960539
 20
      987.724119
 30
       19.800878
  0
POINT
  8
Default
 62
255
 10
     1088.558790
 20
      987.574424
 30
       19.885933
  0
POINT
  8
Default
 62
255
 10
     1088.599116
 20
      987.777394
 30
       19.805822
  0
POINT
  8
Default
 62
255
 10
     1088.798792
 20
      987.797997
 30
       19.818590
  0
POINT
  8
Default
 62
255
 10
     1088.228775
 20
      987.644937
 30
       19.838068
  0
POINT
  8
Default
 62
255
 10
     1088.429170
 20
      987.480421
 30
       19.851295
  0
POINT
  8
Default
 62
255
 10
     1088.418169
 20
      987.406246
 30
       19.926268
  0
POINT
  8
Default
 62
255
 10
     1088.589480
 20
      987.271382
 30
       19.538861
  0
POINT
  8
Default
 62
255
 10
     1088.618127
 20
      987.119510
 30
       19.499601
  0
POINT
  8
Default
 62
255
 10
     1088.546683
 20
      987.391597
 30
       19.561369
  0
POINT
  8
Default
 62
255
 10
     1088.968277
 20
      986.887381
 30
       19.827655
  0
POINT
  8
Default
 62
255
 10
     1089.026023
 20
      986.971011
 30
       19.774301
  0
POINT
  8
Default
 62
255
 10
     1089.118789
 20
      987.092346
 30
       19.771999
  0
POINT
  8
Default
 62
255
 10
     1088.946453
 20
      986.861022
 30
       19.895720
  0
POINT
  8
Default
 62
255
 10
     1088.947692
 20
      986.836677
 30
       19.948842
  0
POINT
  8
Default
 62
255
 10
     1088.891138
 20
      986.774484
 30
       19.982833
  0
POINT
  8
Default
 62
255
 10
     1089.019917
 20
      986.790376
 30
       19.880972
  0
POINT
  8
Default
 62
255
 10
     1089.038988
 20
      986.766453
 30
       19.961325
  0
POINT
  8
Default
 62
255
 10
     1088.951010
 20
      986.683767
 30
       19.989189
  0
POINT
  8
Default
 62
255
 10
     1089.025238
 20
      986.611842
 30
       19.987882
  0
POINT
  8
Default
 62
255
 10
     1089.110019
 20
      986.532049
 30
       19.961582
  0
POINT
  8
Default
 62
255
 10
     1089.209223
 20
      986.446589
 30
       19.942282
  0
POINT
  8
Default
 62
255
 10
     1089.309436
 20
      986.633581
 30
       19.937371
  0
POINT
  8
Default
 62
255
 10
     1089.178515
 20
      986.673943
 30
       19.935107
  0
POINT
  8
Default
 62
255
 10
     1089.169639
 20
      986.724006
 30
       19.912914
  0
POINT
  8
Default
 62
255
 10
     1089.329566
 20
      986.324444
 30
       19.918316
  0
POINT
  8
Default
 62
255
 10
     1089.420604
 20
      986.469961
 30
       19.925108
  0
POINT
  8
Default
 62
255
 10
     1089.366031
 20
      986.559174
 30
       19.939811
  0
POINT
  8
Default
 62
255
 10
     1089.485070
 20
      986.563925
 30
       19.905562
  0
POINT
  8
Default
 62
255
 10
     1089.330036
 20
      986.672330
 30
       19.762309
  0
POINT
  8
Default
 62
255
 10
     1089.268082
 20
      986.775297
 30
       19.726351
  0
POINT
  8
Default
 62
255
 10
     1089.156898
 20
      986.775953
 30
       19.722470
  0
POINT
  8
Default
 62
255
 10
     1089.400370
 20
      986.626048
 30
       19.787576
  0
POINT
  8
Default
 62
255
 10
     1089.462825
 20
      986.700179
 30
       19.720335
  0
POINT
  8
Default
 62
255
 10
     1089.554248
 20
      986.742708
 30
       19.717268
  0
POINT
  8
Default
 62
255
 10
     1089.508265
 20
      986.649078
 30
       19.746615
  0
POINT
  8
Default
 62
255
 10
     1089.696646
 20
      986.698569
 30
       19.765000
  0
POINT
  8
Default
 62
255
 10
     1089.653856
 20
      986.616779
 30
       19.864583
  0
POINT
  8
Default
 62
255
 10
     1089.634281
 20
      986.695641
 30
       19.765966
  0
POINT
  8
Default
 62
255
 10
     1089.168649
 20
      986.940926
 30
       19.701985
  0
POINT
  8
Default
 62
255
 10
     1089.034482
 20
      986.814158
 30
       19.755266
  0
POINT
  8
Default
 62
255
 10
     1089.877431
 20
      987.062060
 30
       19.890974
  0
POINT
  8
Default
 62
255
 10
     1089.860421
 20
      986.944594
 30
       19.882456
  0
POINT
  8
Default
 62
255
 10
     1089.782334
 20
      987.087134
 30
       19.907231
  0
POINT
  8
Default
 62
255
 10
     1089.877030
 20
      987.212097
 30
       19.889336
  0
POINT
  8
Default
 62
255
 10
     1089.977163
 20
      987.188119
 30
       19.875778
  0
POINT
  8
Default
 62
255
 10
     1090.024921
 20
      987.088199
 30
       19.905168
  0
POINT
  8
Default
 62
255
 10
     1089.393444
 20
      987.333862
 30
       19.967118
  0
POINT
  8
Default
 62
255
 10
     1089.411941
 20
      987.434322
 30
       19.964325
  0
POINT
  8
Default
 62
255
 10
     1089.520175
 20
      987.538147
 30
       19.918946
  0
POINT
  8
Default
 62
255
 10
     1089.603966
 20
      987.665711
 30
       19.914480
  0
POINT
  8
Default
 62
255
 10
     1089.668548
 20
      987.497822
 30
       19.963210
  0
POINT
  8
Default
 62
255
 10
     1090.004477
 20
      987.580696
 30
       19.921837
  0
POINT
  8
Default
 62
255
 10
     1089.879950
 20
      987.637453
 30
       19.929014
  0
POINT
  8
Default
 62
255
 10
     1089.828209
 20
      987.739246
 30
       19.910791
  0
POINT
  8
Default
 62
255
 10
     1090.077223
 20
      987.411220
 30
       19.872960
  0
POINT
  8
Default
 62
255
 10
     1090.212744
 20
      987.589659
 30
       19.888627
  0
POINT
  8
Default
 62
255
 10
     1089.954497
 20
      987.413727
 30
       19.930495
  0
POINT
  8
Default
 62
255
 10
     1090.134643
 20
      987.162997
 30
       19.849310
  0
POINT
  8
Default
 62
255
 10
     1090.221121
 20
      987.351468
 30
       19.851522
  0
POINT
  8
Default
 62
255
 10
     1090.064711
 20
      987.836208
 30
       19.883325
  0
POINT
  8
Default
 62
255
 10
     1089.995432
 20
      987.970377
 30
       19.867256
  0
POINT
  8
Default
 62
255
 10
     1089.869909
 20
      987.977775
 30
       19.859385
  0
POINT
  8
Default
 62
255
 10
     1090.164320
 20
      988.319746
 30
       19.851066
  0
POINT
  8
Default
 62
255
 10
     1090.063544
 20
      988.371307
 30
       19.845557
  0
POINT
  8
Default
 62
255
 10
     1090.353025
 20
      988.334101
 30
       19.848769
  0
POINT
  8
Default
 62
255
 10
     1090.153686
 20
      988.482313
 30
       19.819420
  0
POINT
  8
Default
 62
255
 10
     1090.030063
 20
      988.189302
 30
       19.845622
  0
POINT
  8
Default
 62
255
 10
     1089.964642
 20
      988.196910
 30
       19.849417
  0
POINT
  8
Default
 62
255
 10
     1090.552206
 20
      987.715666
 30
       19.873399
  0
POINT
  8
Default
 62
255
 10
     1090.506932
 20
      987.868457
 30
       19.845841
  0
POINT
  8
Default
 62
255
 10
     1090.374315
 20
      988.031781
 30
       19.824377
  0
POINT
  8
Default
 62
255
 10
     1090.462289
 20
      988.183259
 30
       19.798856
  0
POINT
  8
Default
 62
255
 10
     1087.594164
 20
      990.339603
 30
       19.705175
  0
POINT
  8
Default
 62
255
 10
     1087.714133
 20
      990.411789
 30
       19.715878
  0
POINT
  8
Default
 62
255
 10
     1087.469533
 20
      990.423979
 30
       19.710683
  0
POINT
  8
Default
 62
255
 10
     1087.377834
 20
      990.491229
 30
       19.699167
  0
POINT
  8
Default
 62
255
 10
     1087.275502
 20
      990.589975
 30
       19.666268
  0
POINT
  8
Default
 62
255
 10
     1087.162197
 20
      990.708226
 30
       19.653600
  0
POINT
  8
Default
 62
255
 10
     1087.076845
 20
      990.811557
 30
       19.654211
  0
POINT
  8
Default
 62
255
 10
     1087.033389
 20
      990.891910
 30
       19.643259
  0
POINT
  8
Default
 62
255
 10
     1087.743346
 20
      990.366539
 30
       19.559903
  0
POINT
  8
Default
 62
255
 10
     1087.632952
 20
      990.328165
 30
       19.590566
  0
POINT
  8
Default
 62
255
 10
     1087.534969
 20
      990.363164
 30
       19.607835
  0
POINT
  8
Default
 62
255
 10
     1087.432306
 20
      990.454431
 30
       19.580630
  0
POINT
  8
Default
 62
255
 10
     1087.341804
 20
      990.538538
 30
       19.556285
  0
POINT
  8
Default
 62
255
 10
     1087.251742
 20
      990.620888
 30
       19.524429
  0
POINT
  8
Default
 62
255
 10
     1087.139102
 20
      990.725944
 30
       19.483184
  0
POINT
  8
Default
 62
255
 10
     1086.960952
 20
      990.886980
 30
       19.462037
  0
POINT
  8
Default
 62
255
 10
     1087.041795
 20
      990.807007
 30
       19.477545
  0
POINT
  8
Default
 62
255
 10
     1087.805683
 20
      990.511686
 30
       19.694336
  0
POINT
  8
Default
 62
255
 10
     1087.875978
 20
      990.594466
 30
       19.717834
  0
POINT
  8
Default
 62
255
 10
     1087.820067
 20
      990.715867
 30
       19.726002
  0
POINT
  8
Default
 62
255
 10
     1087.638416
 20
      990.737667
 30
       19.711177
  0
POINT
  8
Default
 62
255
 10
     1087.571344
 20
      990.561793
 30
       19.719001
  0
POINT
  8
Default
 62
255
 10
     1087.545454
 20
      990.869650
 30
       19.703095
  0
POINT
  8
Default
 62
255
 10
     1087.364990
 20
      991.026904
 30
       19.693925
  0
POINT
  8
Default
 62
255
 10
     1087.435185
 20
      990.898893
 30
       19.688269
  0
POINT
  8
Default
 62
255
 10
     1087.461386
 20
      990.725143
 30
       19.710202
  0
POINT
  8
Default
 62
255
 10
     1087.199394
 20
      990.868346
 30
       19.688889
  0
POINT
  8
Default
 62
255
 10
     1087.260206
 20
      991.007022
 30
       19.636562
  0
POINT
  8
Default
 62
255
 10
     1087.234763
 20
      991.086793
 30
       19.673612
  0
POINT
  8
Default
 62
255
 10
     1087.100922
 20
      990.983272
 30
       19.680797
  0
POINT
  8
Default
 62
255
 10
     1087.952919
 20
      990.681046
 30
       19.737865
  0
POINT
  8
Default
 62
255
 10
     1087.927432
 20
      990.732505
 30
       19.733196
  0
POINT
  8
Default
 62
255
 10
     1087.658305
 20
      990.956337
 30
       19.718868
  0
POINT
  8
Default
 62
255
 10
     1087.734829
 20
      990.882921
 30
       19.729362
  0
POINT
  8
Default
 62
255
 10
     1087.453921
 20
      991.119221
 30
       19.687667
  0
POINT
  8
Default
 62
255
 10
     1087.408337
 20
      991.156860
 30
       19.686647
  0
POINT
  8
Default
 62
255
 10
     1087.550017
 20
      991.045952
 30
       19.683422
  0
POINT
  8
Default
 62
255
 10
     1087.239784
 20
      991.275703
 30
       19.631392
  0
POINT
  8
Default
 62
255
 10
     1087.329633
 20
      991.205984
 30
       19.675583
  0
POINT
  8
Default
 62
255
 10
     1087.291101
 20
      991.244728
 30
       19.638309
  0
POINT
  8
Default
 62
255
 10
     1087.214521
 20
      991.212349
 30
       19.670817
  0
POINT
  8
Default
 62
255
 10
     1087.140960
 20
      991.124015
 30
       19.677626
  0
POINT
  8
Default
 62
255
 10
     1087.030740
 20
      991.047872
 30
       19.686289
  0
POINT
  8
Default
 62
255
 10
     1086.942287
 20
      990.962380
 30
       19.677065
  0
POINT
  8
Default
 62
255
 10
     1087.039072
 20
      990.880512
 30
       19.687259
  0
POINT
  8
Default
 62
255
 10
     1087.373743
 20
      991.183039
 30
       19.567510
  0
POINT
  8
Default
 62
255
 10
     1087.304042
 20
      991.231552
 30
       19.559240
  0
POINT
  8
Default
 62
255
 10
     1087.675824
 20
      990.950456
 30
       19.584711
  0
POINT
  8
Default
 62
255
 10
     1087.591064
 20
      991.009981
 30
       19.568261
  0
POINT
  8
Default
 62
255
 10
     1087.531141
 20
      991.058675
 30
       19.561072
  0
POINT
  8
Default
 62
255
 10
     1087.442247
 20
      991.128338
 30
       19.559584
  0
POINT
  8
Default
 62
255
 10
     1087.488555
 20
      991.089756
 30
       19.555585
  0
POINT
  8
Default
 62
255
 10
     1087.720599
 20
      990.908610
 30
       19.590333
  0
POINT
  8
Default
 62
255
 10
     1087.838842
 20
      990.829719
 30
       19.603431
  0
POINT
  8
Default
 62
255
 10
     1087.912318
 20
      990.766980
 30
       19.611776
  0
POINT
  8
Default
 62
255
 10
     1087.526351
 20
      991.260495
 30
       19.559698
  0
POINT
  8
Default
 62
255
 10
     1087.730423
 20
      991.192856
 30
       19.570733
  0
POINT
  8
Default
 62
255
 10
     1087.615343
 20
      991.495784
 30
       19.556295
  0
POINT
  8
Default
 62
255
 10
     1087.550729
 20
      991.386414
 30
       19.561022
  0
POINT
  8
Default
 62
255
 10
     1088.082696
 20
      990.658539
 30
       19.637609
  0
POINT
  8
Default
 62
255
 10
     1088.183945
 20
      990.579785
 30
       19.648768
  0
POINT
  8
Default
 62
255
 10
     1088.370369
 20
      990.501691
 30
       19.704541
  0
POINT
  8
Default
 62
255
 10
     1088.287895
 20
      990.482995
 30
       19.656547
  0
POINT
  8
Default
 62
255
 10
     1088.343566
 20
      990.629925
 30
       19.656882
  0
POINT
  8
Default
 62
255
 10
     1088.206991
 20
      990.746525
 30
       19.641965
  0
POINT
  8
Default
 62
255
 10
     1088.459936
 20
      990.731592
 30
       19.671239
  0
POINT
  8
Default
 62
255
 10
     1087.626394
 20
      991.242126
 30
       19.563181
  0
POINT
  8
Default
 62
255
 10
     1087.703194
 20
      991.429865
 30
       19.564012
  0
POINT
  8
Default
 62
255
 10
     1087.981331
 20
      990.968452
 30
       19.599073
  0
POINT
  8
Default
 62
255
 10
     1087.679455
 20
      991.768728
 30
       19.568259
  0
POINT
  8
Default
 62
255
 10
     1087.813646
 20
      991.889149
 30
       19.597383
  0
POINT
  8
Default
 62
255
 10
     1087.965688
 20
      991.769894
 30
       19.560345
  0
POINT
  8
Default
 62
255
 10
     1087.914153
 20
      991.877221
 30
       19.575756
  0
POINT
  8
Default
 62
255
 10
     1088.194392
 20
      991.733802
 30
       19.437749
  0
POINT
  8
Default
 62
255
 10
     1088.379328
 20
      992.061548
 30
       19.469400
  0
POINT
  8
Default
 62
255
 10
     1088.701554
 20
      991.750796
 30
       19.513786
  0
POINT
  8
Default
 62
255
 10
     1088.625010
 20
      991.768827
 30
       19.490777
  0
POINT
  8
Default
 62
255
 10
     1088.555884
 20
      991.852089
 30
       19.515853
  0
POINT
  8
Default
 62
255
 10
     1088.561823
 20
      991.979141
 30
       19.551594
  0
POINT
  8
Default
 62
255
 10
     1088.452597
 20
      991.807213
 30
       19.494393
  0
POINT
  8
Default
 62
255
 10
     1089.160125
 20
      991.548818
 30
       19.416121
  0
POINT
  8
Default
 62
255
 10
     1088.883058
 20
      991.573579
 30
       19.392336
  0
POINT
  8
Default
 62
255
 10
     1088.916786
 20
      991.339860
 30
       19.387509
  0
POINT
  8
Default
 62
255
 10
     1088.888413
 20
      991.194320
 30
       19.415204
  0
POINT
  8
Default
 62
255
 10
     1088.826897
 20
      991.476172
 30
       19.274051
  0
POINT
  8
Default
 62
255
 10
     1088.771248
 20
      991.645306
 30
       19.310603
  0
POINT
  8
Default
 62
255
 10
     1088.698269
 20
      991.678117
 30
       19.263153
  0
POINT
  8
Default
 62
255
 10
     1088.633839
 20
      991.689005
 30
       19.216307
  0
POINT
  8
Default
 62
255
 10
     1088.570209
 20
      991.744568
 30
       19.252002
  0
POINT
  8
Default
 62
255
 10
     1088.760192
 20
      991.564863
 30
       19.231880
  0
POINT
  8
Default
 62
255
 10
     1087.007818
 20
      990.390900
 30
       19.423970
  0
POINT
  8
Default
 62
255
 10
     1086.852886
 20
      990.471937
 30
       19.420107
  0
POINT
  8
Default
 62
255
 10
     1087.030921
 20
      990.576386
 30
       19.408434
  0
POINT
  8
Default
 62
255
 10
     1086.948978
 20
      990.638251
 30
       19.430141
  0
POINT
  8
Default
 62
255
 10
     1086.886135
 20
      990.782729
 30
       19.387924
  0
POINT
  8
Default
 62
255
 10
     1086.777235
 20
      990.604173
 30
       19.390938
  0
POINT
  8
Default
 62
255
 10
     1086.864577
 20
      990.286341
 30
       19.408559
  0
POINT
  8
Default
 62
255
 10
     1086.770750
 20
      990.339577
 30
       19.401973
  0
POINT
  8
Default
 62
255
 10
     1086.668314
 20
      990.411792
 30
       19.371940
  0
POINT
  8
Default
 62
255
 10
     1086.549579
 20
      990.238692
 30
       19.372950
  0
POINT
  8
Default
 62
255
 10
     1086.953127
 20
      990.199606
 30
       19.410293
  0
POINT
  8
Default
 62
255
 10
     1086.808178
 20
      990.170212
 30
       19.400920
  0
POINT
  8
Default
 62
255
 10
     1086.537391
 20
      990.326615
 30
       19.344321
  0
POINT
  8
Default
 62
255
 10
     1086.675205
 20
      990.034568
 30
       19.398349
  0
POINT
  8
Default
 62
255
 10
     1086.851656
 20
      989.757828
 30
       19.421838
  0
POINT
  8
Default
 62
255
 10
     1086.683767
 20
      989.852558
 30
       19.418087
  0
POINT
  8
Default
 62
255
 10
     1087.017940
 20
      990.001943
 30
       19.455386
  0
POINT
  8
Default
 62
255
 10
     1087.182185
 20
      989.877921
 30
       19.599759
  0
POINT
  8
Default
 62
255
 10
     1087.069430
 20
      989.990956
 30
       19.585354
  0
POINT
  8
Default
 62
255
 10
     1087.165547
 20
      989.902036
 30
       19.516696
  0
POINT
  8
Default
 62
255
 10
     1086.336819
 20
      990.069291
 30
       19.330605
  0
POINT
  8
Default
 62
255
 10
     1086.210217
 20
      989.958603
 30
       19.319143
  0
POINT
  8
Default
 62
255
 10
     1086.368135
 20
      989.909067
 30
       19.341310
  0
POINT
  8
Default
 62
255
 10
     1086.478070
 20
      989.770432
 30
       19.363927
  0
POINT
  8
Default
 62
255
 10
     1086.328491
 20
      989.709811
 30
       19.390619
  0
POINT
  8
Default
 62
255
 10
     1086.188653
 20
      989.828262
 30
       19.342158
  0
POINT
  8
Default
 62
255
 10
     1086.580477
 20
      989.608626
 30
       19.407219
  0
POINT
  8
Default
 62
255
 10
     1086.465163
 20
      989.609998
 30
       19.396778
  0
POINT
  8
Default
 62
255
 10
     1086.646078
 20
      989.464283
 30
       19.436816
  0
POINT
  8
Default
 62
255
 10
     1086.980300
 20
      989.552958
 30
       19.481059
  0
POINT
  8
Default
 62
255
 10
     1086.874613
 20
      989.451383
 30
       19.446962
  0
POINT
  8
Default
 62
255
 10
     1086.791257
 20
      989.378326
 30
       19.454503
  0
POINT
  8
Default
 62
255
 10
     1086.696747
 20
      989.293217
 30
       19.447993
  0
POINT
  8
Default
 62
255
 10
     1086.784960
 20
      989.259154
 30
       19.492020
  0
POINT
  8
Default
 62
255
 10
     1086.669863
 20
      989.154498
 30
       19.487496
  0
POINT
  8
Default
 62
255
 10
     1086.601936
 20
      989.102039
 30
       19.486648
  0
POINT
  8
Default
 62
255
 10
     1086.542270
 20
      989.149777
 30
       19.447441
  0
POINT
  8
Default
 62
255
 10
     1086.516158
 20
      989.303785
 30
       19.432546
  0
POINT
  8
Default
 62
255
 10
     1086.444215
 20
      989.394076
 30
       19.414060
  0
POINT
  8
Default
 62
255
 10
     1086.049407
 20
      989.671641
 30
       19.376608
  0
POINT
  8
Default
 62
255
 10
     1085.963839
 20
      989.739140
 30
       19.406387
  0
POINT
  8
Default
 62
255
 10
     1086.055416
 20
      989.822238
 30
       19.341648
  0
POINT
  8
Default
 62
255
 10
     1086.108170
 20
      989.909919
 30
       19.335908
  0
POINT
  8
Default
 62
255
 10
     1086.168014
 20
      989.727897
 30
       19.358883
  0
POINT
  8
Default
 62
255
 10
     1086.120983
 20
      989.560905
 30
       19.411523
  0
POINT
  8
Default
 62
255
 10
     1086.273565
 20
      989.552560
 30
       19.387810
  0
POINT
  8
Default
 62
255
 10
     1086.220853
 20
      989.411957
 30
       19.405106
  0
POINT
  8
Default
 62
255
 10
     1086.519018
 20
      989.026962
 30
       19.477692
  0
POINT
  8
Default
 62
255
 10
     1086.364139
 20
      989.030853
 30
       19.462490
  0
POINT
  8
Default
 62
255
 10
     1086.371202
 20
      989.135313
 30
       19.436770
  0
POINT
  8
Default
 62
255
 10
     1086.354315
 20
      989.273068
 30
       19.412624
  0
POINT
  8
Default
 62
255
 10
     1086.277433
 20
      989.177983
 30
       19.436215
  0
POINT
  8
Default
 62
255
 10
     1086.186558
 20
      989.223766
 30
       19.497455
  0
POINT
  8
Default
 62
255
 10
     1086.164154
 20
      989.155951
 30
       19.528906
  0
POINT
  8
Default
 62
255
 10
     1086.193913
 20
      989.118749
 30
       19.521660
  0
POINT
  8
Default
 62
255
 10
     1086.510809
 20
      988.887225
 30
       19.756153
  0
POINT
  8
Default
 62
255
 10
     1086.467025
 20
      988.836193
 30
       19.735591
  0
POINT
  8
Default
 62
255
 10
     1086.561455
 20
      988.780329
 30
       19.753436
  0
POINT
  8
Default
 62
255
 10
     1086.554374
 20
      988.948336
 30
       19.759872
  0
POINT
  8
Default
 62
255
 10
     1086.656313
 20
      988.895591
 30
       19.767017
  0
POINT
  8
Default
 62
255
 10
     1086.612121
 20
      989.017605
 30
       19.762293
  0
POINT
  8
Default
 62
255
 10
     1086.702895
 20
      988.933997
 30
       19.771970
  0
POINT
  8
Default
 62
255
 10
     1086.749239
 20
      988.998341
 30
       19.768747
  0
POINT
  8
Default
 62
255
 10
     1086.619452
 20
      988.956262
 30
       19.763531
  0
POINT
  8
Default
 62
255
 10
     1086.591253
 20
      988.877384
 30
       19.763066
  0
POINT
  8
Default
 62
255
 10
     1086.686574
 20
      989.049461
 30
       19.756486
  0
POINT
  8
Default
 62
255
 10
     1086.659346
 20
      989.035799
 30
       19.764929
  0
POINT
  8
Default
 62
255
 10
     1086.738841
 20
      989.070870
 30
       19.754010
  0
POINT
  8
Default
 62
255
 10
     1086.818127
 20
      989.045189
 30
       19.767572
  0
POINT
  8
Default
 62
255
 10
     1086.616181
 20
      989.063251
 30
       19.654590
  0
POINT
  8
Default
 62
255
 10
     1086.462553
 20
      988.947624
 30
       19.646680
  0
POINT
  8
Default
 62
255
 10
     1086.428812
 20
      988.901139
 30
       19.705178
  0
POINT
  8
Default
 62
255
 10
     1086.566172
 20
      989.056257
 30
       19.629942
  0
POINT
  8
Default
 62
255
 10
     1086.570699
 20
      989.089860
 30
       19.603296
  0
POINT
  8
Default
 62
255
 10
     1086.514958
 20
      989.030534
 30
       19.611815
  0
POINT
  8
Default
 62
255
 10
     1086.460630
 20
      988.981135
 30
       19.607011
  0
POINT
  8
Default
 62
255
 10
     1086.429174
 20
      988.945092
 30
       19.703079
  0
POINT
  8
Default
 62
255
 10
     1086.533763
 20
      988.999296
 30
       19.661176
  0
POINT
  8
Default
 62
255
 10
     1086.812553
 20
      989.193206
 30
       19.755819
  0
POINT
  8
Default
 62
255
 10
     1086.836449
 20
      989.132760
 30
       19.762184
  0
POINT
  8
Default
 62
255
 10
     1086.773368
 20
      989.158584
 30
       19.750105
  0
POINT
  8
Default
 62
255
 10
     1086.747991
 20
      989.133982
 30
       19.748153
  0
POINT
  8
Default
 62
255
 10
     1086.697587
 20
      989.100466
 30
       19.747600
  0
POINT
  8
Default
 62
255
 10
     1086.665010
 20
      989.103247
 30
       19.738250
  0
POINT
  8
Default
 62
255
 10
     1086.691533
 20
      989.127089
 30
       19.673300
  0
POINT
  8
Default
 62
255
 10
     1086.728474
 20
      989.163187
 30
       19.697928
  0
POINT
  8
Default
 62
255
 10
     1086.783038
 20
      989.194400
 30
       19.709982
  0
POINT
  8
Default
 62
255
 10
     1086.848591
 20
      989.220672
 30
       19.729926
  0
POINT
  8
Default
 62
255
 10
     1086.787974
 20
      989.090381
 30
       19.757189
  0
POINT
  8
Default
 62
255
 10
     1086.871485
 20
      989.083546
 30
       19.781209
  0
POINT
  8
Default
 62
255
 10
     1086.915445
 20
      989.130710
 30
       19.780855
  0
POINT
  8
Default
 62
255
 10
     1086.893774
 20
      989.184869
 30
       19.745723
  0
POINT
  8
Default
 62
255
 10
     1086.899995
 20
      989.236834
 30
       19.728454
  0
POINT
  8
Default
 62
255
 10
     1086.871236
 20
      989.266390
 30
       19.621952
  0
POINT
  8
Default
 62
255
 10
     1086.826144
 20
      989.270961
 30
       19.597771
  0
POINT
  8
Default
 62
255
 10
     1086.758690
 20
      989.202669
 30
       19.610974
  0
POINT
  8
Default
 62
255
 10
     1086.827981
 20
      989.219635
 30
       19.646711
  0
POINT
  8
Default
 62
255
 10
     1086.711510
 20
      989.140643
 30
       19.545143
  0
POINT
  8
Default
 62
255
 10
     1087.023967
 20
      989.375178
 30
       19.764425
  0
POINT
  8
Default
 62
255
 10
     1086.993046
 20
      989.312868
 30
       19.767935
  0
POINT
  8
Default
 62
255
 10
     1086.983133
 20
      989.259026
 30
       19.779484
  0
POINT
  8
Default
 62
255
 10
     1086.927266
 20
      989.182547
 30
       19.777414
  0
POINT
  8
Default
 62
255
 10
     1086.954110
 20
      989.278491
 30
       19.740090
  0
POINT
  8
Default
 62
255
 10
     1086.944504
 20
      989.329543
 30
       19.610989
  0
POINT
  8
Default
 62
255
 10
     1086.894579
 20
      989.344822
 30
       19.575348
  0
POINT
  8
Default
 62
255
 10
     1087.091921
 20
      989.197480
 30
       19.781801
  0
POINT
  8
Default
 62
255
 10
     1087.089824
 20
      989.296152
 30
       19.771858
  0
POINT
  8
Default
 62
255
 10
     1086.987973
 20
      989.402072
 30
       19.762196
  0
POINT
  8
Default
 62
255
 10
     1087.064127
 20
      989.480053
 30
       19.736462
  0
POINT
  8
Default
 62
255
 10
     1087.133829
 20
      989.478479
 30
       19.762141
  0
POINT
  8
Default
 62
255
 10
     1087.195163
 20
      989.454040
 30
       19.767887
  0
POINT
  8
Default
 62
255
 10
     1087.250992
 20
      989.427769
 30
       19.766860
  0
POINT
  8
Default
 62
255
 10
     1087.295211
 20
      989.336736
 30
       19.791506
  0
POINT
  8
Default
 62
255
 10
     1087.190076
 20
      989.314509
 30
       19.778961
  0
POINT
  8
Default
 62
255
 10
     1087.121858
 20
      989.384336
 30
       19.772519
  0
POINT
  8
Default
 62
255
 10
     1087.275548
 20
      989.242232
 30
       19.803361
  0
POINT
  8
Default
 62
255
 10
     1087.218641
 20
      989.152870
 30
       19.806582
  0
POINT
  8
Default
 62
255
 10
     1087.161360
 20
      989.179721
 30
       19.789407
  0
POINT
  8
Default
 62
255
 10
     1086.999693
 20
      989.131713
 30
       19.867901
  0
POINT
  8
Default
 62
255
 10
     1086.921676
 20
      989.097129
 30
       19.888955
  0
POINT
  8
Default
 62
255
 10
     1086.742202
 20
      988.926844
 30
       19.870438
  0
POINT
  8
Default
 62
255
 10
     1086.846604
 20
      989.041048
 30
       19.885949
  0
POINT
  8
Default
 62
255
 10
     1086.944119
 20
      988.979881
 30
       19.913861
  0
POINT
  8
Default
 62
255
 10
     1086.858403
 20
      988.949569
 30
       19.896833
  0
POINT
  8
Default
 62
255
 10
     1086.892678
 20
      988.890692
 30
       19.896992
  0
POINT
  8
Default
 62
255
 10
     1086.774025
 20
      988.839375
 30
       19.880958
  0
POINT
  8
Default
 62
255
 10
     1086.899163
 20
      988.809703
 30
       19.881599
  0
POINT
  8
Default
 62
255
 10
     1086.654224
 20
      988.825106
 30
       19.882852
  0
POINT
  8
Default
 62
255
 10
     1086.617607
 20
      988.784263
 30
       19.880083
  0
POINT
  8
Default
 62
255
 10
     1086.572028
 20
      988.740813
 30
       19.895411
  0
POINT
  8
Default
 62
255
 10
     1086.652344
 20
      988.715548
 30
       19.898485
  0
POINT
  8
Default
 62
255
 10
     1086.764511
 20
      988.715531
 30
       19.881439
  0
POINT
  8
Default
 62
255
 10
     1086.770195
 20
      988.614686
 30
       19.903973
  0
POINT
  8
Default
 62
255
 10
     1086.921608
 20
      988.481200
 30
       19.922222
  0
POINT
  8
Default
 62
255
 10
     1087.100329
 20
      988.354119
 30
       19.861377
  0
POINT
  8
Default
 62
255
 10
     1087.156854
 20
      988.485793
 30
       19.845419
  0
POINT
  8
Default
 62
255
 10
     1087.060896
 20
      988.559975
 30
       19.871834
  0
POINT
  8
Default
 62
255
 10
     1087.218689
 20
      988.673407
 30
       19.839192
  0
POINT
  8
Default
 62
255
 10
     1086.952659
 20
      988.747586
 30
       19.928072
  0
POINT
  8
Default
 62
255
 10
     1087.121841
 20
      988.849266
 30
       19.886234
  0
POINT
  8
Default
 62
255
 10
     1087.098132
 20
      988.995000
 30
       19.880124
  0
POINT
  8
Default
 62
255
 10
     1087.289677
 20
      988.835126
 30
       19.859605
  0
POINT
  8
Default
 62
255
 10
     1087.364079
 20
      988.518563
 30
       19.818610
  0
POINT
  8
Default
 62
255
 10
     1087.581714
 20
      988.658534
 30
       19.802785
  0
POINT
  8
Default
 62
255
 10
     1087.402296
 20
      988.739819
 30
       19.835416
  0
POINT
  8
Default
 62
255
 10
     1087.455001
 20
      988.876702
 30
       19.825113
  0
POINT
  8
Default
 62
255
 10
     1087.308759
 20
      988.994997
 30
       19.872305
  0
POINT
  8
Default
 62
255
 10
     1087.329441
 20
      989.051687
 30
       19.842456
  0
POINT
  8
Default
 62
255
 10
     1087.492779
 20
      989.005868
 30
       19.694049
  0
POINT
  8
Default
 62
255
 10
     1087.640328
 20
      988.798970
 30
       19.766490
  0
POINT
  8
Default
 62
255
 10
     1087.652229
 20
      988.928802
 30
       19.633784
  0
POINT
  8
Default
 62
255
 10
     1088.077869
 20
      988.812846
 30
       19.437376
  0
POINT
  8
Default
 62
255
 10
     1087.932436
 20
      988.919609
 30
       19.481552
  0
POINT
  8
Default
 62
255
 10
     1087.720593
 20
      989.053981
 30
       19.506672
  0
POINT
  8
Default
 62
255
 10
     1087.666199
 20
      989.143747
 30
       19.493662
  0
POINT
  8
Default
 62
255
 10
     1087.541941
 20
      989.148321
 30
       19.591640
  0
POINT
  8
Default
 62
255
 10
     1087.827439
 20
      988.976031
 30
       19.492635
  0
POINT
  8
Default
 62
255
 10
     1087.809855
 20
      988.812744
 30
       19.632356
  0
POINT
  8
Default
 62
255
 10
     1087.862574
 20
      988.735277
 30
       19.652296
  0
POINT
  8
Default
 62
255
 10
     1087.377604
 20
      989.566876
 30
       19.663334
  0
POINT
  8
Default
 62
255
 10
     1087.406893
 20
      989.497256
 30
       19.648362
  0
POINT
  8
Default
 62
255
 10
     1087.513372
 20
      989.357193
 30
       19.594060
  0
POINT
  8
Default
 62
255
 10
     1087.415986
 20
      989.250003
 30
       19.643388
  0
POINT
  8
Default
 62
255
 10
     1087.427818
 20
      989.136093
 30
       19.684224
  0
POINT
  8
Default
 62
255
 10
     1087.337327
 20
      989.732477
 30
       19.617241
  0
POINT
  8
Default
 62
255
 10
     1087.469035
 20
      989.609438
 30
       19.628627
  0
POINT
  8
Default
 62
255
 10
     1087.583802
 20
      989.535179
 30
       19.588592
  0
POINT
  8
Default
 62
255
 10
     1087.658625
 20
      989.439767
 30
       19.628303
  0
POINT
  8
Default
 62
255
 10
     1087.774103
 20
      989.335537
 30
       19.648091
  0
POINT
  8
Default
 62
255
 10
     1087.911463
 20
      989.221167
 30
       19.636272
  0
POINT
  8
Default
 62
255
 10
     1087.988536
 20
      989.158264
 30
       19.631146
  0
POINT
  8
Default
 62
255
 10
     1088.161914
 20
      989.018279
 30
       19.611737
  0
POINT
  8
Default
 62
255
 10
     1088.247787
 20
      988.955214
 30
       19.597538
  0
POINT
  8
Default
 62
255
 10
     1088.406860
 20
      989.175658
 30
       19.592599
  0
POINT
  8
Default
 62
255
 10
     1088.263217
 20
      989.278515
 30
       19.607436
  0
POINT
  8
Default
 62
255
 10
     1088.096704
 20
      989.422298
 30
       19.622063
  0
POINT
  8
Default
 62
255
 10
     1087.990302
 20
      989.503073
 30
       19.613246
  0
POINT
  8
Default
 62
255
 10
     1088.327578
 20
      989.544528
 30
       19.600514
  0
POINT
  8
Default
 62
255
 10
     1088.213048
 20
      989.635569
 30
       19.595501
  0
POINT
  8
Default
 62
255
 10
     1088.079083
 20
      989.753572
 30
       19.596688
  0
POINT
  8
Default
 62
255
 10
     1087.874680
 20
      989.599428
 30
       19.615593
  0
POINT
  8
Default
 62
255
 10
     1087.654595
 20
      989.794139
 30
       19.607342
  0
POINT
  8
Default
 62
255
 10
     1087.929097
 20
      989.863151
 30
       19.607525
  0
POINT
  8
Default
 62
255
 10
     1087.562301
 20
      990.206605
 30
       19.567312
  0
POINT
  8
Default
 62
255
 10
     1087.340245
 20
      990.096270
 30
       19.578211
  0
POINT
  8
Default
 62
255
 10
     1087.240578
 20
      990.534352
 30
       19.512087
  0
POINT
  8
Default
 62
255
 10
     1087.305502
 20
      990.478330
 30
       19.527091
  0
POINT
  8
Default
 62
255
 10
     1087.098954
 20
      990.377612
 30
       19.530605
  0
POINT
  8
Default
 62
255
 10
     1087.225283
 20
      990.226783
 30
       19.557648
  0
POINT
  8
Default
 62
255
 10
     1087.900462
 20
      990.176645
 30
       19.535577
  0
POINT
  8
Default
 62
255
 10
     1087.818627
 20
      990.286832
 30
       19.533256
  0
POINT
  8
Default
 62
255
 10
     1087.727178
 20
      990.144039
 30
       19.528780
  0
POINT
  8
Default
 62
255
 10
     1087.796491
 20
      990.079857
 30
       19.554240
  0
POINT
  8
Default
 62
255
 10
     1087.660812
 20
      990.236753
 30
       19.520465
  0
POINT
  8
Default
 62
255
 10
     1087.927291
 20
      990.168795
 30
       19.565186
  0
POINT
  8
Default
 62
255
 10
     1087.790920
 20
      990.027186
 30
       19.584685
  0
POINT
  8
Default
 62
255
 10
     1087.970063
 20
      990.049902
 30
       19.568844
  0
POINT
  8
Default
 62
255
 10
     1088.104107
 20
      989.942705
 30
       19.573486
  0
POINT
  8
Default
 62
255
 10
     1088.140870
 20
      989.821441
 30
       19.620466
  0
POINT
  8
Default
 62
255
 10
     1088.010661
 20
      989.854931
 30
       19.579447
  0
POINT
  8
Default
 62
255
 10
     1088.242940
 20
      989.684739
 30
       19.561714
  0
POINT
  8
Default
 62
255
 10
     1087.872354
 20
      990.541111
 30
       19.603389
  0
POINT
  8
Default
 62
255
 10
     1087.768233
 20
      990.398501
 30
       19.638632
  0
POINT
  8
Default
 62
255
 10
     1087.944688
 20
      990.440796
 30
       19.622493
  0
POINT
  8
Default
 62
255
 10
     1087.856577
 20
      990.291763
 30
       19.631630
  0
POINT
  8
Default
 62
255
 10
     1087.898386
 20
      990.220684
 30
       19.636746
  0
POINT
  8
Default
 62
255
 10
     1087.992019
 20
      990.355595
 30
       19.628373
  0
POINT
  8
Default
 62
255
 10
     1088.045961
 20
      990.264895
 30
       19.635530
  0
POINT
  8
Default
 62
255
 10
     1088.060598
 20
      990.434806
 30
       19.620691
  0
POINT
  8
Default
 62
255
 10
     1088.009367
 20
      990.524916
 30
       19.616197
  0
POINT
  8
Default
 62
255
 10
     1088.162554
 20
      990.275563
 30
       19.637048
  0
POINT
  8
Default
 62
255
 10
     1088.138516
 20
      990.122388
 30
       19.647536
  0
POINT
  8
Default
 62
255
 10
     1087.939706
 20
      990.150196
 30
       19.644607
  0
POINT
  8
Default
 62
255
 10
     1087.993297
 20
      990.067055
 30
       19.649824
  0
POINT
  8
Default
 62
255
 10
     1088.058151
 20
      989.965290
 30
       19.651980
  0
POINT
  8
Default
 62
255
 10
     1088.212016
 20
      990.191909
 30
       19.641415
  0
POINT
  8
Default
 62
255
 10
     1088.105947
 20
      989.887691
 30
       19.659090
  0
POINT
  8
Default
 62
255
 10
     1088.369430
 20
      989.942765
 30
       19.652050
  0
POINT
  8
Default
 62
255
 10
     1088.327789
 20
      990.018208
 30
       19.649046
  0
POINT
  8
Default
 62
255
 10
     1088.232103
 20
      989.951708
 30
       19.655814
  0
POINT
  8
Default
 62
255
 10
     1088.310962
 20
      989.880790
 30
       19.659043
  0
POINT
  8
Default
 62
255
 10
     1088.446459
 20
      989.839646
 30
       19.653854
  0
POINT
  8
Default
 62
255
 10
     1088.391785
 20
      989.704626
 30
       19.663006
  0
POINT
  8
Default
 62
255
 10
     1088.223242
 20
      989.713246
 30
       19.662380
  0
POINT
  8
Default
 62
255
 10
     1088.332241
 20
      989.557795
 30
       19.667608
  0
POINT
  8
Default
 62
255
 10
     1088.558050
 20
      989.677280
 30
       19.654051
  0
POINT
  8
Default
 62
255
 10
     1088.635551
 20
      989.581821
 30
       19.648535
  0
POINT
  8
Default
 62
255
 10
     1088.504077
 20
      989.565607
 30
       19.660994
  0
POINT
  8
Default
 62
255
 10
     1088.402217
 20
      989.458712
 30
       19.662470
  0
POINT
  8
Default
 62
255
 10
     1088.467176
 20
      989.363569
 30
       19.654586
  0
POINT
  8
Default
 62
255
 10
     1088.557060
 20
      989.238997
 30
       19.650664
  0
POINT
  8
Default
 62
255
 10
     1088.722287
 20
      989.280528
 30
       19.643977
  0
POINT
  8
Default
 62
255
 10
     1088.681258
 20
      989.364103
 30
       19.650683
  0
POINT
  8
Default
 62
255
 10
     1088.576396
 20
      989.401427
 30
       19.656873
  0
POINT
  8
Default
 62
255
 10
     1088.726432
 20
      989.457043
 30
       19.654323
  0
POINT
  8
Default
 62
255
 10
     1089.282773
 20
      991.474151
 30
       19.454504
  0
POINT
  8
Default
 62
255
 10
     1089.300300
 20
      991.361989
 30
       19.470452
  0
POINT
  8
Default
 62
255
 10
     1089.001444
 20
      991.541677
 30
       19.412106
  0
POINT
  8
Default
 62
255
 10
     1088.949218
 20
      991.434004
 30
       19.399990
  0
POINT
  8
Default
 62
255
 10
     1089.018467
 20
      991.336573
 30
       19.435082
  0
POINT
  8
Default
 62
255
 10
     1089.110721
 20
      991.340643
 30
       19.445904
  0
POINT
  8
Default
 62
255
 10
     1089.231382
 20
      991.235816
 30
       19.481506
  0
POINT
  8
Default
 62
255
 10
     1089.071663
 20
      991.216028
 30
       19.482627
  0
POINT
  8
Default
 62
255
 10
     1089.138484
 20
      991.114966
 30
       19.505642
  0
POINT
  8
Default
 62
255
 10
     1088.976702
 20
      991.176694
 30
       19.472775
  0
POINT
  8
Default
 62
255
 10
     1089.406077
 20
      991.354068
 30
       19.475044
  0
POINT
  8
Default
 62
255
 10
     1089.379017
 20
      991.207501
 30
       19.478145
  0
POINT
  8
Default
 62
255
 10
     1089.357187
 20
      991.099985
 30
       19.486939
  0
POINT
  8
Default
 62
255
 10
     1089.276121
 20
      991.011835
 30
       19.514748
  0
POINT
  8
Default
 62
255
 10
     1089.568969
 20
      991.156418
 30
       19.464192
  0
POINT
  8
Default
 62
255
 10
     1089.701642
 20
      991.071343
 30
       19.471346
  0
POINT
  8
Default
 62
255
 10
     1089.586257
 20
      990.927811
 30
       19.486725
  0
POINT
  8
Default
 62
255
 10
     1089.482216
 20
      990.854325
 30
       19.503020
  0
POINT
  8
Default
 62
255
 10
     1089.056006
 20
      990.816050
 30
       19.794771
  0
POINT
  8
Default
 62
255
 10
     1088.958073
 20
      991.060064
 30
       19.743805
  0
POINT
  8
Default
 62
255
 10
     1088.882899
 20
      991.001550
 30
       19.772923
  0
POINT
  8
Default
 62
255
 10
     1088.840770
 20
      990.944895
 30
       19.774034
  0
POINT
  8
Default
 62
255
 10
     1088.948920
 20
      990.917918
 30
       19.793875
  0
POINT
  8
Default
 62
255
 10
     1088.873156
 20
      990.796740
 30
       19.786985
  0
POINT
  8
Default
 62
255
 10
     1088.761855
 20
      990.869042
 30
       19.774420
  0
POINT
  8
Default
 62
255
 10
     1088.722865
 20
      990.893865
 30
       19.724126
  0
POINT
  8
Default
 62
255
 10
     1089.067476
 20
      990.887329
 30
       19.793731
  0
POINT
  8
Default
 62
255
 10
     1089.024011
 20
      990.975279
 30
       19.788463
  0
POINT
  8
Default
 62
255
 10
     1089.140866
 20
      990.866336
 30
       19.798131
  0
POINT
  8
Default
 62
255
 10
     1088.963654
 20
      990.685437
 30
       19.789822
  0
POINT
  8
Default
 62
255
 10
     1088.705682
 20
      990.791558
 30
       19.780502
  0
POINT
  8
Default
 62
255
 10
     1088.815806
 20
      990.523064
 30
       19.791295
  0
POINT
  8
Default
 62
255
 10
     1088.529877
 20
      990.649852
 30
       19.830341
  0
POINT
  8
Default
 62
255
 10
     1088.677967
 20
      990.566586
 30
       19.805218
  0
POINT
  8
Default
 62
255
 10
     1088.471158
 20
      990.617589
 30
       19.833258
  0
POINT
  8
Default
 62
255
 10
     1088.530789
 20
      990.709780
 30
       19.777682
  0
POINT
  8
Default
 62
255
 10
     1088.610713
 20
      990.759698
 30
       19.814696
  0
POINT
  8
Default
 62
255
 10
     1088.676716
 20
      990.660385
 30
       19.817094
  0
POINT
  8
Default
 62
255
 10
     1090.484039
 20
      990.052540
 30
       19.635607
  0
POINT
  8
Default
 62
255
 10
     1091.001906
 20
      990.220528
 30
       19.537243
  0
POINT
  8
Default
 62
255
 10
     1090.809495
 20
      990.128838
 30
       19.556195
  0
POINT
  8
Default
 62
255
 10
     1091.095184
 20
      990.106787
 30
       19.553697
  0
POINT
  8
Default
 62
255
 10
     1090.995256
 20
      989.940823
 30
       19.588885
  0
POINT
  8
Default
 62
255
 10
     1090.724414
 20
      989.817912
 30
       19.616957
  0
POINT
  8
Default
 62
255
 10
     1090.818053
 20
      989.757009
 30
       19.630419
  0
POINT
  8
Default
 62
255
 10
     1090.915304
 20
      989.701106
 30
       19.644334
  0
POINT
  8
Default
 62
255
 10
     1091.039540
 20
      989.555070
 30
       19.738528
  0
POINT
  8
Default
 62
255
 10
     1091.134615
 20
      989.623858
 30
       19.690571
  0
POINT
  8
Default
 62
255
 10
     1091.014729
 20
      989.685774
 30
       19.645236
  0
POINT
  8
Default
 62
255
 10
     1091.208428
 20
      989.717294
 30
       19.645439
  0
POINT
  8
Default
 62
255
 10
     1091.312454
 20
      989.778598
 30
       19.503788
  0
POINT
  8
Default
 62
255
 10
     1091.318060
 20
      989.910918
 30
       19.576560
  0
POINT
  8
Default
 62
255
 10
     1091.291778
 20
      989.986670
 30
       19.562115
  0
POINT
  8
Default
 62
255
 10
     1091.100835
 20
      989.840536
 30
       19.601808
  0
POINT
  8
Default
 62
255
 10
     1088.957185
 20
      990.445385
 30
       19.772646
  0
POINT
  8
Default
 62
255
 10
     1089.181032
 20
      990.846245
 30
       19.808788
  0
POINT
  8
Default
 62
255
 10
     1089.229335
 20
      990.648702
 30
       19.799618
  0
POINT
  8
Default
 62
255
 10
     1088.722806
 20
      990.571607
 30
       19.798521
  0
POINT
  8
Default
 62
255
 10
     1089.128675
 20
      990.314917
 30
       19.781359
  0
POINT
  8
Default
 62
255
 10
     1089.305649
 20
      990.654254
 30
       19.827649
  0
POINT
  8
Default
 62
255
 10
     1088.216091
 20
      990.475691
 30
       19.553200
  0
POINT
  8
Default
 62
255
 10
     1088.039170
 20
      990.665363
 30
       19.554387
  0
POINT
  8
Default
 62
255
 10
     1088.111042
 20
      990.587351
 30
       19.551869
  0
POINT
  8
Default
 62
255
 10
     1088.269810
 20
      990.331489
 30
       19.530696
  0
POINT
  8
Default
 62
255
 10
     1088.357819
 20
      990.373973
 30
       19.570870
  0
POINT
  8
Default
 62
255
 10
     1088.412408
 20
      990.356657
 30
       19.585665
  0
POINT
  8
Default
 62
255
 10
     1088.370310
 20
      990.274159
 30
       19.547597
  0
POINT
  8
Default
 62
255
 10
     1088.405903
 20
      990.216955
 30
       19.485435
  0
POINT
  8
Default
 62
255
 10
     1088.533326
 20
      990.107667
 30
       19.430713
  0
POINT
  8
Default
 62
255
 10
     1088.577191
 20
      990.022618
 30
       19.447906
  0
POINT
  8
Default
 62
255
 10
     1088.626562
 20
      989.956291
 30
       19.448750
  0
POINT
  8
Default
 62
255
 10
     1088.669736
 20
      989.894151
 30
       19.452430
  0
POINT
  8
Default
 62
255
 10
     1088.473763
 20
      990.295708
 30
       19.554110
  0
POINT
  8
Default
 62
255
 10
     1088.605923
 20
      990.232785
 30
       19.539185
  0
POINT
  8
Default
 62
255
 10
     1088.661350
 20
      990.132466
 30
       19.514909
  0
POINT
  8
Default
 62
255
 10
     1088.501164
 20
      990.230775
 30
       19.490469
  0
POINT
  8
Default
 62
255
 10
     1088.792476
 20
      990.020245
 30
       19.510992
  0
POINT
  8
Default
 62
255
 10
     1088.670320
 20
      990.040355
 30
       19.480230
  0
POINT
  8
Default
 62
255
 10
     1088.738828
 20
      989.796587
 30
       19.475862
  0
POINT
  8
Default
 62
255
 10
     1088.831094
 20
      989.876963
 30
       19.481880
  0
POINT
  8
Default
 62
255
 10
     1088.974206
 20
      989.760943
 30
       19.504895
  0
POINT
  8
Default
 62
255
 10
     1088.846502
 20
      989.664244
 30
       19.478738
  0
POINT
  8
Default
 62
255
 10
     1088.855302
 20
      989.511603
 30
       19.519523
  0
POINT
  8
Default
 62
255
 10
     1088.823922
 20
      989.620041
 30
       19.478765
  0
POINT
  8
Default
 62
255
 10
     1088.992048
 20
      989.368212
 30
       19.483526
  0
POINT
  8
Default
 62
255
 10
     1088.902814
 20
      989.456589
 30
       19.522410
  0
POINT
  8
Default
 62
255
 10
     1089.152967
 20
      989.671015
 30
       19.518675
  0
POINT
  8
Default
 62
255
 10
     1089.138308
 20
      989.467747
 30
       19.507273
  0
POINT
  8
Default
 62
255
 10
     1089.014569
 20
      989.584604
 30
       19.484366
  0
POINT
  8
Default
 62
255
 10
     1089.324804
 20
      989.633387
 30
       19.544201
  0
POINT
  8
Default
 62
255
 10
     1089.232803
 20
      989.741154
 30
       19.524723
  0
POINT
  8
Default
 62
255
 10
     1089.333382
 20
      989.820367
 30
       19.572873
  0
POINT
  8
Default
 62
255
 10
     1089.260616
 20
      989.887513
 30
       19.545210
  0
POINT
  8
Default
 62
255
 10
     1089.121595
 20
      989.802322
 30
       19.525221
  0
POINT
  8
Default
 62
255
 10
     1089.364652
 20
      989.746160
 30
       19.608901
  0
POINT
  8
Default
 62
255
 10
     1088.976220
 20
      989.978590
 30
       19.507358
  0
POINT
  8
Default
 62
255
 10
     1088.877403
 20
      990.154975
 30
       19.536735
  0
POINT
  8
Default
 62
255
 10
     1088.749184
 20
      990.203393
 30
       19.548620
  0
POINT
  8
Default
 62
255
 10
     1088.532893
 20
      990.338400
 30
       19.607050
  0
POINT
  8
Default
 62
255
 10
     1088.450468
 20
      990.535847
 30
       19.783116
  0
POINT
  8
Default
 62
255
 10
     1088.400147
 20
      990.584304
 30
       19.824820
  0
POINT
  8
Default
 62
255
 10
     1088.555667
 20
      990.531584
 30
       19.784710
  0
POINT
  8
Default
 62
255
 10
     1088.675416
 20
      990.456718
 30
       19.759137
  0
POINT
  8
Default
 62
255
 10
     1088.543500
 20
      990.430053
 30
       19.713284
  0
POINT
  8
Default
 62
255
 10
     1088.557073
 20
      990.365541
 30
       19.650251
  0
POINT
  8
Default
 62
255
 10
     1088.382192
 20
      990.409133
 30
       19.708004
  0
POINT
  8
Default
 62
255
 10
     1088.330405
 20
      990.426831
 30
       19.642308
  0
POINT
  8
Default
 62
255
 10
     1088.649956
 20
      990.312151
 30
       19.603842
  0
POINT
  8
Default
 62
255
 10
     1088.855948
 20
      990.279829
 30
       19.619511
  0
POINT
  8
Default
 62
255
 10
     1088.939009
 20
      990.265478
 30
       19.657262
  0
POINT
  8
Default
 62
255
 10
     1089.096559
 20
      990.155039
 30
       19.682581
  0
POINT
  8
Default
 62
255
 10
     1089.158424
 20
      990.119279
 30
       19.704314
  0
POINT
  8
Default
 62
255
 10
     1089.125537
 20
      990.055201
 30
       19.617642
  0
POINT
  8
Default
 62
255
 10
     1089.122308
 20
      989.989966
 30
       19.548150
  0
POINT
  8
Default
 62
255
 10
     1089.004959
 20
      990.170429
 30
       19.624299
  0
POINT
  8
Default
 62
255
 10
     1088.152396
 20
      987.793648
 30
       19.867042
  0
POINT
  8
Default
 62
255
 10
     1088.252666
 20
      988.104117
 30
       19.829774
  0
POINT
  8
Default
 62
255
 10
     1087.932497
 20
      988.006547
 30
       19.850812
  0
POINT
  8
Default
 62
255
 10
     1088.178983
 20
      988.236958
 30
       19.818850
  0
POINT
  8
Default
 62
255
 10
     1087.984947
 20
      988.402712
 30
       19.829395
  0
POINT
  8
Default
 62
255
 10
     1088.271758
 20
      987.904172
 30
       19.858647
  0
POINT
  8
Default
 62
255
 10
     1088.097845
 20
      987.619273
 30
       19.878241
  0
POINT
  8
Default
 62
255
 10
     1088.729898
 20
      988.185216
 30
       19.807806
  0
POINT
  8
Default
 62
255
 10
     1088.817055
 20
      988.047157
 30
       19.780502
  0
POINT
  8
Default
 62
255
 10
     1088.668302
 20
      987.998141
 30
       19.820445
  0
POINT
  8
Default
 62
255
 10
     1088.470221
 20
      988.235500
 30
       19.836398
  0
POINT
  8
Default
 62
255
 10
     1088.835374
 20
      987.889985
 30
       19.799370
  0
POINT
  8
Default
 62
255
 10
     1088.683482
 20
      988.526791
 30
       19.841015
  0
POINT
  8
Default
 62
255
 10
     1088.944143
 20
      988.457222
 30
       19.788509
  0
POINT
  8
Default
 62
255
 10
     1089.031458
 20
      988.273695
 30
       19.780932
  0
POINT
  8
Default
 62
255
 10
     1089.152120
 20
      987.974011
 30
       19.867001
  0
POINT
  8
Default
 62
255
 10
     1089.266428
 20
      987.892403
 30
       19.860983
  0
POINT
  8
Default
 62
255
 10
     1089.341193
 20
      987.730132
 30
       19.874615
  0
POINT
  8
Default
 62
255
 10
     1089.540211
 20
      987.950854
 30
       19.833418
  0
POINT
  8
Default
 62
255
 10
     1089.449517
 20
      988.059038
 30
       19.840092
  0
POINT
  8
Default
 62
255
 10
     1088.904561
 20
      988.689696
 30
       19.786541
  0
POINT
  8
Default
 62
255
 10
     1089.225785
 20
      988.871782
 30
       19.811122
  0
POINT
  8
Default
 62
255
 10
     1089.150255
 20
      988.512610
 30
       19.766969
  0
POINT
  8
Default
 62
255
 10
     1089.582788
 20
      988.611775
 30
       19.802052
  0
POINT
  8
Default
 62
255
 10
     1089.450519
 20
      988.436087
 30
       19.814616
  0
POINT
  8
Default
 62
255
 10
     1089.106293
 20
      988.165807
 30
       19.805215
  0
POINT
  8
Default
 62
255
 10
     1087.217945
 20
      988.323142
 30
       19.804740
  0
POINT
  8
Default
 62
255
 10
     1087.457845
 20
      988.201346
 30
       19.815695
  0
POINT
  8
Default
 62
255
 10
     1087.596792
 20
      988.296202
 30
       19.833017
  0
POINT
  8
Default
 62
255
 10
     1087.732688
 20
      988.041423
 30
       19.848337
  0
POINT
  8
Default
 62
255
 10
     1087.754538
 20
      987.926602
 30
       19.839575
  0
POINT
  8
Default
 62
255
 10
     1087.517532
 20
      988.470379
 30
       19.831834
  0
POINT
  8
Default
 62
255
 10
     1087.694526
 20
      988.455504
 30
       19.833303
  0
POINT
  8
Default
 62
255
 10
     1087.832592
 20
      988.527637
 30
       19.822030
  0
POINT
  8
Default
 62
255
 10
     1087.883599
 20
      988.269682
 30
       19.860890
  0
POINT
  8
Default
 62
255
 10
     1088.155818
 20
      988.456452
 30
       19.695533
  0
POINT
  8
Default
 62
255
 10
     1088.118389
 20
      987.928963
 30
       19.846174
  0
POINT
  8
Default
 62
255
 10
     1088.056331
 20
      988.118856
 30
       19.840373
  0
POINT
  8
Default
 62
255
 10
     1089.203039
 20
      989.044656
 30
       19.816290
  0
POINT
  8
Default
 62
255
 10
     1089.006753
 20
      988.768109
 30
       19.806852
  0
POINT
  8
Default
 62
255
 10
     1089.646745
 20
      989.009599
 30
       19.811659
  0
POINT
  8
Default
 62
255
 10
     1089.438967
 20
      989.256114
 30
       19.816641
  0
POINT
  8
Default
 62
255
 10
     1089.306609
 20
      989.269686
 30
       19.812973
  0
POINT
  8
Default
 62
255
 10
     1089.737023
 20
      988.861669
 30
       19.806159
  0
POINT
  8
Default
 62
255
 10
     1089.916505
 20
      989.056591
 30
       19.780873
  0
POINT
  8
Default
 62
255
 10
     1090.097046
 20
      988.941586
 30
       19.803730
  0
POINT
  8
Default
 62
255
 10
     1089.343130
 20
      988.602462
 30
       19.762308
  0
POINT
  8
Default
 62
255
 10
     1089.308669
 20
      988.731158
 30
       19.815162
  0
POINT
  8
Default
 62
255
 10
     1089.458950
 20
      988.985564
 30
       19.810397
  0
POINT
  8
Default
 62
255
 10
     1090.841066
 20
      989.413805
 30
       19.815165
  0
POINT
  8
Default
 62
255
 10
     1090.929304
 20
      989.414288
 30
       19.804964
  0
POINT
  8
Default
 62
255
 10
     1091.010571
 20
      989.364532
 30
       19.799932
  0
POINT
  8
Default
 62
255
 10
     1091.077237
 20
      989.473147
 30
       19.762347
  0
POINT
  8
Default
 62
255
 10
     1090.788123
 20
      989.366398
 30
       19.818444
  0
POINT
  8
Default
 62
255
 10
     1090.854015
 20
      989.288202
 30
       19.835174
  0
POINT
  8
Default
 62
255
 10
     1090.917923
 20
      989.232448
 30
       19.825576
  0
POINT
  8
Default
 62
255
 10
     1090.905849
 20
      989.156401
 30
       19.838562
  0
POINT
  8
Default
 62
255
 10
     1090.732129
 20
      989.303117
 30
       19.834896
  0
POINT
  8
Default
 62
255
 10
     1090.790139
 20
      989.237997
 30
       19.856541
  0
POINT
  8
Default
 62
255
 10
     1090.688091
 20
      989.195176
 30
       19.856926
  0
POINT
  8
Default
 62
255
 10
     1090.698065
 20
      989.134049
 30
       19.912942
  0
POINT
  8
Default
 62
255
 10
     1090.786825
 20
      988.989248
 30
       19.906470
  0
POINT
  8
Default
 62
255
 10
     1090.834352
 20
      989.061368
 30
       19.873096
  0
POINT
  8
Default
 62
255
 10
     1090.767607
 20
      989.143989
 30
       19.884043
  0
POINT
  8
Default
 62
255
 10
     1090.624652
 20
      989.073448
 30
       19.896580
  0
POINT
  8
Default
 62
255
 10
     1090.640074
 20
      989.015068
 30
       19.960164
  0
POINT
  8
Default
 62
255
 10
     1090.683696
 20
      988.958174
 30
       19.983785
  0
POINT
  8
Default
 62
255
 10
     1090.714744
 20
      988.943448
 30
       19.983889
  0
POINT
  8
Default
 62
255
 10
     1090.676216
 20
      989.064282
 30
       19.949857
  0
POINT
  8
Default
 62
255
 10
     1090.702225
 20
      988.721885
 30
       19.814470
  0
POINT
  8
Default
 62
255
 10
     1090.616387
 20
      988.684128
 30
       19.827250
  0
POINT
  8
Default
 62
255
 10
     1090.647086
 20
      988.567322
 30
       19.811694
  0
POINT
  8
Default
 62
255
 10
     1090.584601
 20
      988.548062
 30
       19.878098
  0
POINT
  8
Default
 62
255
 10
     1090.526370
 20
      988.605759
 30
       19.972136
  0
POINT
  8
Default
 62
255
 10
     1090.543064
 20
      988.691597
 30
       19.961539
  0
POINT
  8
Default
 62
255
 10
     1090.582363
 20
      988.796356
 30
       19.902445
  0
POINT
  8
Default
 62
255
 10
     1090.435920
 20
      988.858847
 30
       19.913860
  0
POINT
  8
Default
 62
255
 10
     1090.548259
 20
      988.953271
 30
       19.921718
  0
POINT
  8
Default
 62
255
 10
     1090.601783
 20
      988.883550
 30
       19.916881
  0
POINT
  8
Default
 62
255
 10
     1090.507042
 20
      988.779700
 30
       19.939900
  0
POINT
  8
Default
 62
255
 10
     1090.357251
 20
      988.735316
 30
       19.894296
  0
POINT
  8
Default
 62
255
 10
     1090.401115
 20
      988.712057
 30
       19.945709
  0
POINT
  8
Default
 62
255
 10
     1090.452564
 20
      988.640510
 30
       19.965604
  0
POINT
  8
Default
 62
255
 10
     1090.302331
 20
      988.648840
 30
       19.926516
  0
POINT
  8
Default
 62
255
 10
     1090.349582
 20
      988.611949
 30
       19.953268
  0
POINT
  8
Default
 62
255
 10
     1090.432332
 20
      988.559939
 30
       19.986182
  0
POINT
  8
Default
 62
255
 10
     1090.508246
 20
      988.547069
 30
       19.988201
  0
POINT
  8
Default
 62
255
 10
     1090.246297
 20
      988.660203
 30
       19.797972
  0
POINT
  8
Default
 62
255
 10
     1090.278706
 20
      988.790647
 30
       19.786530
  0
POINT
  8
Default
 62
255
 10
     1090.313107
 20
      988.973724
 30
       19.794532
  0
POINT
  8
Default
 62
255
 10
     1090.197119
 20
      988.883197
 30
       19.802625
  0
POINT
  8
Default
 62
255
 10
     1090.295483
 20
      989.132055
 30
       19.788816
  0
POINT
  8
Default
 62
255
 10
     1090.507037
 20
      989.218839
 30
       19.785997
  0
POINT
  8
Default
 62
255
 10
     1090.418543
 20
      989.303531
 30
       19.797652
  0
POINT
  8
Default
 62
255
 10
     1090.532851
 20
      989.446144
 30
       19.825013
  0
POINT
  8
Default
 62
255
 10
     1090.492086
 20
      989.621992
 30
       19.832249
  0
POINT
  8
Default
 62
255
 10
     1090.512290
 20
      989.842607
 30
       19.822252
  0
POINT
  8
Default
 62
255
 10
     1090.606813
 20
      989.818404
 30
       19.801582
  0
POINT
  8
Default
 62
255
 10
     1090.653040
 20
      989.751738
 30
       19.786419
  0
POINT
  8
Default
 62
255
 10
     1090.716407
 20
      989.683848
 30
       19.790975
  0
POINT
  8
Default
 62
255
 10
     1090.795922
 20
      989.651715
 30
       19.790473
  0
POINT
  8
Default
 62
255
 10
     1090.879645
 20
      989.604337
 30
       19.788545
  0
POINT
  8
Default
 62
255
 10
     1090.819084
 20
      989.449856
 30
       19.795519
  0
POINT
  8
Default
 62
255
 10
     1090.725500
 20
      989.344837
 30
       19.819955
  0
POINT
  8
Default
 62
255
 10
     1090.765172
 20
      989.533806
 30
       19.812872
  0
POINT
  8
Default
 62
255
 10
     1090.616941
 20
      989.553622
 30
       19.809021
  0
POINT
  8
Default
 62
255
 10
     1090.555531
 20
      989.962316
 30
       19.642501
  0
POINT
  8
Default
 62
255
 10
     1090.615785
 20
      989.895614
 30
       19.630710
  0
POINT
  8
Default
 62
255
 10
     1090.425845
 20
      989.971164
 30
       19.829651
  0
POINT
  8
Default
 62
255
 10
     1090.080685
 20
      989.752700
 30
       19.813624
  0
POINT
  8
Default
 62
255
 10
     1090.296022
 20
      989.852081
 30
       19.823773
  0
POINT
  8
Default
 62
255
 10
     1090.309168
 20
      989.681834
 30
       19.815533
  0
POINT
  8
Default
 62
255
 10
     1090.120063
 20
      989.558425
 30
       19.801181
  0
POINT
  8
Default
 62
255
 10
     1090.011121
 20
      989.624781
 30
       19.843515
  0
POINT
  8
Default
 62
255
 10
     1089.842637
 20
      989.261803
 30
       19.808582
  0
POINT
  8
Default
 62
255
 10
     1089.717314
 20
      989.403517
 30
       19.821141
  0
POINT
  8
Default
 62
255
 10
     1089.694732
 20
      988.911036
 30
       19.806606
  0
POINT
  8
Default
 62
255
 10
     1088.789466
 20
      989.903123
 30
       19.494188
  0
POINT
  8
Default
 62
255
 10
     1088.944814
 20
      989.870839
 30
       19.519519
  0
POINT
  8
Default
 62
255
 10
     1088.944261
 20
      989.999545
 30
       19.538986
  0
POINT
  8
Default
 62
255
 10
     1088.866816
 20
      989.755655
 30
       19.502058
  0
POINT
  8
Default
 62
255
 10
     1089.381838
 20
      990.033204
 30
       19.820574
  0
POINT
  8
Default
 62
255
 10
     1089.389426
 20
      990.299748
 30
       19.840123
  0
POINT
  8
Default
 62
255
 10
     1089.368430
 20
      989.615818
 30
       19.811854
  0
POINT
  8
Default
 62
255
 10
     1089.434516
 20
      989.807231
 30
       19.815781
  0
POINT
  8
Default
 62
255
 10
     1089.359237
 20
      989.713429
 30
       19.813336
  0
POINT
  8
Default
 62
255
 10
     1088.811018
 20
      990.450651
 30
       19.796741
  0
POINT
  8
Default
 62
255
 10
     1089.063043
 20
      990.583957
 30
       19.774263
  0
POINT
  8
Default
 62
255
 10
     1089.163891
 20
      990.586571
 30
       19.796384
  0
POINT
  8
Default
 62
255
 10
     1089.263539
 20
      990.455189
 30
       19.822280
  0
POINT
  8
Default
 62
255
 10
     1089.123168
 20
      990.437498
 30
       19.779846
  0
POINT
  8
Default
 62
255
 10
     1089.034642
 20
      990.336153
 30
       19.776100
  0
POINT
  8
Default
 62
255
 10
     1089.267793
 20
      990.306845
 30
       19.810645
  0
POINT
  8
Default
 62
255
 10
     1089.243094
 20
      990.178792
 30
       19.760334
  0
POINT
  8
Default
 62
255
 10
     1089.088986
 20
      990.728538
 30
       19.789603
  0
POINT
  8
Default
 62
255
 10
     1089.152503
 20
      990.766818
 30
       19.811252
  0
POINT
  8
Default
 62
255
 10
     1089.060907
 20
      989.277942
 30
       19.568747
  0
POINT
  8
Default
 62
255
 10
     1089.018136
 20
      989.450529
 30
       19.539531
  0
POINT
  8
Default
 62
255
 10
     1089.150985
 20
      989.559424
 30
       19.565332
  0
POINT
  8
Default
 62
255
 10
     1089.067784
 20
      989.681366
 30
       19.548899
  0
POINT
  8
Default
 62
255
 10
     1089.011719
 20
      988.929733
 30
       19.720560
  0
POINT
  8
Default
 62
255
 10
     1088.930362
 20
      988.866420
 30
       19.729814
  0
POINT
  8
Default
 62
255
 10
     1088.801927
 20
      988.803046
 30
       19.733358
  0
POINT
  8
Default
 62
255
 10
     1088.902364
 20
      988.760176
 30
       19.744832
  0
POINT
  8
Default
 62
255
 10
     1088.988675
 20
      988.827737
 30
       19.757237
  0
POINT
  8
Default
 62
255
 10
     1088.760581
 20
      988.689567
 30
       19.783232
  0
POINT
  8
Default
 62
255
 10
     1088.674496
 20
      988.731690
 30
       19.768347
  0
POINT
  8
Default
 62
255
 10
     1089.038624
 20
      989.076302
 30
       19.687875
  0
POINT
  8
Default
 62
255
 10
     1088.846358
 20
      988.952005
 30
       19.723150
  0
POINT
  8
Default
 62
255
 10
     1088.756621
 20
      989.003294
 30
       19.718783
  0
POINT
  8
Default
 62
255
 10
     1088.707560
 20
      988.949635
 30
       19.721490
  0
POINT
  8
Default
 62
255
 10
     1088.661287
 20
      989.026767
 30
       19.712407
  0
POINT
  8
Default
 62
255
 10
     1088.666821
 20
      988.792648
 30
       19.735917
  0
POINT
  8
Default
 62
255
 10
     1088.620015
 20
      988.698368
 30
       19.773557
  0
POINT
  8
Default
 62
255
 10
     1088.748741
 20
      988.744028
 30
       19.756716
  0
POINT
  8
Default
 62
255
 10
     1088.669433
 20
      988.676496
 30
       19.779275
  0
POINT
  8
Default
 62
255
 10
     1088.570452
 20
      988.556579
 30
       19.764694
  0
POINT
  8
Default
 62
255
 10
     1088.408538
 20
      988.534215
 30
       19.647868
  0
POINT
  8
Default
 62
255
 10
     1088.405446
 20
      988.331424
 30
       19.832049
  0
POINT
  8
Default
 62
255
 10
     1088.794167
 20
      988.615466
 30
       19.820329
  0
POINT
  8
Default
 62
255
 10
     1088.162020
 20
      988.304081
 30
       19.761190
  0
POINT
  8
Default
 62
255
 10
     1088.066260
 20
      988.370016
 30
       19.773895
  0
POINT
  8
Default
 62
255
 10
     1088.310752
 20
      988.447498
 30
       19.673207
  0
POINT
  8
Default
 62
255
 10
     1088.392678
 20
      988.412707
 30
       19.796008
  0
POINT
  8
Default
 62
255
 10
     1088.477742
 20
      988.876825
 30
       19.641645
  0
POINT
  8
Default
 62
255
 10
     1088.480458
 20
      988.775081
 30
       19.650193
  0
POINT
  8
Default
 62
255
 10
     1088.281881
 20
      988.890905
 30
       19.639276
  0
POINT
  8
Default
 62
255
 10
     1088.382028
 20
      988.803200
 30
       19.645508
  0
POINT
  8
Default
 62
255
 10
     1088.516276
 20
      988.678951
 30
       19.655668
  0
POINT
  8
Default
 62
255
 10
     1088.396905
 20
      989.032589
 30
       19.625744
  0
POINT
  8
Default
 62
255
 10
     1086.243853
 20
      989.352451
 30
       19.425326
  0
POINT
  8
Default
 62
255
 10
     1086.384076
 20
      989.486545
 30
       19.397296
  0
POINT
  8
Default
 62
255
 10
     1086.587009
 20
      989.308724
 30
       19.431764
  0
POINT
  8
Default
 62
255
 10
     1091.776272
 20
      989.507324
 30
       19.569829
  0
POINT
  8
Default
 62
255
 10
     1091.908166
 20
      989.340583
 30
       19.623663
  0
POINT
  8
Default
 62
255
 10
     1091.671531
 20
      989.496169
 30
       19.574774
  0
POINT
  8
Default
 62
255
 10
     1091.852376
 20
      989.255068
 30
       19.693855
  0
POINT
  8
Default
 62
255
 10
     1091.788944
 20
      989.143516
 30
       19.735914
  0
POINT
  8
Default
 62
255
 10
     1091.675301
 20
      989.221372
 30
       19.710875
  0
POINT
  8
Default
 62
255
 10
     1091.703697
 20
      989.378323
 30
       19.653977
  0
POINT
  8
Default
 62
255
 10
     1091.599545
 20
      989.419618
 30
       19.673442
  0
POINT
  8
Default
 62
255
 10
     1091.504975
 20
      989.393785
 30
       19.709799
  0
POINT
  8
Default
 62
255
 10
     1091.500631
 20
      989.279070
 30
       19.746930
  0
POINT
  8
Default
 62
255
 10
     1091.582029
 20
      989.194215
 30
       19.738809
  0
POINT
  8
Default
 62
255
 10
     1091.674095
 20
      989.100286
 30
       19.728677
  0
POINT
  8
Default
 62
255
 10
     1091.747126
 20
      989.434126
 30
       19.569785
  0
POINT
  8
Default
 62
255
 10
     1091.822388
 20
      989.393373
 30
       19.591096
  0
POINT
  8
Default
 62
255
 10
     1091.810081
 20
      989.307493
 30
       19.676393
  0
POINT
  8
Default
 62
255
 10
     1091.888740
 20
      989.296425
 30
       19.679483
  0
POINT
  8
Default
 62
255
 10
     1091.607556
 20
      989.623674
 30
       19.587922
  0
POINT
  8
Default
 62
255
 10
     1091.545153
 20
      989.511379
 30
       19.632516
  0
POINT
  8
Default
 62
255
 10
     1091.447909
 20
      989.559678
 30
       19.645976
  0
POINT
  8
Default
 62
255
 10
     1091.510502
 20
      989.665429
 30
       19.586958
  0
POINT
  8
Default
 62
255
 10
     1091.523879
 20
      989.755633
 30
       19.581687
  0
POINT
  8
Default
 62
255
 10
     1091.686892
 20
      989.003500
 30
       19.758246
  0
POINT
  8
Default
 62
255
 10
     1091.580773
 20
      988.988993
 30
       19.737158
  0
POINT
  8
Default
 62
255
 10
     1091.506435
 20
      989.061517
 30
       19.746871
  0
POINT
  8
Default
 62
255
 10
     1091.445539
 20
      989.113438
 30
       19.763095
  0
POINT
  8
Default
 62
255
 10
     1091.351719
 20
      989.175922
 30
       19.790544
  0
POINT
  8
Default
 62
255
 10
     1091.368756
 20
      989.478659
 30
       19.712312
  0
POINT
  8
Default
 62
255
 10
     1091.288744
 20
      989.359920
 30
       19.767034
  0
POINT
  8
Default
 62
255
 10
     1091.363905
 20
      989.387790
 30
       19.747569
  0
POINT
  8
Default
 62
255
 10
     1091.369203
 20
      989.285075
 30
       19.772432
  0
POINT
  8
Default
 62
255
 10
     1091.232481
 20
      989.246599
 30
       19.802166
  0
POINT
  8
Default
 62
255
 10
     1091.467587
 20
      988.811741
 30
       19.782422
  0
POINT
  8
Default
 62
255
 10
     1091.387532
 20
      988.931043
 30
       19.786087
  0
POINT
  8
Default
 62
255
 10
     1091.265862
 20
      989.049125
 30
       19.817651
  0
POINT
  8
Default
 62
255
 10
     1091.187348
 20
      989.144774
 30
       19.826985
  0
POINT
  8
Default
 62
255
 10
     1091.108278
 20
      989.284346
 30
       19.807288
  0
POINT
  8
Default
 62
255
 10
     1091.151445
 20
      989.016360
 30
       19.824475
  0
POINT
  8
Default
 62
255
 10
     1091.064088
 20
      989.103914
 30
       19.823981
  0
POINT
  8
Default
 62
255
 10
     1090.985609
 20
      989.000145
 30
       19.844651
  0
POINT
  8
Default
 62
255
 10
     1091.052751
 20
      988.918750
 30
       19.839202
  0
POINT
  8
Default
 62
255
 10
     1091.125315
 20
      988.751946
 30
       19.784909
  0
POINT
  8
Default
 62
255
 10
     1091.241792
 20
      988.675682
 30
       19.771424
  0
POINT
  8
Default
 62
255
 10
     1091.334058
 20
      988.604188
 30
       19.783961
  0
POINT
  8
Default
 62
255
 10
     1091.234511
 20
      988.845659
 30
       19.774707
  0
POINT
  8
Default
 62
255
 10
     1091.353071
 20
      988.804992
 30
       19.764651
  0
POINT
  8
Default
 62
255
 10
     1091.423156
 20
      988.665565
 30
       19.823797
  0
POINT
  8
Default
 62
255
 10
     1091.201279
 20
      988.343293
 30
       19.817546
  0
POINT
  8
Default
 62
255
 10
     1091.136005
 20
      988.382366
 30
       19.796934
  0
POINT
  8
Default
 62
255
 10
     1091.062534
 20
      988.446174
 30
       19.791496
  0
POINT
  8
Default
 62
255
 10
     1090.986485
 20
      988.510282
 30
       19.802499
  0
POINT
  8
Default
 62
255
 10
     1090.954847
 20
      988.509634
 30
       19.807357
  0
POINT
  8
Default
 62
255
 10
     1090.889874
 20
      988.472521
 30
       19.846967
  0
POINT
  8
Default
 62
255
 10
     1090.973642
 20
      988.653095
 30
       19.795520
  0
POINT
  8
Default
 62
255
 10
     1090.865235
 20
      988.627093
 30
       19.800589
  0
POINT
  8
Default
 62
255
 10
     1090.809571
 20
      988.494786
 30
       19.814495
  0
POINT
  8
Default
 62
255
 10
     1090.787263
 20
      988.639328
 30
       19.826664
  0
POINT
  8
Default
 62
255
 10
     1090.929372
 20
      988.886295
 30
       19.876159
  0
POINT
  8
Default
 62
255
 10
     1091.295178
 20
      988.464254
 30
       19.835365
  0
POINT
  8
Default
 62
255
 10
     1091.208646
 20
      988.521577
 30
       19.774041
  0
POINT
  8
Default
 62
255
 10
     1091.128662
 20
      988.608867
 30
       19.777036
  0
POINT
  8
Default
 62
255
 10
     1090.946363
 20
      988.431715
 30
       19.941693
  0
POINT
  8
Default
 62
255
 10
     1090.884091
 20
      988.385193
 30
       19.952551
  0
POINT
  8
Default
 62
255
 10
     1090.807628
 20
      988.291911
 30
       19.960660
  0
POINT
  8
Default
 62
255
 10
     1090.816227
 20
      988.264677
 30
       19.973662
  0
POINT
  8
Default
 62
255
 10
     1090.854684
 20
      988.187788
 30
       19.961283
  0
POINT
  8
Default
 62
255
 10
     1090.889600
 20
      988.074138
 30
       19.959124
  0
POINT
  8
Default
 62
255
 10
     1090.940244
 20
      988.008045
 30
       19.961108
  0
POINT
  8
Default
 62
255
 10
     1091.176032
 20
      988.307053
 30
       19.907771
  0
POINT
  8
Default
 62
255
 10
     1091.125836
 20
      988.220264
 30
       19.923290
  0
POINT
  8
Default
 62
255
 10
     1091.084538
 20
      988.169861
 30
       19.934617
  0
POINT
  8
Default
 62
255
 10
     1091.119243
 20
      988.345544
 30
       19.914742
  0
POINT
  8
Default
 62
255
 10
     1091.075998
 20
      988.390548
 30
       19.915770
  0
POINT
  8
Default
 62
255
 10
     1091.020090
 20
      988.447880
 30
       19.923559
  0
POINT
  8
Default
 62
255
 10
     1090.965189
 20
      988.493727
 30
       19.891234
  0
POINT
  8
Default
 62
255
 10
     1090.934293
 20
      988.458220
 30
       19.929478
  0
POINT
  8
Default
 62
255
 10
     1090.797067
 20
      988.327116
 30
       19.841374
  0
POINT
  8
Default
 62
255
 10
     1090.692696
 20
      988.455995
 30
       19.847418
  0
POINT
  8
Default
 62
255
 10
     1090.902645
 20
      988.324933
 30
       19.962408
  0
POINT
  8
Default
 62
255
 10
     1091.017614
 20
      988.317469
 30
       19.944610
  0
POINT
  8
Default
 62
255
 10
     1090.972444
 20
      988.115514
 30
       19.946025
  0
POINT
  8
Default
 62
255
 10
     1090.666828
 20
      988.105423
 30
       19.748819
  0
POINT
  8
Default
 62
255
 10
     1090.617616
 20
      988.254338
 30
       19.812793
  0
POINT
  8
Default
 62
255
 10
     1090.556884
 20
      987.910757
 30
       19.782560
  0
POINT
  8
Default
 62
255
 10
     1090.692913
 20
      987.806262
 30
       19.803612
  0
POINT
  8
Default
 62
255
 10
     1090.379734
 20
      988.196787
 30
       19.796599
  0
POINT
  8
Default
 62
255
 10
     1090.473902
 20
      988.076329
 30
       19.775994
  0
POINT
  8
Default
 62
255
 10
     1090.724211
 20
      987.991337
 30
       19.763387
  0
POINT
  8
Default
 62
255
 10
     1090.658341
 20
      988.796315
 30
       19.826443
  0
POINT
  8
Default
 62
255
 10
     1086.454936
 20
      988.968269
 30
       19.512226
  0
LINE
  8
Default
 62
255
 10
     1087.240578
 20
      990.534352
 30
       19.512087
 11
     1087.098954
 21
      990.377612
 31
       19.530605
  0
LINE
  8
Default
 62
255
 10
     1087.098954
 20
      990.377612
 30
       19.530605
 11
     1086.899719
 21
      990.164987
 31
       19.550190
  0
LINE
  8
Default
 62
255
 10
     1086.899719
 20
      990.164987
 30
       19.550190
 11
     1087.069430
 21
      989.990956
 31
       19.585354
  0
LINE
  8
Default
 62
255
 10
     1087.069430
 20
      989.990956
 30
       19.585354
 11
     1087.182185
 21
      989.877921
 31
       19.599759
  0
LINE
  8
Default
 62
255
 10
     1087.182185
 20
      989.877921
 30
       19.599759
 11
     1087.337327
 21
      989.732477
 31
       19.617241
  0
LINE
  8
Default
 62
255
 10
     1087.337327
 20
      989.732477
 30
       19.617241
 11
     1087.469035
 21
      989.609438
 31
       19.628627
  0
LINE
  8
Default
 62
255
 10
     1087.469035
 20
      989.609438
 30
       19.628627
 11
     1087.583802
 21
      989.535179
 31
       19.588592
  0
LINE
  8
Default
 62
255
 10
     1087.583802
 20
      989.535179
 30
       19.588592
 11
     1087.658625
 21
      989.439767
 31
       19.628303
  0
LINE
  8
Default
 62
255
 10
     1087.658625
 20
      989.439767
 30
       19.628303
 11
     1087.774103
 21
      989.335537
 31
       19.648091
  0
LINE
  8
Default
 62
255
 10
     1087.774103
 20
      989.335537
 30
       19.648091
 11
     1087.911463
 21
      989.221167
 31
       19.636272
  0
LINE
  8
Default
 62
255
 10
     1087.911463
 20
      989.221167
 30
       19.636272
 11
     1087.988536
 21
      989.158264
 31
       19.631146
  0
LINE
  8
Default
 62
255
 10
     1087.988536
 20
      989.158264
 30
       19.631146
 11
     1088.161914
 21
      989.018279
 31
       19.611737
  0
LINE
  8
Default
 62
255
 10
     1088.161914
 20
      989.018279
 30
       19.611737
 11
     1088.247787
 21
      988.955214
 31
       19.597538
  0
LINE
  8
Default
 62
255
 10
     1087.240578
 20
      990.534352
 30
       19.512087
 11
     1087.305502
 21
      990.478330
 31
       19.527091
  0
LINE
  8
Default
 62
255
 10
     1087.305502
 20
      990.478330
 30
       19.527091
 11
     1087.562301
 21
      990.206605
 31
       19.567312
  0
LINE
  8
Default
 62
255
 10
     1087.562301
 20
      990.206605
 30
       19.567312
 11
     1087.763724
 21
      990.032329
 31
       19.565406
  0
LINE
  8
Default
 62
255
 10
     1087.763724
 20
      990.032329
 30
       19.565406
 11
     1087.929097
 21
      989.863151
 31
       19.607525
  0
LINE
  8
Default
 62
255
 10
     1087.929097
 20
      989.863151
 30
       19.607525
 11
     1088.079083
 21
      989.753572
 31
       19.596688
  0
LINE
  8
Default
 62
255
 10
     1088.079083
 20
      989.753572
 30
       19.596688
 11
     1088.213048
 21
      989.635569
 31
       19.595501
  0
LINE
  8
Default
 62
255
 10
     1088.213048
 20
      989.635569
 30
       19.595501
 11
     1088.327578
 21
      989.544528
 31
       19.600514
  0
LINE
  8
Default
 62
255
 10
     1088.557060
 20
      989.238997
 30
       19.650664
 11
     1088.467176
 21
      989.363569
 31
       19.654586
  0
LINE
  8
Default
 62
255
 10
     1088.467176
 20
      989.363569
 30
       19.654586
 11
     1088.402217
 21
      989.458712
 31
       19.662470
  0
LINE
  8
Default
 62
255
 10
     1088.402217
 20
      989.458712
 30
       19.662470
 11
     1088.332241
 21
      989.557795
 31
       19.667608
  0
LINE
  8
Default
 62
255
 10
     1088.332241
 20
      989.557795
 30
       19.667608
 11
     1088.223242
 21
      989.713246
 31
       19.662380
  0
LINE
  8
Default
 62
255
 10
     1088.223242
 20
      989.713246
 30
       19.662380
 11
     1088.105947
 21
      989.887691
 31
       19.659090
  0
LINE
  8
Default
 62
255
 10
     1088.105947
 20
      989.887691
 30
       19.659090
 11
     1088.058151
 21
      989.965290
 31
       19.651980
  0
LINE
  8
Default
 62
255
 10
     1088.058151
 20
      989.965290
 30
       19.651980
 11
     1087.993297
 21
      990.067055
 31
       19.649824
  0
LINE
  8
Default
 62
255
 10
     1087.993297
 20
      990.067055
 30
       19.649824
 11
     1087.939706
 21
      990.150196
 31
       19.644607
  0
LINE
  8
Default
 62
255
 10
     1087.939706
 20
      990.150196
 30
       19.644607
 11
     1087.898386
 21
      990.220684
 31
       19.636746
  0
LINE
  8
Default
 62
255
 10
     1087.898386
 20
      990.220684
 30
       19.636746
 11
     1087.856577
 21
      990.291763
 31
       19.631630
  0
LINE
  8
Default
 62
255
 10
     1087.856577
 20
      990.291763
 30
       19.631630
 11
     1087.768233
 21
      990.398501
 31
       19.638632
  0
LINE
  8
Default
 62
255
 10
     1087.872354
 20
      990.541111
 30
       19.603389
 11
     1087.975539
 21
      990.599638
 31
       19.596522
  0
LINE
  8
Default
 62
255
 10
     1087.975539
 20
      990.599638
 30
       19.596522
 11
     1088.009367
 21
      990.524916
 31
       19.616197
  0
LINE
  8
Default
 62
255
 10
     1088.009367
 20
      990.524916
 30
       19.616197
 11
     1088.060598
 21
      990.434806
 31
       19.620691
  0
LINE
  8
Default
 62
255
 10
     1088.060598
 20
      990.434806
 30
       19.620691
 11
     1088.162554
 21
      990.275563
 31
       19.637048
  0
LINE
  8
Default
 62
255
 10
     1088.162554
 20
      990.275563
 30
       19.637048
 11
     1088.212016
 21
      990.191909
 31
       19.641415
  0
LINE
  8
Default
 62
255
 10
     1088.212016
 20
      990.191909
 30
       19.641415
 11
     1088.327789
 21
      990.018208
 31
       19.649046
  0
LINE
  8
Default
 62
255
 10
     1088.327789
 20
      990.018208
 30
       19.649046
 11
     1088.369430
 21
      989.942765
 31
       19.652050
  0
LINE
  8
Default
 62
255
 10
     1088.369430
 20
      989.942765
 30
       19.652050
 11
     1088.446459
 21
      989.839646
 31
       19.653854
  0
LINE
  8
Default
 62
255
 10
     1088.446459
 20
      989.839646
 30
       19.653854
 11
     1088.558050
 21
      989.677280
 31
       19.654051
  0
LINE
  8
Default
 62
255
 10
     1088.558050
 20
      989.677280
 30
       19.654051
 11
     1088.635551
 21
      989.581821
 31
       19.648535
  0
LINE
  8
Default
 62
255
 10
     1088.635551
 20
      989.581821
 30
       19.648535
 11
     1088.726432
 21
      989.457043
 31
       19.654323
  0
LINE
  8
Default
 62
255
 10
     1086.960952
 20
      990.886980
 30
       19.462037
 11
     1087.041795
 21
      990.807007
 31
       19.477545
  0
LINE
  8
Default
 62
255
 10
     1087.041795
 20
      990.807007
 30
       19.477545
 11
     1087.139102
 21
      990.725944
 31
       19.483184
  0
LINE
  8
Default
 62
255
 10
     1087.139102
 20
      990.725944
 30
       19.483184
 11
     1087.251742
 21
      990.620888
 31
       19.524429
  0
LINE
  8
Default
 62
255
 10
     1087.251742
 20
      990.620888
 30
       19.524429
 11
     1087.341804
 21
      990.538538
 31
       19.556285
  0
LINE
  8
Default
 62
255
 10
     1087.341804
 20
      990.538538
 30
       19.556285
 11
     1087.432306
 21
      990.454431
 31
       19.580630
  0
LINE
  8
Default
 62
255
 10
     1087.432306
 20
      990.454431
 30
       19.580630
 11
     1087.534969
 21
      990.363164
 31
       19.607835
  0
LINE
  8
Default
 62
255
 10
     1087.534969
 20
      990.363164
 30
       19.607835
 11
     1087.632952
 21
      990.328165
 31
       19.590566
  0
LINE
  8
Default
 62
255
 10
     1087.632952
 20
      990.328165
 30
       19.590566
 11
     1087.743346
 21
      990.366539
 31
       19.559903
  0
LINE
  8
Default
 62
255
 10
     1086.942287
 20
      990.962380
 30
       19.677065
 11
     1087.033389
 21
      990.891910
 31
       19.643259
  0
LINE
  8
Default
 62
255
 10
     1087.033389
 20
      990.891910
 30
       19.643259
 11
     1087.076845
 21
      990.811557
 31
       19.654211
  0
LINE
  8
Default
 62
255
 10
     1087.076845
 20
      990.811557
 30
       19.654211
 11
     1087.162197
 21
      990.708226
 31
       19.653600
  0
LINE
  8
Default
 62
255
 10
     1087.162197
 20
      990.708226
 30
       19.653600
 11
     1087.275502
 21
      990.589975
 31
       19.666268
  0
LINE
  8
Default
 62
255
 10
     1087.275502
 20
      990.589975
 30
       19.666268
 11
     1087.377834
 21
      990.491229
 31
       19.699167
  0
LINE
  8
Default
 62
255
 10
     1087.377834
 20
      990.491229
 30
       19.699167
 11
     1087.469533
 21
      990.423979
 31
       19.710683
  0
LINE
  8
Default
 62
255
 10
     1087.469533
 20
      990.423979
 30
       19.710683
 11
     1087.594164
 21
      990.339603
 31
       19.705175
  0
LINE
  8
Default
 62
255
 10
     1087.594164
 20
      990.339603
 30
       19.705175
 11
     1087.714133
 21
      990.411789
 31
       19.715878
  0
LINE
  8
Default
 62
255
 10
     1087.714133
 20
      990.411789
 30
       19.715878
 11
     1087.805683
 21
      990.511686
 31
       19.694336
  0
LINE
  8
Default
 62
255
 10
     1087.805683
 20
      990.511686
 30
       19.694336
 11
     1087.875978
 21
      990.594466
 31
       19.717834
  0
LINE
  8
Default
 62
255
 10
     1087.875978
 20
      990.594466
 30
       19.717834
 11
     1087.952919
 21
      990.681046
 31
       19.737865
  0
LINE
  8
Default
 62
255
 10
     1087.952919
 20
      990.681046
 30
       19.737865
 11
     1087.927432
 21
      990.732505
 31
       19.733196
  0
LINE
  8
Default
 62
255
 10
     1087.927432
 20
      990.732505
 30
       19.733196
 11
     1087.734829
 21
      990.882921
 31
       19.729362
  0
LINE
  8
Default
 62
255
 10
     1087.734829
 20
      990.882921
 30
       19.729362
 11
     1087.658305
 21
      990.956337
 31
       19.718868
  0
LINE
  8
Default
 62
255
 10
     1087.658305
 20
      990.956337
 30
       19.718868
 11
     1087.550017
 21
      991.045952
 31
       19.683422
  0
LINE
  8
Default
 62
255
 10
     1087.550017
 20
      991.045952
 30
       19.683422
 11
     1087.453921
 21
      991.119221
 31
       19.687667
  0
LINE
  8
Default
 62
255
 10
     1087.453921
 20
      991.119221
 30
       19.687667
 11
     1087.408337
 21
      991.156860
 31
       19.686647
  0
LINE
  8
Default
 62
255
 10
     1087.408337
 20
      991.156860
 30
       19.686647
 11
     1087.329633
 21
      991.205984
 31
       19.675583
  0
LINE
  8
Default
 62
255
 10
     1087.329633
 20
      991.205984
 30
       19.675583
 11
     1087.291101
 21
      991.244728
 31
       19.638309
  0
LINE
  8
Default
 62
255
 10
     1087.291101
 20
      991.244728
 30
       19.638309
 11
     1087.239784
 21
      991.275703
 31
       19.631392
  0
LINE
  8
Default
 62
255
 10
     1087.239784
 20
      991.275703
 30
       19.631392
 11
     1087.214521
 21
      991.212349
 31
       19.670817
  0
LINE
  8
Default
 62
255
 10
     1087.214521
 20
      991.212349
 30
       19.670817
 11
     1087.030740
 21
      991.047872
 31
       19.686289
  0
LINE
  8
Default
 62
255
 10
     1087.030740
 20
      991.047872
 30
       19.686289
 11
     1086.942287
 21
      990.962380
 31
       19.677065
  0
LINE
  8
Default
 62
255
 10
     1087.304042
 20
      991.231552
 30
       19.559240
 11
     1087.373743
 21
      991.183039
 31
       19.567510
  0
LINE
  8
Default
 62
255
 10
     1087.373743
 20
      991.183039
 30
       19.567510
 11
     1087.442247
 21
      991.128338
 31
       19.559584
  0
LINE
  8
Default
 62
255
 10
     1087.442247
 20
      991.128338
 30
       19.559584
 11
     1087.488555
 21
      991.089756
 31
       19.555585
  0
LINE
  8
Default
 62
255
 10
     1087.488555
 20
      991.089756
 30
       19.555585
 11
     1087.531141
 21
      991.058675
 31
       19.561072
  0
LINE
  8
Default
 62
255
 10
     1087.531141
 20
      991.058675
 30
       19.561072
 11
     1087.591064
 21
      991.009981
 31
       19.568261
  0
LINE
  8
Default
 62
255
 10
     1087.591064
 20
      991.009981
 30
       19.568261
 11
     1087.675824
 21
      990.950456
 31
       19.584711
  0
LINE
  8
Default
 62
255
 10
     1087.675824
 20
      990.950456
 30
       19.584711
 11
     1087.720599
 21
      990.908610
 31
       19.590333
  0
LINE
  8
Default
 62
255
 10
     1087.720599
 20
      990.908610
 30
       19.590333
 11
     1087.838842
 21
      990.829719
 31
       19.603431
  0
LINE
  8
Default
 62
255
 10
     1087.838842
 20
      990.829719
 30
       19.603431
 11
     1087.912318
 21
      990.766980
 31
       19.611776
  0
LINE
  8
Default
 62
255
 10
     1087.972230
 20
      991.450905
 30
       19.550983
 11
     1087.976689
 21
      991.384502
 31
       19.573265
  0
LINE
  8
Default
 62
255
 10
     1087.976689
 20
      991.384502
 30
       19.573265
 11
     1087.979904
 21
      991.327592
 31
       19.577702
  0
LINE
  8
Default
 62
255
 10
     1087.979904
 20
      991.327592
 30
       19.577702
 11
     1087.995261
 21
      991.255154
 31
       19.589842
  0
LINE
  8
Default
 62
255
 10
     1087.995261
 20
      991.255154
 30
       19.589842
 11
     1088.029502
 21
      991.126228
 31
       19.591102
  0
LINE
  8
Default
 62
255
 10
     1088.029502
 20
      991.126228
 30
       19.591102
 11
     1088.122934
 21
      991.014146
 31
       19.617337
  0
LINE
  8
Default
 62
255
 10
     1088.122934
 20
      991.014146
 30
       19.617337
 11
     1088.205257
 21
      990.947023
 31
       19.622988
  0
LINE
  8
Default
 62
255
 10
     1088.205257
 20
      990.947023
 30
       19.622988
 11
     1088.287330
 21
      990.886089
 31
       19.640847
  0
LINE
  8
Default
 62
255
 10
     1088.287330
 20
      990.886089
 30
       19.640847
 11
     1088.372985
 21
      990.851364
 31
       19.642930
  0
LINE
  8
Default
 62
255
 10
     1088.372985
 20
      990.851364
 30
       19.642930
 11
     1088.503337
 21
      990.848790
 31
       19.635525
  0
LINE
  8
Default
 62
255
 10
     1088.503337
 20
      990.848790
 30
       19.635525
 11
     1088.592940
 21
      990.862185
 31
       19.640955
  0
LINE
  8
Default
 62
255
 10
     1088.592940
 20
      990.862185
 30
       19.640955
 11
     1088.681861
 21
      990.882509
 31
       19.653287
  0
LINE
  8
Default
 62
255
 10
     1088.418169
 20
      987.406246
 30
       19.926268
 11
     1088.429170
 21
      987.480421
 31
       19.851295
  0
LINE
  8
Default
 62
255
 10
     1088.429170
 20
      987.480421
 30
       19.851295
 11
     1088.558790
 21
      987.574424
 31
       19.885933
  0
LINE
  8
Default
 62
255
 10
     1088.558790
 20
      987.574424
 30
       19.885933
 11
     1088.644103
 21
      987.541115
 31
       19.865131
  0
LINE
  8
Default
 62
255
 10
     1088.644103
 20
      987.541115
 30
       19.865131
 11
     1088.753058
 21
      987.654116
 31
       19.855200
  0
LINE
  8
Default
 62
255
 10
     1088.753058
 20
      987.654116
 30
       19.855200
 11
     1088.827645
 21
      987.665062
 31
       19.854788
  0
LINE
  8
Default
 62
255
 10
     1088.827645
 20
      987.665062
 30
       19.854788
 11
     1088.865780
 21
      987.657858
 31
       19.824153
  0
LINE
  8
Default
 62
255
 10
     1088.865780
 20
      987.657858
 30
       19.824153
 11
     1089.012951
 21
      987.643207
 31
       19.805789
  0
LINE
  8
Default
 62
255
 10
     1089.012951
 20
      987.643207
 30
       19.805789
 11
     1089.039823
 21
      987.580477
 31
       19.801054
  0
LINE
  8
Default
 62
255
 10
     1089.039823
 20
      987.580477
 30
       19.801054
 11
     1089.157522
 21
      987.544851
 31
       19.793857
  0
LINE
  8
Default
 62
255
 10
     1089.157522
 20
      987.544851
 30
       19.793857
 11
     1089.231138
 21
      987.553713
 31
       19.811039
  0
LINE
  8
Default
 62
255
 10
     1088.891138
 20
      986.774484
 30
       19.982833
 11
     1088.947692
 21
      986.836677
 31
       19.948842
  0
LINE
  8
Default
 62
255
 10
     1088.947692
 20
      986.836677
 30
       19.948842
 11
     1088.946453
 21
      986.861022
 31
       19.895720
  0
LINE
  8
Default
 62
255
 10
     1088.946453
 20
      986.861022
 30
       19.895720
 11
     1088.968277
 21
      986.887381
 31
       19.827655
  0
LINE
  8
Default
 62
255
 10
     1088.968277
 20
      986.887381
 30
       19.827655
 11
     1089.026023
 21
      986.971011
 31
       19.774301
  0
LINE
  8
Default
 62
255
 10
     1089.026023
 20
      986.971011
 30
       19.774301
 11
     1089.118789
 21
      987.092346
 31
       19.771999
  0
LINE
  8
Default
 62
255
 10
     1089.411941
 20
      987.434322
 30
       19.964325
 11
     1089.520175
 21
      987.538147
 31
       19.918946
  0
LINE
  8
Default
 62
255
 10
     1088.947692
 20
      986.836677
 30
       19.948842
 11
     1089.038988
 21
      986.766453
 31
       19.961325
  0
LINE
  8
Default
 62
255
 10
     1089.038988
 20
      986.766453
 30
       19.961325
 11
     1089.178515
 21
      986.673943
 31
       19.935107
  0
LINE
  8
Default
 62
255
 10
     1089.178515
 20
      986.673943
 30
       19.935107
 11
     1089.346000
 21
      986.530000
 31
       19.985000
  0
LINE
  8
Default
 62
255
 10
     1089.346000
 20
      986.530000
 30
       19.985000
 11
     1089.420604
 21
      986.469961
 31
       19.925108
  0
LINE
  8
Default
 62
255
 10
     1088.418169
 20
      987.406246
 30
       19.926268
 11
     1088.434262
 21
      987.173326
 31
       19.921331
  0
LINE
  8
Default
 62
255
 10
     1088.434262
 20
      987.173326
 30
       19.921331
 11
     1088.576198
 21
      986.997116
 31
       19.929523
  0
LINE
  8
Default
 62
255
 10
     1088.576198
 20
      986.997116
 30
       19.929523
 11
     1088.690377
 21
      986.880357
 31
       19.924925
  0
LINE
  8
Default
 62
255
 10
     1088.690377
 20
      986.880357
 30
       19.924925
 11
     1088.891138
 21
      986.774484
 31
       19.982833
  0
LINE
  8
Default
 62
255
 10
     1090.946014
 20
      989.516331
 30
       19.793218
 11
     1090.841066
 21
      989.413805
 31
       19.815165
  0
LINE
  8
Default
 62
255
 10
     1090.841066
 20
      989.413805
 30
       19.815165
 11
     1090.788123
 21
      989.366398
 31
       19.818444
  0
LINE
  8
Default
 62
255
 10
     1090.788123
 20
      989.366398
 30
       19.818444
 11
     1090.732129
 21
      989.303117
 31
       19.834896
  0
LINE
  8
Default
 62
255
 10
     1090.732129
 20
      989.303117
 30
       19.834896
 11
     1090.688091
 21
      989.195176
 31
       19.856926
  0
LINE
  8
Default
 62
255
 10
     1090.688091
 20
      989.195176
 30
       19.856926
 11
     1090.698065
 21
      989.134049
 31
       19.912942
  0
LINE
  8
Default
 62
255
 10
     1090.698065
 20
      989.134049
 30
       19.912942
 11
     1090.624652
 21
      989.073448
 31
       19.896580
  0
LINE
  8
Default
 62
255
 10
     1090.624652
 20
      989.073448
 30
       19.896580
 11
     1090.548259
 21
      988.953271
 31
       19.921718
  0
LINE
  8
Default
 62
255
 10
     1090.548259
 20
      988.953271
 30
       19.921718
 11
     1090.435920
 21
      988.858847
 31
       19.913860
  0
LINE
  8
Default
 62
255
 10
     1090.435920
 20
      988.858847
 30
       19.913860
 11
     1090.357251
 21
      988.735316
 31
       19.894296
  0
LINE
  8
Default
 62
255
 10
     1090.357251
 20
      988.735316
 30
       19.894296
 11
     1090.302331
 21
      988.648840
 31
       19.926516
  0
LINE
  8
Default
 62
255
 10
     1090.302331
 20
      988.648840
 30
       19.926516
 11
     1090.349582
 21
      988.611949
 31
       19.953268
  0
LINE
  8
Default
 62
255
 10
     1090.349582
 20
      988.611949
 30
       19.953268
 11
     1090.432332
 21
      988.559939
 31
       19.986182
  0
LINE
  8
Default
 62
255
 10
     1090.432332
 20
      988.559939
 30
       19.986182
 11
     1090.508246
 21
      988.547069
 31
       19.988201
  0
LINE
  8
Default
 62
255
 10
     1090.508246
 20
      988.547069
 30
       19.988201
 11
     1090.526370
 21
      988.605759
 31
       19.972136
  0
LINE
  8
Default
 62
255
 10
     1090.526370
 20
      988.605759
 30
       19.972136
 11
     1090.543064
 21
      988.691597
 31
       19.961539
  0
LINE
  8
Default
 62
255
 10
     1090.543064
 20
      988.691597
 30
       19.961539
 11
     1090.582363
 21
      988.796356
 31
       19.902445
  0
LINE
  8
Default
 62
255
 10
     1090.582363
 20
      988.796356
 30
       19.902445
 11
     1090.714744
 21
      988.943448
 31
       19.983889
  0
LINE
  8
Default
 62
255
 10
     1090.714744
 20
      988.943448
 30
       19.983889
 11
     1090.786825
 21
      988.989248
 31
       19.906470
  0
LINE
  8
Default
 62
255
 10
     1091.176032
 20
      988.307053
 30
       19.907771
 11
     1091.125836
 21
      988.220264
 31
       19.923290
  0
LINE
  8
Default
 62
255
 10
     1091.125836
 20
      988.220264
 30
       19.923290
 11
     1091.084538
 21
      988.169861
 31
       19.934617
  0
LINE
  8
Default
 62
255
 10
     1091.084538
 20
      988.169861
 30
       19.934617
 11
     1090.940244
 21
      988.008045
 31
       19.961108
  0
LINE
  8
Default
 62
255
 10
     1090.940244
 20
      988.008045
 30
       19.961108
 11
     1090.889600
 21
      988.074138
 31
       19.959124
  0
LINE
  8
Default
 62
255
 10
     1090.889600
 20
      988.074138
 30
       19.959124
 11
     1090.854684
 21
      988.187788
 31
       19.961283
  0
LINE
  8
Default
 62
255
 10
     1090.854684
 20
      988.187788
 30
       19.961283
 11
     1090.816227
 21
      988.264677
 31
       19.973662
  0
LINE
  8
Default
 62
255
 10
     1090.816227
 20
      988.264677
 30
       19.973662
 11
     1090.807628
 21
      988.291911
 31
       19.960660
  0
LINE
  8
Default
 62
255
 10
     1090.807628
 20
      988.291911
 30
       19.960660
 11
     1090.884091
 21
      988.385193
 31
       19.952551
  0
LINE
  8
Default
 62
255
 10
     1090.884091
 20
      988.385193
 30
       19.952551
 11
     1090.934293
 21
      988.458220
 31
       19.929478
  0
LINE
  8
Default
 62
255
 10
     1090.934293
 20
      988.458220
 30
       19.929478
 11
     1091.020090
 21
      988.447880
 31
       19.923559
  0
LINE
  8
Default
 62
255
 10
     1091.020090
 20
      988.447880
 30
       19.923559
 11
     1091.075998
 21
      988.390548
 31
       19.915770
  0
LINE
  8
Default
 62
255
 10
     1091.075998
 20
      988.390548
 30
       19.915770
 11
     1091.119243
 21
      988.345544
 31
       19.914742
  0
LINE
  8
Default
 62
255
 10
     1091.119243
 20
      988.345544
 30
       19.914742
 11
     1091.176032
 21
      988.307053
 31
       19.907771
  0
LINE
  8
Default
 62
255
 10
     1091.176032
 20
      988.307053
 30
       19.907771
 11
     1091.201279
 21
      988.343293
 31
       19.817546
  0
LINE
  8
Default
 62
255
 10
     1091.201279
 20
      988.343293
 30
       19.817546
 11
     1091.136005
 21
      988.382366
 31
       19.796934
  0
LINE
  8
Default
 62
255
 10
     1091.136005
 20
      988.382366
 30
       19.796934
 11
     1091.062534
 21
      988.446174
 31
       19.791496
  0
LINE
  8
Default
 62
255
 10
     1091.062534
 20
      988.446174
 30
       19.791496
 11
     1090.986485
 21
      988.510282
 31
       19.802499
  0
LINE
  8
Default
 62
255
 10
     1090.986485
 20
      988.510282
 30
       19.802499
 11
     1090.954847
 21
      988.509634
 31
       19.807357
  0
LINE
  8
Default
 62
255
 10
     1090.954847
 20
      988.509634
 30
       19.807357
 11
     1090.889874
 21
      988.472521
 31
       19.846967
  0
LINE
  8
Default
 62
255
 10
     1090.889874
 20
      988.472521
 30
       19.846967
 11
     1090.797067
 21
      988.327116
 31
       19.841374
  0
LINE
  8
Default
 62
255
 10
     1090.797067
 20
      988.327116
 30
       19.841374
 11
     1090.666828
 21
      988.105423
 31
       19.748819
  0
LINE
  8
Default
 62
255
 10
     1090.934293
 20
      988.458220
 30
       19.929478
 11
     1090.965189
 21
      988.493727
 31
       19.891234
  0
LINE
  8
Default
 62
255
 10
     1090.965189
 20
      988.493727
 30
       19.891234
 11
     1090.954847
 21
      988.509634
 31
       19.807357
  0
LINE
  8
Default
 62
255
 10
     1090.666828
 20
      988.105423
 30
       19.748819
 11
     1090.724211
 21
      987.991337
 31
       19.763387
  0
LINE
  8
Default
 62
255
 10
     1087.972230
 20
      991.450905
 30
       19.550983
 11
     1088.036712
 21
      991.686357
 31
       19.490112
  0
LINE
  8
Default
 62
255
 10
     1088.036712
 20
      991.686357
 30
       19.490112
 11
     1088.262144
 21
      991.891764
 31
       19.476481
  0
LINE
  8
Default
 62
255
 10
     1088.262144
 20
      991.891764
 30
       19.476481
 11
     1088.385145
 21
      991.884474
 31
       19.515796
  0
LINE
  8
Default
 62
255
 10
     1088.385145
 20
      991.884474
 30
       19.515796
 11
     1088.555884
 21
      991.852089
 31
       19.515853
  0
LINE
  8
Default
 62
255
 10
     1088.555884
 20
      991.852089
 30
       19.515853
 11
     1088.625010
 21
      991.768827
 31
       19.490777
  0
LINE
  8
Default
 62
255
 10
     1088.625010
 20
      991.768827
 30
       19.490777
 11
     1088.701554
 21
      991.750796
 31
       19.513786
  0
LINE
  8
Default
 62
255
 10
     1088.958073
 20
      991.060064
 30
       19.743805
 11
     1088.882899
 21
      991.001550
 31
       19.772923
  0
LINE
  8
Default
 62
255
 10
     1088.882899
 20
      991.001550
 30
       19.772923
 11
     1088.840770
 21
      990.944895
 31
       19.774034
  0
LINE
  8
Default
 62
255
 10
     1088.840770
 20
      990.944895
 30
       19.774034
 11
     1088.761855
 21
      990.869042
 31
       19.774420
  0
LINE
  8
Default
 62
255
 10
     1088.761855
 20
      990.869042
 30
       19.774420
 11
     1088.705682
 21
      990.791558
 31
       19.780502
  0
LINE
  8
Default
 62
255
 10
     1088.705682
 20
      990.791558
 30
       19.780502
 11
     1088.610713
 21
      990.759698
 31
       19.814696
  0
LINE
  8
Default
 62
255
 10
     1088.610713
 20
      990.759698
 30
       19.814696
 11
     1088.529877
 21
      990.649852
 31
       19.830341
  0
LINE
  8
Default
 62
255
 10
     1088.529877
 20
      990.649852
 30
       19.830341
 11
     1088.471158
 21
      990.617589
 31
       19.833258
  0
LINE
  8
Default
 62
255
 10
     1088.471158
 20
      990.617589
 30
       19.833258
 11
     1088.400147
 21
      990.584304
 31
       19.824820
  0
LINE
  8
Default
 62
255
 10
     1088.958073
 20
      991.060064
 30
       19.743805
 11
     1089.024011
 21
      990.975279
 31
       19.788463
  0
LINE
  8
Default
 62
255
 10
     1089.024011
 20
      990.975279
 30
       19.788463
 11
     1089.140866
 21
      990.866336
 31
       19.798131
  0
LINE
  8
Default
 62
255
 10
     1089.140866
 20
      990.866336
 30
       19.798131
 11
     1089.181032
 21
      990.846245
 31
       19.808788
  0
LINE
  8
Default
 62
255
 10
     1087.768233
 20
      990.398501
 30
       19.638632
 11
     1087.872354
 21
      990.541111
 31
       19.603389
  0
LINE
  8
Default
 62
255
 10
     1090.879645
 20
      989.604337
 30
       19.788545
 11
     1090.795922
 21
      989.651715
 31
       19.790473
  0
LINE
  8
Default
 62
255
 10
     1090.795922
 20
      989.651715
 30
       19.790473
 11
     1090.716407
 21
      989.683848
 31
       19.790975
  0
LINE
  8
Default
 62
255
 10
     1090.716407
 20
      989.683848
 30
       19.790975
 11
     1090.653040
 21
      989.751738
 31
       19.786419
  0
LINE
  8
Default
 62
255
 10
     1090.653040
 20
      989.751738
 30
       19.786419
 11
     1090.606813
 21
      989.818404
 31
       19.801582
  0
LINE
  8
Default
 62
255
 10
     1090.606813
 20
      989.818404
 30
       19.801582
 11
     1090.512290
 21
      989.842607
 31
       19.822252
  0
LINE
  8
Default
 62
255
 10
     1090.512290
 20
      989.842607
 30
       19.822252
 11
     1090.425845
 21
      989.971164
 31
       19.829651
  0
LINE
  8
Default
 62
255
 10
     1086.572028
 20
      988.740813
 30
       19.895411
 11
     1086.617607
 21
      988.784263
 31
       19.880083
  0
LINE
  8
Default
 62
255
 10
     1086.617607
 20
      988.784263
 30
       19.880083
 11
     1086.654224
 21
      988.825106
 31
       19.882852
  0
LINE
  8
Default
 62
255
 10
     1086.654224
 20
      988.825106
 30
       19.882852
 11
     1086.742202
 21
      988.926844
 31
       19.870438
  0
LINE
  8
Default
 62
255
 10
     1086.742202
 20
      988.926844
 30
       19.870438
 11
     1086.846604
 21
      989.041048
 31
       19.885949
  0
LINE
  8
Default
 62
255
 10
     1086.846604
 20
      989.041048
 30
       19.885949
 11
     1086.921676
 21
      989.097129
 31
       19.888955
  0
LINE
  8
Default
 62
255
 10
     1086.921676
 20
      989.097129
 30
       19.888955
 11
     1086.999693
 21
      989.131713
 31
       19.867901
  0
LINE
  8
Default
 62
255
 10
     1086.467025
 20
      988.836193
 30
       19.735591
 11
     1086.510809
 21
      988.887225
 31
       19.756153
  0
LINE
  8
Default
 62
255
 10
     1086.510809
 20
      988.887225
 30
       19.756153
 11
     1086.554374
 21
      988.948336
 31
       19.759872
  0
LINE
  8
Default
 62
255
 10
     1086.554374
 20
      988.948336
 30
       19.759872
 11
     1086.612121
 21
      989.017605
 31
       19.762293
  0
LINE
  8
Default
 62
255
 10
     1086.612121
 20
      989.017605
 30
       19.762293
 11
     1086.659346
 21
      989.035799
 31
       19.764929
  0
LINE
  8
Default
 62
255
 10
     1086.659346
 20
      989.035799
 30
       19.764929
 11
     1086.697587
 21
      989.100466
 31
       19.747600
  0
LINE
  8
Default
 62
255
 10
     1086.697587
 20
      989.100466
 30
       19.747600
 11
     1086.747991
 21
      989.133982
 31
       19.748153
  0
LINE
  8
Default
 62
255
 10
     1086.747991
 20
      989.133982
 30
       19.748153
 11
     1086.773368
 21
      989.158584
 31
       19.750105
  0
LINE
  8
Default
 62
255
 10
     1086.773368
 20
      989.158584
 30
       19.750105
 11
     1086.812553
 21
      989.193206
 31
       19.755819
  0
LINE
  8
Default
 62
255
 10
     1086.812553
 20
      989.193206
 30
       19.755819
 11
     1086.836449
 21
      989.132760
 31
       19.762184
  0
LINE
  8
Default
 62
255
 10
     1086.519018
 20
      989.026962
 30
       19.477692
 11
     1086.601936
 21
      989.102039
 31
       19.486648
  0
LINE
  8
Default
 62
255
 10
     1086.601936
 20
      989.102039
 30
       19.486648
 11
     1086.669863
 21
      989.154498
 31
       19.487496
  0
LINE
  8
Default
 62
255
 10
     1086.669863
 20
      989.154498
 30
       19.487496
 11
     1086.784960
 21
      989.259154
 31
       19.492020
  0
LINE
  8
Default
 62
255
 10
     1086.784960
 20
      989.259154
 30
       19.492020
 11
     1086.894579
 21
      989.344822
 31
       19.575348
  0
LINE
  8
Default
 62
255
 10
     1087.295211
 20
      989.336736
 30
       19.791506
 11
     1087.250992
 21
      989.427769
 31
       19.766860
  0
LINE
  8
Default
 62
255
 10
     1087.250992
 20
      989.427769
 30
       19.766860
 11
     1087.195163
 21
      989.454040
 31
       19.767887
  0
LINE
  8
Default
 62
255
 10
     1087.195163
 20
      989.454040
 30
       19.767887
 11
     1087.133829
 21
      989.478479
 31
       19.762141
  0
LINE
  8
Default
 62
255
 10
     1087.133829
 20
      989.478479
 30
       19.762141
 11
     1087.064127
 21
      989.480053
 31
       19.736462
  0
LINE
  8
Default
 62
255
 10
     1087.064127
 20
      989.480053
 30
       19.736462
 11
     1086.987973
 21
      989.402072
 31
       19.762196
  0
LINE
  8
Default
 62
255
 10
     1086.987973
 20
      989.402072
 30
       19.762196
 11
     1087.023967
 21
      989.375178
 31
       19.764425
  0
LINE
  8
Default
 62
255
 10
     1087.023967
 20
      989.375178
 30
       19.764425
 11
     1086.993046
 21
      989.312868
 31
       19.767935
  0
LINE
  8
Default
 62
255
 10
     1086.993046
 20
      989.312868
 30
       19.767935
 11
     1086.983133
 21
      989.259026
 31
       19.779484
  0
LINE
  8
Default
 62
255
 10
     1086.983133
 20
      989.259026
 30
       19.779484
 11
     1086.927266
 21
      989.182547
 31
       19.777414
  0
LINE
  8
Default
 62
255
 10
     1086.960952
 20
      990.886980
 30
       19.462037
 11
     1086.886135
 21
      990.782729
 31
       19.387924
  0
LINE
  8
Default
 62
255
 10
     1086.886135
 20
      990.782729
 30
       19.387924
 11
     1086.777235
 21
      990.604173
 31
       19.390938
  0
LINE
  8
Default
 62
255
 10
     1086.777235
 20
      990.604173
 30
       19.390938
 11
     1086.668314
 21
      990.411792
 31
       19.371940
  0
LINE
  8
Default
 62
255
 10
     1086.668314
 20
      990.411792
 30
       19.371940
 11
     1086.537391
 21
      990.326615
 31
       19.344321
  0
LINE
  8
Default
 62
255
 10
     1086.537391
 20
      990.326615
 30
       19.344321
 11
     1086.336819
 21
      990.069291
 31
       19.330605
  0
LINE
  8
Default
 62
255
 10
     1086.336819
 20
      990.069291
 30
       19.330605
 11
     1086.210217
 21
      989.958603
 31
       19.319143
  0
LINE
  8
Default
 62
255
 10
     1086.055416
 20
      989.822238
 30
       19.341648
 11
     1085.963839
 21
      989.739140
 31
       19.406387
  0
LINE
  8
Default
 62
255
 10
     1085.963839
 20
      989.739140
 30
       19.406387
 11
     1086.049407
 21
      989.671641
 31
       19.376608
  0
LINE
  8
Default
 62
255
 10
     1086.049407
 20
      989.671641
 30
       19.376608
 11
     1086.120983
 21
      989.560905
 31
       19.411523
  0
LINE
  8
Default
 62
255
 10
     1086.120983
 20
      989.560905
 30
       19.411523
 11
     1086.220853
 21
      989.411957
 31
       19.405106
  0
LINE
  8
Default
 62
255
 10
     1086.220853
 20
      989.411957
 30
       19.405106
 11
     1086.186558
 21
      989.223766
 31
       19.497455
  0
LINE
  8
Default
 62
255
 10
     1086.186558
 20
      989.223766
 30
       19.497455
 11
     1086.164154
 21
      989.155951
 31
       19.528906
  0
LINE
  8
Default
 62
255
 10
     1086.164154
 20
      989.155951
 30
       19.528906
 11
     1086.193913
 21
      989.118749
 31
       19.521660
  0
LINE
  8
Default
 62
255
 10
     1086.193913
 20
      989.118749
 30
       19.521660
 11
     1086.364139
 21
      989.030853
 31
       19.462490
  0
LINE
  8
Default
 62
255
 10
     1086.364139
 20
      989.030853
 30
       19.462490
 11
     1086.454936
 21
      988.968269
 31
       19.512226
  0
LINE
  8
Default
 62
255
 10
     1086.454936
 20
      988.968269
 30
       19.512226
 11
     1086.519018
 21
      989.026962
 31
       19.477692
  0
LINE
  8
Default
 62
255
 10
     1087.743346
 20
      990.366539
 30
       19.559903
 11
     1087.818627
 21
      990.286832
 31
       19.533256
  0
LINE
  8
Default
 62
255
 10
     1087.818627
 20
      990.286832
 30
       19.533256
 11
     1087.927291
 21
      990.168795
 31
       19.565186
  0
LINE
  8
Default
 62
255
 10
     1087.927291
 20
      990.168795
 30
       19.565186
 11
     1088.104107
 21
      989.942705
 31
       19.573486
  0
LINE
  8
Default
 62
255
 10
     1088.140870
 20
      989.821441
 30
       19.620466
 11
     1088.242940
 21
      989.684739
 31
       19.561714
  0
LINE
  8
Default
 62
255
 10
     1088.242940
 20
      989.684739
 30
       19.561714
 11
     1088.010661
 21
      989.854931
 31
       19.579447
  0
LINE
  8
Default
 62
255
 10
     1087.377604
 20
      989.566876
 30
       19.663334
 11
     1087.406893
 21
      989.497256
 31
       19.648362
  0
LINE
  8
Default
 62
255
 10
     1087.406893
 20
      989.497256
 30
       19.648362
 11
     1087.513372
 21
      989.357193
 31
       19.594060
  0
LINE
  8
Default
 62
255
 10
     1087.513372
 20
      989.357193
 30
       19.594060
 11
     1087.666199
 21
      989.143747
 31
       19.493662
  0
LINE
  8
Default
 62
255
 10
     1087.666199
 20
      989.143747
 30
       19.493662
 11
     1087.720593
 21
      989.053981
 31
       19.506672
  0
LINE
  8
Default
 62
255
 10
     1087.720593
 20
      989.053981
 30
       19.506672
 11
     1087.827439
 21
      988.976031
 31
       19.492635
  0
LINE
  8
Default
 62
255
 10
     1087.827439
 20
      988.976031
 30
       19.492635
 11
     1087.932436
 21
      988.919609
 31
       19.481552
  0
LINE
  8
Default
 62
255
 10
     1090.484039
 20
      990.052540
 30
       19.635607
 11
     1090.555531
 21
      989.962316
 31
       19.642501
  0
LINE
  8
Default
 62
255
 10
     1090.555531
 20
      989.962316
 30
       19.642501
 11
     1090.615785
 21
      989.895614
 31
       19.630710
  0
LINE
  8
Default
 62
255
 10
     1090.615785
 20
      989.895614
 30
       19.630710
 11
     1090.724414
 21
      989.817912
 31
       19.616957
  0
LINE
  8
Default
 62
255
 10
     1090.724414
 20
      989.817912
 30
       19.616957
 11
     1090.818053
 21
      989.757009
 31
       19.630419
  0
LINE
  8
Default
 62
255
 10
     1090.818053
 20
      989.757009
 30
       19.630419
 11
     1090.915304
 21
      989.701106
 31
       19.644334
  0
LINE
  8
Default
 62
255
 10
     1090.915304
 20
      989.701106
 30
       19.644334
 11
     1091.014729
 21
      989.685774
 31
       19.645236
  0
LINE
  8
Default
 62
255
 10
     1091.014729
 20
      989.685774
 30
       19.645236
 11
     1091.134615
 21
      989.623858
 31
       19.690571
  0
LINE
  8
Default
 62
255
 10
     1090.879645
 20
      989.604337
 30
       19.788545
 11
     1090.946014
 21
      989.516331
 31
       19.793218
  0
LINE
  8
Default
 62
255
 10
     1089.482216
 20
      990.854325
 30
       19.503020
 11
     1089.276121
 21
      991.011835
 31
       19.514748
  0
LINE
  8
Default
 62
255
 10
     1089.276121
 20
      991.011835
 30
       19.514748
 11
     1089.138484
 21
      991.114966
 31
       19.505642
  0
LINE
  8
Default
 62
255
 10
     1088.976702
 20
      991.176694
 30
       19.472775
 11
     1088.746639
 21
      990.998601
 31
       19.442398
  0
LINE
  8
Default
 62
255
 10
     1088.746639
 20
      990.998601
 30
       19.442398
 11
     1088.632820
 21
      990.931679
 31
       19.472516
  0
LINE
  8
Default
 62
255
 10
     1088.632820
 20
      990.931679
 30
       19.472516
 11
     1088.499516
 21
      990.924888
 31
       19.439816
  0
LINE
  8
Default
 62
255
 10
     1088.499516
 20
      990.924888
 30
       19.439816
 11
     1088.441216
 21
      990.974872
 31
       19.386833
  0
LINE
  8
Default
 62
255
 10
     1088.441216
 20
      990.974872
 30
       19.386833
 11
     1088.362551
 21
      991.066749
 31
       19.319776
  0
LINE
  8
Default
 62
255
 10
     1088.362551
 20
      991.066749
 30
       19.319776
 11
     1088.340667
 21
      991.142851
 31
       19.283372
  0
LINE
  8
Default
 62
255
 10
     1088.340667
 20
      991.142851
 30
       19.283372
 11
     1088.257561
 21
      991.254826
 31
       19.238193
  0
LINE
  8
Default
 62
255
 10
     1088.257561
 20
      991.254826
 30
       19.238193
 11
     1088.235851
 21
      991.327601
 31
       19.203665
  0
LINE
  8
Default
 62
255
 10
     1088.235851
 20
      991.327601
 30
       19.203665
 11
     1088.231420
 21
      991.441694
 31
       19.194557
  0
LINE
  8
Default
 62
255
 10
     1088.231420
 20
      991.441694
 30
       19.194557
 11
     1088.277973
 21
      991.505579
 31
       19.183577
  0
LINE
  8
Default
 62
255
 10
     1088.277973
 20
      991.505579
 30
       19.183577
 11
     1088.349493
 21
      991.549639
 31
       19.165100
  0
LINE
  8
Default
 62
255
 10
     1088.349493
 20
      991.549639
 30
       19.165100
 11
     1088.475698
 21
      991.638747
 31
       19.154423
  0
LINE
  8
Default
 62
255
 10
     1088.475698
 20
      991.638747
 30
       19.154423
 11
     1088.570209
 21
      991.744568
 31
       19.252002
  0
LINE
  8
Default
 62
255
 10
     1088.698269
 20
      991.678117
 30
       19.263153
 11
     1088.771248
 21
      991.645306
 31
       19.310603
  0
LINE
  8
Default
 62
255
 10
     1088.771248
 20
      991.645306
 30
       19.310603
 11
     1088.883058
 21
      991.573579
 31
       19.392336
  0
LINE
  8
Default
 62
255
 10
     1088.883058
 20
      991.573579
 30
       19.392336
 11
     1089.054524
 21
      991.686344
 31
       19.436544
  0
LINE
  8
Default
 62
255
 10
     1089.054524
 20
      991.686344
 30
       19.436544
 11
     1089.160125
 21
      991.548818
 31
       19.416121
  0
LINE
  8
Default
 62
255
 10
     1089.160125
 20
      991.548818
 30
       19.416121
 11
     1089.282773
 21
      991.474151
 31
       19.454504
  0
LINE
  8
Default
 62
255
 10
     1089.282773
 20
      991.474151
 30
       19.454504
 11
     1089.406077
 21
      991.354068
 31
       19.475044
  0
LINE
  8
Default
 62
255
 10
     1089.406077
 20
      991.354068
 30
       19.475044
 11
     1089.448000
 21
      991.283000
 31
       19.462000
  0
LINE
  8
Default
 62
255
 10
     1089.448000
 20
      991.283000
 30
       19.462000
 11
     1089.568969
 21
      991.156418
 31
       19.464192
  0
LINE
  8
Default
 62
255
 10
     1089.568969
 20
      991.156418
 30
       19.464192
 11
     1089.701642
 21
      991.071343
 31
       19.471346
  0
LINE
  8
Default
 62
255
 10
     1088.811018
 20
      990.450651
 30
       19.796741
 11
     1089.034642
 21
      990.336153
 31
       19.776100
  0
LINE
  8
Default
 62
255
 10
     1089.034642
 20
      990.336153
 30
       19.776100
 11
     1089.128675
 21
      990.314917
 31
       19.781359
  0
LINE
  8
Default
 62
255
 10
     1088.400147
 20
      990.584304
 30
       19.824820
 11
     1088.555667
 21
      990.531584
 31
       19.784710
  0
LINE
  8
Default
 62
255
 10
     1088.555667
 20
      990.531584
 30
       19.784710
 11
     1088.675416
 21
      990.456718
 31
       19.759137
  0
LINE
  8
Default
 62
255
 10
     1088.675416
 20
      990.456718
 30
       19.759137
 11
     1088.811018
 21
      990.450651
 31
       19.796741
  0
LINE
  8
Default
 62
255
 10
     1089.128675
 20
      990.314917
 30
       19.781359
 11
     1089.243094
 21
      990.178792
 31
       19.760334
  0
LINE
  8
Default
 62
255
 10
     1089.243094
 20
      990.178792
 30
       19.760334
 11
     1089.381838
 21
      990.033204
 31
       19.820574
  0
LINE
  8
Default
 62
255
 10
     1089.381838
 20
      990.033204
 30
       19.820574
 11
     1089.359237
 21
      989.713429
 31
       19.813336
  0
LINE
  8
Default
 62
255
 10
     1089.359237
 20
      989.713429
 30
       19.813336
 11
     1089.368430
 21
      989.615818
 31
       19.811854
  0
LINE
  8
Default
 62
255
 10
     1089.368430
 20
      989.615818
 30
       19.811854
 11
     1089.306609
 21
      989.269686
 31
       19.812973
  0
LINE
  8
Default
 62
255
 10
     1089.306609
 20
      989.269686
 30
       19.812973
 11
     1089.203039
 21
      989.044656
 31
       19.816290
  0
LINE
  8
Default
 62
255
 10
     1089.203039
 20
      989.044656
 30
       19.816290
 11
     1089.006753
 21
      988.768109
 31
       19.806852
  0
LINE
  8
Default
 62
255
 10
     1089.006753
 20
      988.768109
 30
       19.806852
 11
     1088.904561
 21
      988.689696
 31
       19.786541
  0
LINE
  8
Default
 62
255
 10
     1088.904561
 20
      988.689696
 30
       19.786541
 11
     1088.794167
 21
      988.615466
 31
       19.820329
  0
LINE
  8
Default
 62
255
 10
     1088.794167
 20
      988.615466
 30
       19.820329
 11
     1088.683482
 21
      988.526791
 31
       19.841015
  0
LINE
  8
Default
 62
255
 10
     1088.683482
 20
      988.526791
 30
       19.841015
 11
     1088.405446
 21
      988.331424
 31
       19.832049
  0
LINE
  8
Default
 62
255
 10
     1088.405446
 20
      988.331424
 30
       19.832049
 11
     1088.178983
 21
      988.236958
 31
       19.818850
  0
LINE
  8
Default
 62
255
 10
     1088.178983
 20
      988.236958
 30
       19.818850
 11
     1088.162020
 21
      988.304081
 31
       19.761190
  0
LINE
  8
Default
 62
255
 10
     1088.162020
 20
      988.304081
 30
       19.761190
 11
     1088.066260
 21
      988.370016
 31
       19.773895
  0
LINE
  8
Default
 62
255
 10
     1088.066260
 20
      988.370016
 30
       19.773895
 11
     1087.984947
 21
      988.402712
 31
       19.829395
  0
LINE
  8
Default
 62
255
 10
     1087.984947
 20
      988.402712
 30
       19.829395
 11
     1087.832592
 21
      988.527637
 31
       19.822030
  0
LINE
  8
Default
 62
255
 10
     1087.832592
 20
      988.527637
 30
       19.822030
 11
     1087.581714
 21
      988.658534
 31
       19.802785
  0
LINE
  8
Default
 62
255
 10
     1087.581714
 20
      988.658534
 30
       19.802785
 11
     1087.455001
 21
      988.876702
 31
       19.825113
  0
LINE
  8
Default
 62
255
 10
     1087.455001
 20
      988.876702
 30
       19.825113
 11
     1087.329441
 21
      989.051687
 31
       19.842456
  0
LINE
  8
Default
 62
255
 10
     1087.329441
 20
      989.051687
 30
       19.842456
 11
     1087.275548
 21
      989.242232
 31
       19.803361
  0
LINE
  8
Default
 62
255
 10
     1087.275548
 20
      989.242232
 30
       19.803361
 11
     1087.295211
 21
      989.336736
 31
       19.791506
  0
LINE
  8
Default
 62
255
 10
     1088.557060
 20
      989.238997
 30
       19.650664
 11
     1088.661287
 21
      989.026767
 31
       19.712407
  0
LINE
  8
Default
 62
255
 10
     1088.661287
 20
      989.026767
 30
       19.712407
 11
     1088.707560
 21
      988.949635
 31
       19.721490
  0
LINE
  8
Default
 62
255
 10
     1088.707560
 20
      988.949635
 30
       19.721490
 11
     1088.801927
 21
      988.803046
 31
       19.733358
  0
LINE
  8
Default
 62
255
 10
     1088.801927
 20
      988.803046
 30
       19.733358
 11
     1088.930362
 21
      988.866420
 31
       19.729814
  0
LINE
  8
Default
 62
255
 10
     1088.930362
 20
      988.866420
 30
       19.729814
 11
     1089.011719
 21
      988.929733
 31
       19.720560
  0
LINE
  8
Default
 62
255
 10
     1089.011719
 20
      988.929733
 30
       19.720560
 11
     1088.940917
 21
      989.054098
 31
       19.714486
  0
LINE
  8
Default
 62
255
 10
     1088.940917
 20
      989.054098
 30
       19.714486
 11
     1088.726432
 21
      989.457043
 31
       19.654323
  0
LINE
  8
Default
 62
255
 10
     1088.247787
 20
      988.955214
 30
       19.597538
 11
     1088.281881
 21
      988.890905
 31
       19.639276
  0
LINE
  8
Default
 62
255
 10
     1088.281881
 20
      988.890905
 30
       19.639276
 11
     1088.382028
 21
      988.803200
 31
       19.645508
  0
LINE
  8
Default
 62
255
 10
     1088.382028
 20
      988.803200
 30
       19.645508
 11
     1088.516276
 21
      988.678951
 31
       19.655668
  0
LINE
  8
Default
 62
255
 10
     1089.520175
 20
      987.538147
 30
       19.918946
 11
     1089.603966
 21
      987.665711
 31
       19.914480
  0
LINE
  8
Default
 62
255
 10
     1090.819084
 20
      989.449856
 30
       19.795519
 11
     1090.725500
 21
      989.344837
 31
       19.819955
  0
LINE
  8
Default
 62
255
 10
     1088.455207
 20
      987.318491
 30
       19.572793
 11
     1088.592947
 21
      987.115549
 31
       19.586810
  0
LINE
  8
Default
 62
255
 10
     1088.592947
 20
      987.115549
 30
       19.586810
 11
     1088.634412
 21
      987.028492
 31
       19.553658
  0
LINE
  8
Default
 62
255
 10
     1088.570209
 20
      991.744568
 30
       19.252002
 11
     1088.698269
 21
      991.678117
 31
       19.263153
  0
LINE
  8
Default
 62
255
 10
     1088.976702
 20
      991.176694
 30
       19.472775
 11
     1089.138484
 21
      991.114966
 31
       19.505642
  0
LINE
  8
Default
 62
255
 10
     1088.082696
 20
      990.658539
 30
       19.637609
 11
     1088.183945
 21
      990.579785
 31
       19.648768
  0
LINE
  8
Default
 62
255
 10
     1088.183945
 20
      990.579785
 30
       19.648768
 11
     1088.287895
 21
      990.482995
 31
       19.656547
  0
LINE
  8
Default
 62
255
 10
     1088.082696
 20
      990.658539
 30
       19.637609
 11
     1087.912318
 21
      990.766980
 31
       19.611776
  0
LINE
  8
Default
 62
255
 10
     1086.960952
 20
      990.886980
 30
       19.462037
 11
     1086.942287
 21
      990.962380
 31
       19.677065
  0
LINE
  8
Default
 62
255
 10
     1087.239784
 20
      991.275703
 30
       19.631392
 11
     1087.304042
 21
      991.231552
 31
       19.559240
  0
LINE
  8
Default
 62
255
 10
     1088.111042
 20
      990.587351
 30
       19.551869
 11
     1088.216091
 21
      990.475691
 31
       19.553200
  0
LINE
  8
Default
 62
255
 10
     1088.216091
 20
      990.475691
 30
       19.553200
 11
     1088.269810
 21
      990.331489
 31
       19.530696
  0
LINE
  8
Default
 62
255
 10
     1088.269810
 20
      990.331489
 30
       19.530696
 11
     1088.420359
 21
      990.111844
 31
       19.452138
  0
LINE
  8
Default
 62
255
 10
     1088.420359
 20
      990.111844
 30
       19.452138
 11
     1088.577191
 21
      990.022618
 31
       19.447906
  0
LINE
  8
Default
 62
255
 10
     1088.577191
 20
      990.022618
 30
       19.447906
 11
     1088.626562
 21
      989.956291
 31
       19.448750
  0
LINE
  8
Default
 62
255
 10
     1088.626562
 20
      989.956291
 30
       19.448750
 11
     1088.669736
 21
      989.894151
 31
       19.452430
  0
LINE
  8
Default
 62
255
 10
     1088.669736
 20
      989.894151
 30
       19.452430
 11
     1088.738828
 21
      989.796587
 31
       19.475862
  0
LINE
  8
Default
 62
255
 10
     1088.738828
 20
      989.796587
 30
       19.475862
 11
     1088.823922
 21
      989.620041
 31
       19.478765
  0
LINE
  8
Default
 62
255
 10
     1088.823922
 20
      989.620041
 30
       19.478765
 11
     1088.855302
 21
      989.511603
 31
       19.519523
  0
LINE
  8
Default
 62
255
 10
     1088.855302
 20
      989.511603
 30
       19.519523
 11
     1089.038624
 21
      989.076302
 31
       19.687875
  0
LINE
  8
Default
 62
255
 10
     1089.038624
 20
      989.076302
 30
       19.687875
 11
     1089.011719
 21
      988.929733
 31
       19.720560
  0
LINE
  8
Default
 62
255
 10
     1089.393444
 20
      987.333862
 30
       19.967118
 11
     1089.860421
 21
      986.944594
 31
       19.882456
  0
LINE
  8
Default
 62
255
 10
     1089.118789
 20
      987.092346
 30
       19.771999
 11
     1089.393444
 21
      987.333862
 31
       19.967118
  0
LINE
  8
Default
 62
255
 10
     1089.393444
 20
      987.333862
 30
       19.967118
 11
     1089.411941
 21
      987.434322
 31
       19.964325
  0
LINE
  8
Default
 62
255
 10
     1088.968277
 20
      986.887381
 30
       19.827655
 11
     1089.034482
 21
      986.814158
 31
       19.755266
  0
LINE
  8
Default
 62
255
 10
     1089.034482
 20
      986.814158
 30
       19.755266
 11
     1089.156898
 21
      986.775953
 31
       19.722470
  0
LINE
  8
Default
 62
255
 10
     1089.156898
 20
      986.775953
 30
       19.722470
 11
     1089.330036
 21
      986.672330
 31
       19.762309
  0
LINE
  8
Default
 62
255
 10
     1089.330036
 20
      986.672330
 30
       19.762309
 11
     1089.400370
 21
      986.626048
 31
       19.787576
  0
LINE
  8
Default
 62
255
 10
     1089.400370
 20
      986.626048
 30
       19.787576
 11
     1089.653856
 21
      986.616779
 31
       19.864583
  0
LINE
  8
Default
 62
255
 10
     1089.482216
 20
      990.854325
 30
       19.503020
 11
     1090.484039
 21
      990.052540
 31
       19.635607
  0
LINE
  8
Default
 62
255
 10
     1086.055416
 20
      989.822238
 30
       19.341648
 11
     1086.108170
 21
      989.909919
 31
       19.335908
  0
LINE
  8
Default
 62
255
 10
     1086.108170
 20
      989.909919
 30
       19.335908
 11
     1086.210217
 21
      989.958603
 31
       19.319143
  0
LINE
  8
Default
 62
255
 10
     1088.104107
 20
      989.942705
 30
       19.573486
 11
     1088.140870
 21
      989.821441
 31
       19.620466
  0
LINE
  8
Default
 62
255
 10
     1088.010661
 20
      989.854931
 30
       19.579447
 11
     1087.796491
 21
      990.079857
 31
       19.554240
  0
LINE
  8
Default
 62
255
 10
     1087.796491
 20
      990.079857
 30
       19.554240
 11
     1087.727178
 21
      990.144039
 31
       19.528780
  0
LINE
  8
Default
 62
255
 10
     1089.181032
 20
      990.846245
 30
       19.808788
 11
     1090.425845
 21
      989.971164
 31
       19.829651
  0
ENDSEC
  0
EOF
