  0
SECTION
  2
HEADER
  9
$PDMODE
 70
   34
  9
$PDSIZE
 40
   -3.0
  0
ENDSEC
  0
SECTION
  2
TABLES
  0
TABLE
  2
LTYPE
 70
 1
  0
LTYPE
  2
CONTINUOUS
  70
 64
  3
Solid line
  72
 65
 73
 0
  40
 0.0
  0
ENDTAB
  0
TABLE
  2
LAYER
 70
 1
 0
LAYER
  2
Default
  70
 0
 62
 7
  6
CONTINUOUS
  0
ENDTAB
  0 
ENDSEC
  0
SECTION
  2
ENTITIES
  0
POINT
  8
Default
 62
255
 10
     1090.594617
 20
      990.258732
 30
       19.927293
  0
POINT
  8
Default
 62
255
 10
     1089.080443
 20
      988.891597
 30
       19.940036
  0
POINT
  8
Default
 62
255
 10
     1088.688674
 20
      990.502191
 30
       19.943239
  0
POINT
  8
Default
 62
255
 10
     1089.057266
 20
      990.941480
 30
       19.945432
  0
POINT
  8
Default
 62
255
 10
     1089.484793
 20
      990.130860
 30
       20.031500
  0
POINT
  8
Default
 62
255
 10
     1089.487121
 20
      990.161199
 30
       20.018554
  0
POINT
  8
Default
 62
255
 10
     1089.691863
 20
      990.683828
 30
       19.984926
  0
POINT
  8
Default
 62
255
 10
     1088.815986
 20
      990.513950
 30
       19.958900
  0
POINT
  8
Default
 62
255
 10
     1089.193432
 20
      988.786182
 30
       19.863097
  0
POINT
  8
Default
 62
255
 10
     1090.550772
 20
      990.299388
 30
       19.938220
  0
POINT
  8
Default
 62
255
 10
     1089.643798
 20
      989.951107
 30
       20.008924
  0
POINT
  8
Default
 62
255
 10
     1089.998983
 20
      990.103986
 30
       19.995271
  0
POINT
  8
Default
 62
255
 10
     1090.434087
 20
      990.036980
 30
       19.948744
  0
POINT
  8
Default
 62
255
 10
     1090.206581
 20
      989.642155
 30
       19.937973
  0
POINT
  8
Default
 62
255
 10
     1089.439980
 20
      989.869096
 30
       20.043793
  0
POINT
  8
Default
 62
255
 10
     1089.463181
 20
      990.122605
 30
       20.030688
  0
POINT
  8
Default
 62
255
 10
     1090.444432
 20
      990.035136
 30
       19.933578
  0
POINT
  8
Default
 62
255
 10
     1090.221453
 20
      990.420195
 30
       19.932436
  0
POINT
  8
Default
 62
255
 10
     1089.175856
 20
      989.831263
 30
       19.791223
  0
POINT
  8
Default
 62
255
 10
     1089.676294
 20
      990.668672
 30
       19.997639
  0
POINT
  8
Default
 62
255
 10
     1089.230882
 20
      990.595336
 30
       19.991823
  0
POINT
  8
Default
 62
255
 10
     1089.106597
 20
      990.407429
 30
       19.986905
  0
POINT
  8
Default
 62
255
 10
     1088.849212
 20
      990.548014
 30
       19.949155
  0
POINT
  8
Default
 62
255
 10
     1088.897268
 20
      990.651834
 30
       19.943561
  0
POINT
  8
Default
 62
255
 10
     1088.882089
 20
      990.622345
 30
       19.944948
  0
POINT
  8
Default
 62
255
 10
     1088.973713
 20
      990.783073
 30
       19.946993
  0
POINT
  8
Default
 62
255
 10
     1089.034808
 20
      990.881353
 30
       19.948193
  0
POINT
  8
Default
 62
255
 10
     1089.106631
 20
      990.414920
 30
       19.986562
  0
POINT
  8
Default
 62
255
 10
     1089.153787
 20
      990.483982
 30
       19.980625
  0
POINT
  8
Default
 62
255
 10
     1089.223365
 20
      990.583732
 30
       19.984615
  0
POINT
  8
Default
 62
255
 10
     1089.264428
 20
      990.653368
 30
       19.981518
  0
POINT
  8
Default
 62
255
 10
     1089.324076
 20
      990.216905
 30
       20.005801
  0
POINT
  8
Default
 62
255
 10
     1089.394670
 20
      990.298797
 30
       20.007398
  0
POINT
  8
Default
 62
255
 10
     1089.440459
 20
      990.394109
 30
       20.008153
  0
POINT
  8
Default
 62
255
 10
     1089.488141
 20
      990.580564
 30
       19.989508
  0
POINT
  8
Default
 62
255
 10
     1089.711555
 20
      989.556241
 30
       20.000382
  0
POINT
  8
Default
 62
255
 10
     1089.423009
 20
      989.823167
 30
       20.008526
  0
POINT
  8
Default
 62
255
 10
     1089.470172
 20
      989.874644
 30
       20.039419
  0
POINT
  8
Default
 62
255
 10
     1090.099018
 20
      989.782816
 30
       19.953692
  0
POINT
  8
Default
 62
255
 10
     1090.599143
 20
      990.095705
 30
       19.948915
  0
POINT
  8
Default
 62
255
 10
     1090.262663
 20
      990.348742
 30
       19.949245
  0
POINT
  8
Default
 62
255
 10
     1090.263693
 20
      990.123428
 30
       19.941043
  0
POINT
  8
Default
 62
255
 10
     1090.217075
 20
      989.825938
 30
       19.955361
  0
POINT
  8
Default
 62
255
 10
     1090.032306
 20
      990.026240
 30
       19.967120
  0
POINT
  8
Default
 62
255
 10
     1089.332444
 20
      990.485708
 30
       19.989122
  0
POINT
  8
Default
 62
255
 10
     1088.609388
 20
      990.376593
 30
       19.850690
  0
POINT
  8
Default
 62
255
 10
     1088.799275
 20
      990.724899
 30
       19.954776
  0
POINT
  8
Default
 62
255
 10
     1089.598127
 20
      990.427306
 30
       20.006535
  0
POINT
  8
Default
 62
255
 10
     1089.685362
 20
      990.031156
 30
       19.999904
  0
POINT
  8
Default
 62
255
 10
     1090.515421
 20
      989.810827
 30
       19.947431
  0
POINT
  8
Default
 62
255
 10
     1090.427624
 20
      989.853493
 30
       19.962149
  0
POINT
  8
Default
 62
255
 10
     1090.368818
 20
      989.875571
 30
       19.955248
  0
POINT
  8
Default
 62
255
 10
     1090.283629
 20
      989.909723
 30
       19.950155
  0
POINT
  8
Default
 62
255
 10
     1090.191396
 20
      989.946700
 30
       19.947121
  0
POINT
  8
Default
 62
255
 10
     1090.101793
 20
      989.976625
 30
       19.952067
  0
POINT
  8
Default
 62
255
 10
     1090.013177
 20
      989.999994
 30
       19.970828
  0
POINT
  8
Default
 62
255
 10
     1089.927246
 20
      990.026281
 30
       19.999020
  0
POINT
  8
Default
 62
255
 10
     1089.839850
 20
      990.061703
 30
       20.007455
  0
POINT
  8
Default
 62
255
 10
     1089.759141
 20
      990.096977
 30
       19.997529
  0
POINT
  8
Default
 62
255
 10
     1089.681521
 20
      990.142482
 30
       20.002110
  0
POINT
  8
Default
 62
255
 10
     1089.606287
 20
      990.196710
 30
       20.017745
  0
POINT
  8
Default
 62
255
 10
     1089.525681
 20
      990.244734
 30
       20.023895
  0
POINT
  8
Default
 62
255
 10
     1089.443747
 20
      990.283991
 30
       20.013496
  0
POINT
  8
Default
 62
255
 10
     1089.363923
 20
      990.327502
 30
       20.009048
  0
POINT
  8
Default
 62
255
 10
     1089.283050
 20
      990.358084
 30
       20.005177
  0
POINT
  8
Default
 62
255
 10
     1089.207991
 20
      990.396034
 30
       19.992639
  0
POINT
  8
Default
 62
255
 10
     1089.144271
 20
      990.445924
 30
       19.984421
  0
POINT
  8
Default
 62
255
 10
     1089.086828
 20
      990.508727
 30
       19.972926
  0
POINT
  8
Default
 62
255
 10
     1089.023733
 20
      990.556731
 30
       19.961180
  0
POINT
  8
Default
 62
255
 10
     1088.964824
 20
      990.597028
 30
       19.949648
  0
POINT
  8
Default
 62
255
 10
     1088.927147
 20
      990.621431
 30
       19.945571
  0
POINT
  8
Default
 62
255
 10
     1088.859533
 20
      990.666869
 30
       19.943589
  0
POINT
  8
Default
 62
255
 10
     1088.799957
 20
      990.705154
 30
       19.946983
  0
POINT
  8
Default
 62
255
 10
     1089.002965
 20
      990.756504
 30
       19.949382
  0
POINT
  8
Default
 62
255
 10
     1089.069758
 20
      990.717687
 30
       19.958749
  0
POINT
  8
Default
 62
255
 10
     1089.138393
 20
      990.683330
 30
       19.979295
  0
POINT
  8
Default
 62
255
 10
     1089.203687
 20
      990.637945
 30
       19.986685
  0
POINT
  8
Default
 62
255
 10
     1089.265233
 20
      990.583741
 30
       19.986953
  0
POINT
  8
Default
 62
255
 10
     1089.330338
 20
      990.532966
 30
       19.993860
  0
POINT
  8
Default
 62
255
 10
     1089.399633
 20
      990.478250
 30
       20.002859
  0
POINT
  8
Default
 62
255
 10
     1089.467467
 20
      990.429701
 30
       20.015065
  0
POINT
  8
Default
 62
255
 10
     1089.549036
 20
      990.388087
 30
       20.017915
  0
POINT
  8
Default
 62
255
 10
     1089.635011
 20
      990.350308
 30
       20.024390
  0
POINT
  8
Default
 62
255
 10
     1089.711766
 20
      990.302541
 30
       20.018133
  0
POINT
  8
Default
 62
255
 10
     1089.782701
 20
      990.255503
 30
       19.990035
  0
POINT
  8
Default
 62
255
 10
     1089.853743
 20
      990.207287
 30
       19.981330
  0
POINT
  8
Default
 62
255
 10
     1089.924964
 20
      990.151181
 30
       19.993175
  0
POINT
  8
Default
 62
255
 10
     1090.094718
 20
      990.096945
 30
       19.967783
  0
POINT
  8
Default
 62
255
 10
     1090.182935
 20
      990.078623
 30
       19.941720
  0
POINT
  8
Default
 62
255
 10
     1090.275065
 20
      990.060362
 30
       19.939621
  0
POINT
  8
Default
 62
255
 10
     1090.370842
 20
      990.041989
 30
       19.943816
  0
POINT
  8
Default
 62
255
 10
     1090.473751
 20
      990.025236
 30
       19.951811
  0
POINT
  8
Default
 62
255
 10
     1090.568161
 20
      990.015700
 30
       19.954977
  0
POINT
  8
Default
 62
255
 10
     1090.652544
 20
      990.030648
 30
       19.947441
  0
POINT
  8
Default
 62
255
 10
     1090.681781
 20
      990.133490
 30
       19.944167
  0
POINT
  8
Default
 62
255
 10
     1090.740822
 20
      990.213812
 30
       19.933577
  0
POINT
  8
Default
 62
255
 10
     1090.690528
 20
      990.274153
 30
       19.934688
  0
POINT
  8
Default
 62
255
 10
     1090.596241
 20
      990.293691
 30
       19.937694
  0
POINT
  8
Default
 62
255
 10
     1090.500601
 20
      990.314869
 30
       19.935179
  0
POINT
  8
Default
 62
255
 10
     1090.410012
 20
      990.347826
 30
       19.943638
  0
POINT
  8
Default
 62
255
 10
     1090.325707
 20
      990.381140
 30
       19.951119
  0
POINT
  8
Default
 62
255
 10
     1090.229050
 20
      990.409758
 30
       19.947853
  0
POINT
  8
Default
 62
255
 10
     1090.144547
 20
      990.443861
 30
       19.942313
  0
POINT
  8
Default
 62
255
 10
     1090.066672
 20
      990.472281
 30
       19.966905
  0
POINT
  8
Default
 62
255
 10
     1089.976683
 20
      990.505902
 30
       19.975028
  0
POINT
  8
Default
 62
255
 10
     1089.897593
 20
      990.544415
 30
       20.000804
  0
POINT
  8
Default
 62
255
 10
     1089.813291
 20
      990.586380
 30
       19.997258
  0
POINT
  8
Default
 62
255
 10
     1089.795872
 20
      990.652028
 30
       19.964916
  0
POINT
  8
Default
 62
255
 10
     1089.738117
 20
      990.694929
 30
       19.979094
  0
POINT
  8
Default
 62
255
 10
     1089.638790
 20
      990.669848
 30
       19.985615
  0
POINT
  8
Default
 62
255
 10
     1089.537022
 20
      990.622385
 30
       19.983302
  0
POINT
  8
Default
 62
255
 10
     1089.439608
 20
      990.601208
 30
       19.981873
  0
POINT
  8
Default
 62
255
 10
     1089.349712
 20
      990.620848
 30
       19.975822
  0
POINT
  8
Default
 62
255
 10
     1089.291711
 20
      990.681825
 30
       19.980230
  0
POINT
  8
Default
 62
255
 10
     1089.224581
 20
      990.729271
 30
       19.980592
  0
POINT
  8
Default
 62
255
 10
     1089.155298
 20
      990.770081
 30
       19.969834
  0
POINT
  8
Default
 62
255
 10
     1089.092491
 20
      990.817819
 30
       19.954941
  0
POINT
  8
Default
 62
255
 10
     1089.031552
 20
      990.866473
 30
       19.949516
  0
POINT
  8
Default
 62
255
 10
     1088.978543
 20
      990.910349
 30
       19.953839
  0
POINT
  8
Default
 62
255
 10
     1088.731686
 20
      990.576839
 30
       19.952284
  0
POINT
  8
Default
 62
255
 10
     1088.805792
 20
      990.555018
 30
       19.954784
  0
POINT
  8
Default
 62
255
 10
     1088.879747
 20
      990.524490
 30
       19.955231
  0
POINT
  8
Default
 62
255
 10
     1088.948050
 20
      990.487729
 30
       19.963775
  0
POINT
  8
Default
 62
255
 10
     1089.019484
 20
      990.448816
 30
       19.968281
  0
POINT
  8
Default
 62
255
 10
     1089.092293
 20
      990.413220
 30
       19.985706
  0
POINT
  8
Default
 62
255
 10
     1089.163556
 20
      990.373893
 30
       19.992125
  0
POINT
  8
Default
 62
255
 10
     1089.235709
 20
      990.330858
 30
       19.999190
  0
POINT
  8
Default
 62
255
 10
     1089.309330
 20
      990.288257
 30
       20.013449
  0
POINT
  8
Default
 62
255
 10
     1089.384712
 20
      990.237757
 30
       20.007414
  0
POINT
  8
Default
 62
255
 10
     1089.456242
 20
      990.184760
 30
       20.015365
  0
POINT
  8
Default
 62
255
 10
     1089.527625
 20
      990.132675
 30
       20.021740
  0
POINT
  8
Default
 62
255
 10
     1089.584475
 20
      990.061895
 30
       20.016202
  0
POINT
  8
Default
 62
255
 10
     1089.631009
 20
      989.987174
 30
       20.004732
  0
POINT
  8
Default
 62
255
 10
     1089.655249
 20
      989.904176
 30
       20.016137
  0
POINT
  8
Default
 62
255
 10
     1089.672635
 20
      989.811847
 30
       20.014470
  0
POINT
  8
Default
 62
255
 10
     1089.696247
 20
      989.720122
 30
       20.005812
  0
POINT
  8
Default
 62
255
 10
     1089.716563
 20
      989.630044
 30
       20.004055
  0
POINT
  8
Default
 62
255
 10
     1089.746560
 20
      989.550706
 30
       19.982495
  0
POINT
  8
Default
 62
255
 10
     1089.760426
 20
      989.510433
 30
       19.966968
  0
POINT
  8
Default
 62
255
 10
     1088.967670
 20
      988.840356
 30
       19.934414
  0
POINT
  8
Default
 62
255
 10
     1089.042569
 20
      988.797235
 30
       19.921752
  0
POINT
  8
Default
 62
255
 10
     1089.051402
 20
      988.746701
 30
       19.794481
  0
POINT
  8
Default
 62
255
 10
     1089.221773
 20
      988.787557
 30
       19.857985
  0
POINT
  8
Default
 62
255
 10
     1089.320657
 20
      988.801580
 30
       19.855461
  0
POINT
  8
Default
 62
255
 10
     1089.408566
 20
      988.858371
 30
       19.855828
  0
POINT
  8
Default
 62
255
 10
     1089.491943
 20
      988.921696
 30
       19.881696
  0
POINT
  8
Default
 62
255
 10
     1089.534420
 20
      988.989721
 30
       19.927777
  0
POINT
  8
Default
 62
255
 10
     1089.567517
 20
      989.075026
 30
       19.966782
  0
POINT
  8
Default
 62
255
 10
     1089.621773
 20
      989.162741
 30
       19.990745
  0
POINT
  8
Default
 62
255
 10
     1089.686056
 20
      989.261131
 30
       19.965136
  0
POINT
  8
Default
 62
255
 10
     1089.748278
 20
      989.348169
 30
       19.962080
  0
POINT
  8
Default
 62
255
 10
     1089.826277
 20
      989.420265
 30
       19.940278
  0
POINT
  8
Default
 62
255
 10
     1089.908586
 20
      989.497202
 30
       19.938385
  0
POINT
  8
Default
 62
255
 10
     1089.988783
 20
      989.577952
 30
       19.951235
  0
POINT
  8
Default
 62
255
 10
     1090.056329
 20
      989.669706
 30
       19.953450
  0
POINT
  8
Default
 62
255
 10
     1090.118918
 20
      989.763379
 30
       19.952047
  0
POINT
  8
Default
 62
255
 10
     1090.182845
 20
      989.853055
 30
       19.955395
  0
POINT
  8
Default
 62
255
 10
     1090.250639
 20
      989.934994
 30
       19.944419
  0
POINT
  8
Default
 62
255
 10
     1090.354828
 20
      989.981820
 30
       19.948300
  0
POINT
  8
Default
 62
255
 10
     1090.511965
 20
      990.124375
 30
       19.952218
  0
POINT
  8
Default
 62
255
 10
     1090.548300
 20
      990.227713
 30
       19.939827
  0
POINT
  8
Default
 62
255
 10
     1090.578933
 20
      990.325992
 30
       19.923572
  0
POINT
  8
Default
 62
255
 10
     1089.385043
 20
      989.194292
 30
       20.009268
  0
POINT
  8
Default
 62
255
 10
     1089.465213
 20
      989.267575
 30
       20.007858
  0
POINT
  8
Default
 62
255
 10
     1089.537123
 20
      989.343005
 30
       19.986186
  0
POINT
  8
Default
 62
255
 10
     1089.614768
 20
      989.409434
 30
       19.968830
  0
POINT
  8
Default
 62
255
 10
     1089.692356
 20
      989.485640
 30
       19.983435
  0
POINT
  8
Default
 62
255
 10
     1089.720069
 20
      989.585423
 30
       20.002040
  0
POINT
  8
Default
 62
255
 10
     1089.761848
 20
      989.681145
 30
       20.014751
  0
POINT
  8
Default
 62
255
 10
     1089.845710
 20
      989.752024
 30
       20.003382
  0
POINT
  8
Default
 62
255
 10
     1089.889777
 20
      989.848474
 30
       19.999244
  0
POINT
  8
Default
 62
255
 10
     1089.979902
 20
      989.884914
 30
       19.984992
  0
POINT
  8
Default
 62
255
 10
     1089.976942
 20
      989.974697
 30
       19.977517
  0
POINT
  8
Default
 62
255
 10
     1089.987080
 20
      990.076828
 30
       19.994142
  0
POINT
  8
Default
 62
255
 10
     1090.042903
 20
      990.161493
 30
       19.989931
  0
POINT
  8
Default
 62
255
 10
     1090.100960
 20
      990.245358
 30
       19.970391
  0
POINT
  8
Default
 62
255
 10
     1090.157029
 20
      990.333994
 30
       19.952362
  0
POINT
  8
Default
 62
255
 10
     1090.069444
 20
      990.497925
 30
       19.933801
  0
POINT
  8
Default
 62
255
 10
     1090.014944
 20
      990.442590
 30
       19.971215
  0
POINT
  8
Default
 62
255
 10
     1089.937495
 20
      990.366924
 30
       19.980863
  0
POINT
  8
Default
 62
255
 10
     1089.886640
 20
      990.263775
 30
       19.983776
  0
POINT
  8
Default
 62
255
 10
     1089.826860
 20
      990.188973
 30
       19.979818
  0
POINT
  8
Default
 62
255
 10
     1089.625128
 20
      989.941450
 30
       20.010449
  0
POINT
  8
Default
 62
255
 10
     1089.573991
 20
      989.847394
 30
       20.015986
  0
POINT
  8
Default
 62
255
 10
     1089.551872
 20
      989.747850
 30
       20.003976
  0
POINT
  8
Default
 62
255
 10
     1089.532678
 20
      989.646609
 30
       20.006019
  0
POINT
  8
Default
 62
255
 10
     1089.460161
 20
      989.576071
 30
       20.007400
  0
POINT
  8
Default
 62
255
 10
     1089.378234
 20
      989.505524
 30
       20.009607
  0
POINT
  8
Default
 62
255
 10
     1089.315368
 20
      989.406852
 30
       20.013380
  0
POINT
  8
Default
 62
255
 10
     1089.279398
 20
      989.299999
 30
       20.015863
  0
POINT
  8
Default
 62
255
 10
     1089.260096
 20
      989.206930
 30
       20.005463
  0
POINT
  8
Default
 62
255
 10
     1089.211098
 20
      989.121262
 30
       19.987759
  0
POINT
  8
Default
 62
255
 10
     1089.139826
 20
      989.043903
 30
       19.976749
  0
POINT
  8
Default
 62
255
 10
     1089.061038
 20
      988.990769
 30
       19.968992
  0
POINT
  8
Default
 62
255
 10
     1088.997038
 20
      988.922110
 30
       19.948112
  0
POINT
  8
Default
 62
255
 10
     1089.077392
 20
      990.103276
 30
       19.822918
  0
POINT
  8
Default
 62
255
 10
     1088.986091
 20
      990.055829
 30
       19.804511
  0
POINT
  8
Default
 62
255
 10
     1088.904202
 20
      990.035545
 30
       19.786111
  0
POINT
  8
Default
 62
255
 10
     1088.839179
 20
      990.084078
 30
       19.781396
  0
POINT
  8
Default
 62
255
 10
     1088.872614
 20
      990.164190
 30
       19.796800
  0
POINT
  8
Default
 62
255
 10
     1088.946968
 20
      990.236728
 30
       19.815556
  0
POINT
  8
Default
 62
255
 10
     1089.022406
 20
      990.321580
 30
       19.825201
  0
POINT
  8
Default
 62
255
 10
     1089.056710
 20
      990.350851
 30
       19.902750
  0
POINT
  8
Default
 62
255
 10
     1089.081958
 20
      990.379519
 30
       19.983573
  0
POINT
  8
Default
 62
255
 10
     1089.200656
 20
      990.549694
 30
       19.982658
  0
POINT
  8
Default
 62
255
 10
     1089.254884
 20
      990.634722
 30
       19.983508
  0
POINT
  8
Default
 62
255
 10
     1089.303834
 20
      990.726346
 30
       19.974899
  0
POINT
  8
Default
 62
255
 10
     1089.055954
 20
      990.914162
 30
       19.948867
  0
POINT
  8
Default
 62
255
 10
     1089.003167
 20
      990.832741
 30
       19.947798
  0
POINT
  8
Default
 62
255
 10
     1088.955020
 20
      990.752748
 30
       19.947760
  0
POINT
  8
Default
 62
255
 10
     1088.863044
 20
      990.583842
 30
       19.948206
  0
POINT
  8
Default
 62
255
 10
     1088.712779
 20
      990.488941
 30
       19.950999
  0
POINT
  8
Default
 62
255
 10
     1088.660590
 20
      990.597233
 30
       19.954015
  0
POINT
  8
Default
 62
255
 10
     1088.650369
 20
      990.528435
 30
       19.945585
  0
POINT
  8
Default
 62
255
 10
     1088.769062
 20
      990.468461
 30
       19.953475
  0
POINT
  8
Default
 62
255
 10
     1088.827021
 20
      990.464894
 30
       19.936309
  0
POINT
  8
Default
 62
255
 10
     1088.884160
 20
      990.445165
 30
       19.941324
  0
POINT
  8
Default
 62
255
 10
     1088.979634
 20
      990.428781
 30
       19.950832
  0
POINT
  8
Default
 62
255
 10
     1089.270721
 20
      990.218614
 30
       20.005376
  0
POINT
  8
Default
 62
255
 10
     1089.228693
 20
      990.285866
 30
       19.994056
  0
POINT
  8
Default
 62
255
 10
     1089.337793
 20
      990.038483
 30
       20.015868
  0
POINT
  8
Default
 62
255
 10
     1089.279222
 20
      990.158252
 30
       19.999712
  0
POINT
  8
Default
 62
255
 10
     1089.378487
 20
      989.928450
 30
       20.004027
  0
POINT
  8
Default
 62
255
 10
     1089.352997
 20
      989.716248
 30
       20.001137
  0
POINT
  8
Default
 62
255
 10
     1089.326303
 20
      989.575793
 30
       19.984110
  0
POINT
  8
Default
 62
255
 10
     1088.937101
 20
      988.913371
 30
       19.943935
  0
POINT
  8
Default
 62
255
 10
     1089.102454
 20
      989.115901
 30
       19.989981
  0
POINT
  8
Default
 62
255
 10
     1089.167115
 20
      989.193640
 30
       20.001185
  0
POINT
  8
Default
 62
255
 10
     1089.030290
 20
      989.024453
 30
       19.954133
  0
POINT
  8
Default
 62
255
 10
     1088.626253
 20
      990.490711
 30
       19.861320
  0
POINT
  8
Default
 62
255
 10
     1088.833846
 20
      990.383033
 30
       19.834576
  0
POINT
  8
Default
 62
255
 10
     1088.682117
 20
      990.455537
 30
       19.866615
  0
POINT
  8
Default
 62
255
 10
     1088.741680
 20
      990.404088
 30
       19.843363
  0
POINT
  8
Default
 62
255
 10
     1089.126625
 20
      990.248704
 30
       19.830518
  0
POINT
  8
Default
 62
255
 10
     1089.054810
 20
      990.287395
 30
       19.818904
  0
POINT
  8
Default
 62
255
 10
     1089.202325
 20
      990.171490
 30
       19.842111
  0
POINT
  8
Default
 62
255
 10
     1089.240215
 20
      990.071802
 30
       19.843578
  0
POINT
  8
Default
 62
255
 10
     1089.273921
 20
      989.994947
 30
       19.848227
  0
POINT
  8
Default
 62
255
 10
     1089.302342
 20
      989.933478
 30
       19.853791
  0
POINT
  8
Default
 62
255
 10
     1089.293946
 20
      989.831657
 30
       19.852775
  0
POINT
  8
Default
 62
255
 10
     1089.285841
 20
      989.773603
 30
       19.846039
  0
POINT
  8
Default
 62
255
 10
     1089.250284
 20
      989.591727
 30
       19.836371
  0
POINT
  8
Default
 62
255
 10
     1089.276902
 20
      989.665798
 30
       19.841531
  0
POINT
  8
Default
 62
255
 10
     1089.208761
 20
      989.668213
 30
       19.804596
  0
POINT
  8
Default
 62
255
 10
     1089.194993
 20
      989.436493
 30
       19.824226
  0
POINT
  8
Default
 62
255
 10
     1089.176011
 20
      989.538019
 30
       19.785067
  0
POINT
  8
Default
 62
255
 10
     1089.167071
 20
      989.477366
 30
       19.792304
  0
POINT
  8
Default
 62
255
 10
     1089.209824
 20
      989.758612
 30
       19.794629
  0
POINT
  8
Default
 62
255
 10
     1089.084706
 20
      989.875689
 30
       19.768468
  0
POINT
  8
Default
 62
255
 10
     1089.097730
 20
      989.733392
 30
       19.752842
  0
POINT
  8
Default
 62
255
 10
     1089.123516
 20
      989.617165
 30
       19.762256
  0
POINT
  8
Default
 62
255
 10
     1089.073475
 20
      989.631895
 30
       19.729514
  0
POINT
  8
Default
 62
255
 10
     1089.153198
 20
      989.977894
 30
       19.795882
  0
POINT
  8
Default
 62
255
 10
     1089.061593
 20
      989.969729
 30
       19.776992
  0
POINT
  8
Default
 62
255
 10
     1089.203053
 20
      989.911193
 30
       19.809061
  0
POINT
  8
Default
 62
255
 10
     1088.993300
 20
      989.708537
 30
       19.733723
  0
POINT
  8
Default
 62
255
 10
     1089.048760
 20
      989.791883
 30
       19.740161
  0
POINT
  8
Default
 62
255
 10
     1089.125148
 20
      990.055270
 30
       19.802010
  0
POINT
  8
Default
 62
255
 10
     1088.990329
 20
      989.988833
 30
       19.795052
  0
POINT
  8
Default
 62
255
 10
     1088.963983
 20
      989.872431
 30
       19.753334
  0
POINT
  8
Default
 62
255
 10
     1089.016856
 20
      990.135880
 30
       19.821182
  0
POINT
  8
Default
 62
255
 10
     1088.888375
 20
      990.257052
 30
       19.811895
  0
POINT
  8
Default
 62
255
 10
     1088.815013
 20
      990.178359
 30
       19.783061
  0
POINT
  8
Default
 62
255
 10
     1088.824072
 20
      990.298283
 30
       19.808948
  0
POINT
  8
Default
 62
255
 10
     1088.616769
 20
      990.266081
 30
       19.764851
  0
POINT
  8
Default
 62
255
 10
     1088.740762
 20
      990.328804
 30
       19.803060
  0
POINT
  8
Default
 62
255
 10
     1088.661272
 20
      990.331076
 30
       19.832560
  0
POINT
  8
Default
 62
255
 10
     1088.571142
 20
      990.293434
 30
       19.814021
  0
POINT
  8
Default
 62
255
 10
     1088.568773
 20
      990.453684
 30
       19.847422
  0
POINT
  8
Default
 62
255
 10
     1088.829309
 20
      990.781197
 30
       19.961899
  0
POINT
  8
Default
 62
255
 10
     1088.898394
 20
      990.897940
 30
       19.937933
  0
POINT
  8
Default
 62
255
 10
     1089.016728
 20
      991.023986
 30
       19.916273
  0
POINT
  8
Default
 62
255
 10
     1089.105144
 20
      990.919068
 30
       19.937291
  0
POINT
  8
Default
 62
255
 10
     1089.238333
 20
      990.805030
 30
       19.964035
  0
POINT
  8
Default
 62
255
 10
     1089.354465
 20
      990.681786
 30
       19.949180
  0
POINT
  8
Default
 62
255
 10
     1089.392247
 20
      990.644213
 30
       19.952339
  0
POINT
  8
Default
 62
255
 10
     1089.483670
 20
      990.634815
 30
       19.958756
  0
POINT
  8
Default
 62
255
 10
     1089.569552
 20
      990.663264
 30
       19.957857
  0
POINT
  8
Default
 62
255
 10
     1089.703522
 20
      990.781023
 30
       19.962892
  0
POINT
  8
Default
 62
255
 10
     1089.780982
 20
      990.792717
 30
       19.967806
  0
POINT
  8
Default
 62
255
 10
     1089.844745
 20
      990.776910
 30
       19.958449
  0
POINT
  8
Default
 62
255
 10
     1089.931168
 20
      990.750097
 30
       19.951450
  0
POINT
  8
Default
 62
255
 10
     1089.947857
 20
      990.677112
 30
       19.943491
  0
POINT
  8
Default
 62
255
 10
     1089.985122
 20
      990.605465
 30
       19.960219
  0
POINT
  8
Default
 62
255
 10
     1090.069534
 20
      990.544429
 30
       19.950219
  0
POINT
  8
Default
 62
255
 10
     1090.128555
 20
      990.503930
 30
       19.931319
  0
POINT
  8
Default
 62
255
 10
     1090.196966
 20
      990.492708
 30
       19.945917
  0
POINT
  8
Default
 62
255
 10
     1090.294158
 20
      990.474956
 30
       19.946697
  0
POINT
  8
Default
 62
255
 10
     1090.368613
 20
      990.452492
 30
       19.945524
  0
POINT
  8
Default
 62
255
 10
     1090.462212
 20
      990.407105
 30
       19.948116
  0
POINT
  8
Default
 62
255
 10
     1090.771926
 20
      990.307481
 30
       19.945759
  0
POINT
  8
Default
 62
255
 10
     1090.694885
 20
      990.319456
 30
       19.923134
  0
POINT
  8
Default
 62
255
 10
     1090.604865
 20
      990.346648
 30
       19.926903
  0
POINT
  8
Default
 62
255
 10
     1090.559944
 20
      990.373826
 30
       19.919126
  0
POINT
  8
Default
 62
255
 10
     1089.373218
 20
      989.794953
 30
       20.003687
  0
POINT
  8
Default
 62
255
 10
     1089.380074
 20
      989.861024
 30
       19.997905
  0
POINT
  8
Default
 62
255
 10
     1090.023418
 20
      989.334744
 30
       19.944232
  0
POINT
  8
Default
 62
255
 10
     1090.451117
 20
      990.182019
 30
       19.951067
  0
POINT
  8
Default
 62
255
 10
     1090.370409
 20
      990.229530
 30
       19.947354
  0
POINT
  8
Default
 62
255
 10
     1090.187553
 20
      990.253185
 30
       19.966082
  0
POINT
  8
Default
 62
255
 10
     1090.139701
 20
      990.156869
 30
       19.963874
  0
POINT
  8
Default
 62
255
 10
     1090.569321
 20
      989.894954
 30
       19.951526
  0
POINT
  8
Default
 62
255
 10
     1090.467905
 20
      989.935954
 30
       19.956765
  0
POINT
  8
Default
 62
255
 10
     1090.173460
 20
      990.016712
 30
       19.944837
  0
POINT
  8
Default
 62
255
 10
     1090.141145
 20
      989.674646
 30
       19.940228
  0
POINT
  8
Default
 62
255
 10
     1090.326644
 20
      989.753498
 30
       19.963382
  0
POINT
  8
Default
 62
255
 10
     1090.402352
 20
      989.632051
 30
       19.941187
  0
POINT
  8
Default
 62
255
 10
     1090.296689
 20
      989.467950
 30
       19.948865
  0
POINT
  8
Default
 62
255
 10
     1090.088108
 20
      989.514467
 30
       19.936406
  0
POINT
  8
Default
 62
255
 10
     1089.748129
 20
      989.156134
 30
       19.952494
  0
POINT
  8
Default
 62
255
 10
     1089.882416
 20
      989.077580
 30
       19.931874
  0
POINT
  8
Default
 62
255
 10
     1089.891603
 20
      989.188652
 30
       19.942122
  0
POINT
  8
Default
 62
255
 10
     1089.873508
 20
      989.337505
 30
       19.936909
  0
POINT
  8
Default
 62
255
 10
     1090.072195
 20
      989.251596
 30
       19.944384
  0
POINT
  8
Default
 62
255
 10
     1089.243600
 20
      988.965072
 30
       19.945040
  0
POINT
  8
Default
 62
255
 10
     1089.427748
 20
      988.996227
 30
       19.941993
  0
POINT
  8
Default
 62
255
 10
     1089.341288
 20
      988.887289
 30
       19.902109
  0
POINT
  8
Default
 62
255
 10
     1089.223216
 20
      988.834155
 30
       19.898327
  0
POINT
  8
Default
 62
255
 10
     1089.282709
 20
      988.909482
 30
       19.929701
  0
POINT
  8
Default
 62
255
 10
     1089.463402
 20
      988.956316
 30
       19.916261
  0
POINT
  8
Default
 62
255
 10
     1089.410630
 20
      988.873446
 30
       19.880316
  0
POINT
  8
Default
 62
255
 10
     1089.618703
 20
      988.999366
 30
       19.923873
  0
POINT
  8
Default
 62
255
 10
     1089.589029
 20
      989.036441
 30
       19.956987
  0
POINT
  8
Default
 62
255
 10
     1089.758206
 20
      988.976359
 30
       19.912562
  0
POINT
  8
Default
 62
255
 10
     1089.609190
 20
      988.842842
 30
       19.867703
  0
POINT
  8
Default
 62
255
 10
     1089.573667
 20
      988.920261
 30
       19.877046
  0
POINT
  8
Default
 62
255
 10
     1089.445790
 20
      988.713941
 30
       19.865399
  0
POINT
  8
Default
 62
255
 10
     1089.324573
 20
      988.704385
 30
       19.865357
  0
POINT
  8
Default
 62
255
 10
     1089.050149
 20
      988.890434
 30
       19.936364
  0
POINT
  8
Default
 62
255
 10
     1089.154874
 20
      988.832482
 30
       19.908666
  0
POINT
  8
Default
 62
255
 10
     1089.081468
 20
      988.853704
 30
       19.920546
  0
POINT
  8
Default
 62
255
 10
     1089.142853
 20
      988.959170
 30
       19.954663
  0
POINT
  8
Default
 62
255
 10
     1089.326066
 20
      989.089592
 30
       19.974519
  0
POINT
  8
Default
 62
255
 10
     1089.220528
 20
      989.054107
 30
       19.963409
  0
POINT
  8
Default
 62
255
 10
     1089.325341
 20
      989.202925
 30
       19.987397
  0
POINT
  8
Default
 62
255
 10
     1089.354200
 20
      989.363451
 30
       20.004179
  0
POINT
  8
Default
 62
255
 10
     1089.478630
 20
      989.428588
 30
       19.986400
  0
POINT
  8
Default
 62
255
 10
     1089.328935
 20
      989.276394
 30
       20.003327
  0
POINT
  8
Default
 62
255
 10
     1089.414455
 20
      989.298644
 30
       20.001278
  0
POINT
  8
Default
 62
255
 10
     1089.633561
 20
      989.486167
 30
       19.979017
  0
POINT
  8
Default
 62
255
 10
     1089.539398
 20
      989.519564
 30
       19.983231
  0
POINT
  8
Default
 62
255
 10
     1089.616497
 20
      989.747354
 30
       19.991946
  0
POINT
  8
Default
 62
255
 10
     1089.626778
 20
      989.626578
 30
       19.989302
  0
POINT
  8
Default
 62
255
 10
     1089.701538
 20
      989.401396
 30
       19.955319
  0
POINT
  8
Default
 62
255
 10
     1089.613321
 20
      989.223858
 30
       19.978930
  0
POINT
  8
Default
 62
255
 10
     1089.511223
 20
      989.219682
 30
       19.993634
  0
POINT
  8
Default
 62
255
 10
     1089.617843
 20
      989.362754
 30
       19.957029
  0
POINT
  8
Default
 62
255
 10
     1089.498645
 20
      989.076237
 30
       19.979076
  0
POINT
  8
Default
 62
255
 10
     1089.401170
 20
      989.065110
 30
       19.991021
  0
POINT
  8
Default
 62
255
 10
     1089.351301
 20
      989.024545
 30
       19.966004
  0
POINT
  8
Default
 62
255
 10
     1089.485050
 20
      989.135793
 30
       19.995080
  0
POINT
  8
Default
 62
255
 10
     1089.422298
 20
      989.156753
 30
       20.008958
  0
POINT
  8
Default
 62
255
 10
     1089.441807
 20
      989.685566
 30
       20.005548
  0
POINT
  8
Default
 62
255
 10
     1089.482380
 20
      989.794416
 30
       20.003552
  0
POINT
  8
Default
 62
255
 10
     1089.544842
 20
      989.956584
 30
       20.009537
  0
POINT
  8
Default
 62
255
 10
     1089.649811
 20
      990.096871
 30
       20.003623
  0
POINT
  8
Default
 62
255
 10
     1089.850258
 20
      989.595406
 30
       19.965593
  0
POINT
  8
Default
 62
255
 10
     1089.811214
 20
      989.641716
 30
       19.989110
  0
POINT
  8
Default
 62
255
 10
     1089.966049
 20
      989.645598
 30
       19.967563
  0
POINT
  8
Default
 62
255
 10
     1089.901086
 20
      989.686531
 30
       19.983003
  0
POINT
  8
Default
 62
255
 10
     1090.007575
 20
      989.816218
 30
       19.980733
  0
POINT
  8
Default
 62
255
 10
     1090.052579
 20
      989.917553
 30
       19.958103
  0
POINT
  8
Default
 62
255
 10
     1089.730530
 20
      989.939161
 30
       20.018394
  0
POINT
  8
Default
 62
255
 10
     1089.818011
 20
      989.986186
 30
       20.008776
  0
POINT
  8
Default
 62
255
 10
     1089.907959
 20
      989.930358
 30
       19.990330
  0
POINT
  8
Default
 62
255
 10
     1089.820055
 20
      989.872718
 30
       20.002664
  0
POINT
  8
Default
 62
255
 10
     1089.758018
 20
      989.761440
 30
       19.997961
  0
POINT
  8
Default
 62
255
 10
     1089.929623
 20
      990.081396
 30
       19.998984
  0
POINT
  8
Default
 62
255
 10
     1090.022892
 20
      990.226354
 30
       19.985906
  0
POINT
  8
Default
 62
255
 10
     1090.022862
 20
      990.337433
 30
       19.986005
  0
POINT
  8
Default
 62
255
 10
     1090.107324
 20
      990.404801
 30
       19.949574
  0
POINT
  8
Default
 62
255
 10
     1090.094385
 20
      990.314450
 30
       19.969177
  0
POINT
  8
Default
 62
255
 10
     1089.775439
 20
      990.447019
 30
       20.020677
  0
POINT
  8
Default
 62
255
 10
     1089.876397
 20
      990.396413
 30
       19.994888
  0
POINT
  8
Default
 62
255
 10
     1089.792677
 20
      990.381860
 30
       20.025648
  0
POINT
  8
Default
 62
255
 10
     1089.669626
 20
      990.256899
 30
       20.014781
  0
POINT
  8
Default
 62
255
 10
     1089.718869
 20
      990.217478
 30
       19.996827
  0
POINT
  8
Default
 62
255
 10
     1089.772893
 20
      990.756174
 30
       19.969989
  0
POINT
  8
Default
 62
255
 10
     1089.856581
 20
      990.688171
 30
       19.961425
  0
POINT
  8
Default
 62
255
 10
     1089.593351
 20
      990.531986
 30
       19.998381
  0
POINT
  8
Default
 62
255
 10
     1089.528413
 20
      990.498652
 30
       20.002260
  0
POINT
  8
Default
 62
255
 10
     1089.487261
 20
      990.321688
 30
       20.013334
  0
POINT
  8
Default
 62
255
 10
     1089.567374
 20
      990.314041
 30
       20.017367
  0
POINT
  8
Default
 62
255
 10
     1089.452849
 20
      990.236892
 30
       20.007795
  0
POINT
  8
Default
 62
255
 10
     1089.367703
 20
      990.166716
 30
       20.027908
  0
POINT
  8
Default
 62
255
 10
     1089.241577
 20
      990.467559
 30
       19.990574
  0
POINT
  8
Default
 62
255
 10
     1089.352687
 20
      990.410395
 30
       20.002781
  0
POINT
  8
Default
 62
255
 10
     1089.405315
 20
      990.551736
 30
       19.985787
  0
POINT
  8
Default
 62
255
 10
     1089.148367
 20
      990.731226
 30
       19.964164
  0
POINT
  8
Default
 62
255
 10
     1088.985318
 20
      990.676574
 30
       19.945509
  0
POINT
  8
Default
 62
255
 10
     1089.054210
 20
      990.635122
 30
       19.964949
  0
POINT
  8
Default
 62
255
 10
     1089.127763
 20
      990.590233
 30
       19.981833
  0
POINT
  8
Default
 62
255
 10
     1088.990589
 20
      990.490900
 30
       19.964538
  0
POINT
  8
Default
 62
255
 10
     1088.762900
 20
      990.529620
 30
       19.955878
  0
POINT
  8
Default
 62
255
 10
     1088.749057
 20
      990.654915
 30
       19.940391
  0
POINT
  8
Default
 62
255
 10
     1088.809524
 20
      990.615665
 30
       19.940084
  0
POINT
  8
Default
 62
255
 10
     1088.862095
 20
      990.770502
 30
       19.950374
  0
POINT
  8
Default
 62
255
 10
     1088.953980
 20
      990.865825
 30
       19.953835
  0
POINT
  8
Default
 62
255
 10
     1088.916154
 20
      990.803885
 30
       19.933048
  0
POINT
  8
Default
 62
255
 10
     1088.895653
 20
      989.142007
 30
       19.616026
  0
POINT
  8
Default
 62
255
 10
     1088.998496
 20
      989.238386
 30
       19.676682
  0
POINT
  8
Default
 62
255
 10
     1088.806771
 20
      988.987292
 30
       19.632340
  0
POINT
  8
Default
 62
255
 10
     1088.808843
 20
      989.019737
 30
       19.596684
  0
POINT
  8
Default
 62
255
 10
     1088.762750
 20
      989.132629
 30
       19.547900
  0
POINT
  8
Default
 62
255
 10
     1088.858248
 20
      989.176048
 30
       19.580749
  0
POINT
  8
Default
 62
255
 10
     1088.759544
 20
      989.046217
 30
       19.569519
  0
POINT
  8
Default
 62
255
 10
     1088.830322
 20
      989.369416
 30
       19.640003
  0
POINT
  8
Default
 62
255
 10
     1089.013254
 20
      989.387538
 30
       19.682248
  0
POINT
  8
Default
 62
255
 10
     1088.945105
 20
      989.410565
 30
       19.659282
  0
POINT
  8
Default
 62
255
 10
     1088.952756
 20
      989.097655
 30
       19.828211
  0
POINT
  8
Default
 62
255
 10
     1088.955168
 20
      989.137468
 30
       19.711487
  0
LINE
  8
Default
 62
255
 10
     1088.937101
 20
      988.913371
 30
       19.943935
 11
     1089.030290
 21
      989.024453
 31
       19.954133
  0
LINE
  8
Default
 62
255
 10
     1089.030290
 20
      989.024453
 30
       19.954133
 11
     1089.102454
 21
      989.115901
 31
       19.989981
  0
LINE
  8
Default
 62
255
 10
     1089.102454
 20
      989.115901
 30
       19.989981
 11
     1089.167115
 21
      989.193640
 31
       20.001185
  0
LINE
  8
Default
 62
255
 10
     1089.167115
 20
      989.193640
 30
       20.001185
 11
     1089.279398
 21
      989.299999
 31
       20.015863
  0
LINE
  8
Default
 62
255
 10
     1089.279398
 20
      989.299999
 30
       20.015863
 11
     1089.315368
 21
      989.406852
 31
       20.013380
  0
LINE
  8
Default
 62
255
 10
     1089.315368
 20
      989.406852
 30
       20.013380
 11
     1089.326303
 21
      989.575793
 31
       19.984110
  0
LINE
  8
Default
 62
255
 10
     1089.326303
 20
      989.575793
 30
       19.984110
 11
     1089.352997
 21
      989.716248
 31
       20.001137
  0
LINE
  8
Default
 62
255
 10
     1089.378487
 20
      989.928450
 30
       20.004027
 11
     1089.337793
 21
      990.038483
 31
       20.015868
  0
LINE
  8
Default
 62
255
 10
     1089.337793
 20
      990.038483
 30
       20.015868
 11
     1089.279222
 21
      990.158252
 31
       19.999712
  0
LINE
  8
Default
 62
255
 10
     1089.279222
 20
      990.158252
 30
       19.999712
 11
     1089.270721
 21
      990.218614
 31
       20.005376
  0
LINE
  8
Default
 62
255
 10
     1089.270721
 20
      990.218614
 30
       20.005376
 11
     1089.228693
 21
      990.285866
 31
       19.994056
  0
LINE
  8
Default
 62
255
 10
     1089.228693
 20
      990.285866
 30
       19.994056
 11
     1089.081958
 21
      990.379519
 31
       19.983573
  0
LINE
  8
Default
 62
255
 10
     1089.081958
 20
      990.379519
 30
       19.983573
 11
     1088.979634
 21
      990.428781
 31
       19.950832
  0
LINE
  8
Default
 62
255
 10
     1088.979634
 20
      990.428781
 30
       19.950832
 11
     1088.884160
 21
      990.445165
 31
       19.941324
  0
LINE
  8
Default
 62
255
 10
     1088.884160
 20
      990.445165
 30
       19.941324
 11
     1088.827021
 21
      990.464894
 31
       19.936309
  0
LINE
  8
Default
 62
255
 10
     1088.827021
 20
      990.464894
 30
       19.936309
 11
     1088.769062
 21
      990.468461
 31
       19.953475
  0
LINE
  8
Default
 62
255
 10
     1088.769062
 20
      990.468461
 30
       19.953475
 11
     1088.712779
 21
      990.488941
 31
       19.950999
  0
LINE
  8
Default
 62
255
 10
     1088.650369
 20
      990.528435
 30
       19.945585
 11
     1088.660590
 21
      990.597233
 31
       19.954015
  0
LINE
  8
Default
 62
255
 10
     1088.660590
 20
      990.597233
 30
       19.954015
 11
     1088.799275
 21
      990.724899
 31
       19.954776
  0
LINE
  8
Default
 62
255
 10
     1088.799275
 20
      990.724899
 30
       19.954776
 11
     1088.829309
 21
      990.781197
 31
       19.961899
  0
LINE
  8
Default
 62
255
 10
     1088.829309
 20
      990.781197
 30
       19.961899
 11
     1088.898394
 21
      990.897940
 31
       19.937933
  0
LINE
  8
Default
 62
255
 10
     1088.898394
 20
      990.897940
 30
       19.937933
 11
     1089.016728
 21
      991.023986
 31
       19.916273
  0
LINE
  8
Default
 62
255
 10
     1088.650369
 20
      990.528435
 30
       19.945585
 11
     1088.712779
 21
      990.488941
 31
       19.950999
  0
LINE
  8
Default
 62
255
 10
     1089.016728
 20
      991.023986
 30
       19.916273
 11
     1089.105144
 21
      990.919068
 31
       19.937291
  0
LINE
  8
Default
 62
255
 10
     1089.105144
 20
      990.919068
 30
       19.937291
 11
     1089.238333
 21
      990.805030
 31
       19.964035
  0
LINE
  8
Default
 62
255
 10
     1089.238333
 20
      990.805030
 30
       19.964035
 11
     1089.303834
 21
      990.726346
 31
       19.974899
  0
LINE
  8
Default
 62
255
 10
     1089.303834
 20
      990.726346
 30
       19.974899
 11
     1089.354465
 21
      990.681786
 31
       19.949180
  0
LINE
  8
Default
 62
255
 10
     1089.354465
 20
      990.681786
 30
       19.949180
 11
     1089.392247
 21
      990.644213
 31
       19.952339
  0
LINE
  8
Default
 62
255
 10
     1089.392247
 20
      990.644213
 30
       19.952339
 11
     1089.483670
 21
      990.634815
 31
       19.958756
  0
LINE
  8
Default
 62
255
 10
     1089.483670
 20
      990.634815
 30
       19.958756
 11
     1089.569552
 21
      990.663264
 31
       19.957857
  0
LINE
  8
Default
 62
255
 10
     1089.569552
 20
      990.663264
 30
       19.957857
 11
     1089.703522
 21
      990.781023
 31
       19.962892
  0
LINE
  8
Default
 62
255
 10
     1089.703522
 20
      990.781023
 30
       19.962892
 11
     1089.780982
 21
      990.792717
 31
       19.967806
  0
LINE
  8
Default
 62
255
 10
     1089.780982
 20
      990.792717
 30
       19.967806
 11
     1089.844745
 21
      990.776910
 31
       19.958449
  0
LINE
  8
Default
 62
255
 10
     1089.844745
 20
      990.776910
 30
       19.958449
 11
     1089.931168
 21
      990.750097
 31
       19.951450
  0
LINE
  8
Default
 62
255
 10
     1089.931168
 20
      990.750097
 30
       19.951450
 11
     1089.947857
 21
      990.677112
 31
       19.943491
  0
LINE
  8
Default
 62
255
 10
     1089.947857
 20
      990.677112
 30
       19.943491
 11
     1089.985122
 21
      990.605465
 31
       19.960219
  0
LINE
  8
Default
 62
255
 10
     1089.985122
 20
      990.605465
 30
       19.960219
 11
     1090.069534
 21
      990.544429
 31
       19.950219
  0
LINE
  8
Default
 62
255
 10
     1090.069534
 20
      990.544429
 30
       19.950219
 11
     1090.128555
 21
      990.503930
 31
       19.931319
  0
LINE
  8
Default
 62
255
 10
     1090.128555
 20
      990.503930
 30
       19.931319
 11
     1090.196966
 21
      990.492708
 31
       19.945917
  0
LINE
  8
Default
 62
255
 10
     1090.196966
 20
      990.492708
 30
       19.945917
 11
     1090.294158
 21
      990.474956
 31
       19.946697
  0
LINE
  8
Default
 62
255
 10
     1090.294158
 20
      990.474956
 30
       19.946697
 11
     1090.368613
 21
      990.452492
 31
       19.945524
  0
LINE
  8
Default
 62
255
 10
     1090.368613
 20
      990.452492
 30
       19.945524
 11
     1090.462212
 21
      990.407105
 31
       19.948116
  0
LINE
  8
Default
 62
255
 10
     1090.462212
 20
      990.407105
 30
       19.948116
 11
     1090.559944
 21
      990.373826
 31
       19.919126
  0
LINE
  8
Default
 62
255
 10
     1090.559944
 20
      990.373826
 30
       19.919126
 11
     1090.604865
 21
      990.346648
 31
       19.926903
  0
LINE
  8
Default
 62
255
 10
     1090.604865
 20
      990.346648
 30
       19.926903
 11
     1090.694885
 21
      990.319456
 31
       19.923134
  0
LINE
  8
Default
 62
255
 10
     1090.694885
 20
      990.319456
 30
       19.923134
 11
     1090.771926
 21
      990.307481
 31
       19.945759
  0
LINE
  8
Default
 62
255
 10
     1089.378487
 20
      989.928450
 30
       20.004027
 11
     1089.380074
 21
      989.861024
 31
       19.997905
  0
LINE
  8
Default
 62
255
 10
     1089.380074
 20
      989.861024
 30
       19.997905
 11
     1089.373218
 21
      989.794953
 31
       20.003687
  0
LINE
  8
Default
 62
255
 10
     1089.373218
 20
      989.794953
 30
       20.003687
 11
     1089.352997
 21
      989.716248
 31
       20.001137
  0
LINE
  8
Default
 62
255
 10
     1088.626253
 20
      990.490711
 30
       19.861320
 11
     1088.682117
 21
      990.455537
 31
       19.866615
  0
LINE
  8
Default
 62
255
 10
     1088.682117
 20
      990.455537
 30
       19.866615
 11
     1088.741680
 21
      990.404088
 31
       19.843363
  0
LINE
  8
Default
 62
255
 10
     1088.741680
 20
      990.404088
 30
       19.843363
 11
     1088.833846
 21
      990.383033
 31
       19.834576
  0
LINE
  8
Default
 62
255
 10
     1088.833846
 20
      990.383033
 30
       19.834576
 11
     1089.022406
 21
      990.321580
 31
       19.825201
  0
LINE
  8
Default
 62
255
 10
     1089.022406
 20
      990.321580
 30
       19.825201
 11
     1089.054810
 21
      990.287395
 31
       19.818904
  0
LINE
  8
Default
 62
255
 10
     1089.054810
 20
      990.287395
 30
       19.818904
 11
     1089.126625
 21
      990.248704
 31
       19.830518
  0
LINE
  8
Default
 62
255
 10
     1089.126625
 20
      990.248704
 30
       19.830518
 11
     1089.202325
 21
      990.171490
 31
       19.842111
  0
LINE
  8
Default
 62
255
 10
     1089.202325
 20
      990.171490
 30
       19.842111
 11
     1089.240215
 21
      990.071802
 31
       19.843578
  0
LINE
  8
Default
 62
255
 10
     1089.240215
 20
      990.071802
 30
       19.843578
 11
     1089.273921
 21
      989.994947
 31
       19.848227
  0
LINE
  8
Default
 62
255
 10
     1089.273921
 20
      989.994947
 30
       19.848227
 11
     1089.302342
 21
      989.933478
 31
       19.853791
  0
LINE
  8
Default
 62
255
 10
     1089.302342
 20
      989.933478
 30
       19.853791
 11
     1089.293946
 21
      989.831657
 31
       19.852775
  0
LINE
  8
Default
 62
255
 10
     1089.293946
 20
      989.831657
 30
       19.852775
 11
     1089.285841
 21
      989.773603
 31
       19.846039
  0
LINE
  8
Default
 62
255
 10
     1088.808843
 20
      989.019737
 30
       19.596684
 11
     1088.895653
 21
      989.142007
 31
       19.616026
  0
LINE
  8
Default
 62
255
 10
     1088.895653
 20
      989.142007
 30
       19.616026
 11
     1088.998496
 21
      989.238386
 31
       19.676682
  0
LINE
  8
Default
 62
255
 10
     1088.998496
 20
      989.238386
 30
       19.676682
 11
     1089.176011
 21
      989.538019
 31
       19.785067
  0
LINE
  8
Default
 62
255
 10
     1089.176011
 20
      989.538019
 30
       19.785067
 11
     1089.285841
 21
      989.773603
 31
       19.846039
  0
ENDSEC
  0
EOF
