  0
SECTION
  2
HEADER
  9
$PDMODE
 70
   34
  9
$PDSIZE
 40
   -3.0
  0
ENDSEC
  0
SECTION
  2
TABLES
  0
TABLE
  2
LTYPE
 70
 1
  0
LTYPE
  2
CONTINUOUS
  70
 64
  3
Solid line
  72
 65
 73
 0
  40
 0.0
  0
ENDTAB
  0
TABLE
  2
LAYER
 70
 1
 0
LAYER
  2
Default
  70
 0
 62
 7
  6
CONTINUOUS
  0
ENDTAB
  0 
ENDSEC
  0
SECTION
  2
ENTITIES
  0
POINT
  8
Default
 62
255
 10
     1091.744700
 20
      989.298500
 30
       19.920500
  0
POINT
  8
Default
 62
255
 10
     1090.472400
 20
      987.851700
 30
       19.853600
  0
POINT
  8
Default
 62
255
 10
     1089.169600
 20
      988.919700
 30
       19.935100
  0
POINT
  8
Default
 62
255
 10
     1090.412500
 20
      990.157400
 30
       19.929600
  0
POINT
  8
Default
 62
255
 10
     1090.356915
 20
      989.949487
 30
       19.925906
  0
POINT
  8
Default
 62
255
 10
     1089.242975
 20
      988.776075
 30
       19.868019
  0
POINT
  8
Default
 62
255
 10
     1090.400400
 20
      987.768062
 30
       19.857096
  0
POINT
  8
Default
 62
255
 10
     1091.532485
 20
      989.038988
 30
       19.943725
  0
POINT
  8
Default
 62
255
 10
     1090.845915
 20
      989.311311
 30
       19.906508
  0
POINT
  8
Default
 62
255
 10
     1089.917223
 20
      989.209836
 30
       19.943068
  0
POINT
  8
Default
 62
255
 10
     1090.138731
 20
      989.506931
 30
       19.941978
  0
POINT
  8
Default
 62
255
 10
     1090.890568
 20
      988.237988
 30
       20.002828
  0
POINT
  8
Default
 62
255
 10
     1091.029009
 20
      988.469384
 30
       19.979708
  0
POINT
  8
Default
 62
255
 10
     1090.845222
 20
      989.611742
 30
       19.901361
  0
POINT
  8
Default
 62
255
 10
     1090.784101
 20
      989.720911
 30
       19.915844
  0
POINT
  8
Default
 62
255
 10
     1089.936883
 20
      988.776422
 30
       19.862944
  0
POINT
  8
Default
 62
255
 10
     1089.315466
 20
      988.937953
 30
       19.935169
  0
POINT
  8
Default
 62
255
 10
     1089.362052
 20
      989.010629
 30
       19.963913
  0
POINT
  8
Default
 62
255
 10
     1089.517814
 20
      989.235102
 30
       20.005690
  0
POINT
  8
Default
 62
255
 10
     1089.544917
 20
      989.325386
 30
       20.000740
  0
POINT
  8
Default
 62
255
 10
     1089.550392
 20
      989.417642
 30
       19.993192
  0
POINT
  8
Default
 62
255
 10
     1089.593509
 20
      989.508228
 30
       19.998746
  0
POINT
  8
Default
 62
255
 10
     1089.677793
 20
      989.562775
 30
       19.991173
  0
POINT
  8
Default
 62
255
 10
     1089.766356
 20
      989.604654
 30
       20.004967
  0
POINT
  8
Default
 62
255
 10
     1090.059331
 20
      989.457192
 30
       19.940718
  0
POINT
  8
Default
 62
255
 10
     1089.992217
 20
      989.386608
 30
       19.930607
  0
POINT
  8
Default
 62
255
 10
     1089.942808
 20
      989.303253
 30
       19.933357
  0
POINT
  8
Default
 62
255
 10
     1089.896464
 20
      989.115060
 30
       19.953738
  0
POINT
  8
Default
 62
255
 10
     1089.868507
 20
      989.023081
 30
       19.958940
  0
POINT
  8
Default
 62
255
 10
     1089.771690
 20
      988.895039
 30
       19.868769
  0
POINT
  8
Default
 62
255
 10
     1089.715295
 20
      988.822099
 30
       19.849565
  0
POINT
  8
Default
 62
255
 10
     1089.658654
 20
      988.749955
 30
       19.838982
  0
POINT
  8
Default
 62
255
 10
     1089.602575
 20
      988.679558
 30
       19.838571
  0
POINT
  8
Default
 62
255
 10
     1089.545437
 20
      988.609211
 30
       19.822044
  0
POINT
  8
Default
 62
255
 10
     1089.500420
 20
      988.543056
 30
       19.820958
  0
POINT
  8
Default
 62
255
 10
     1089.446210
 20
      988.462105
 30
       19.816690
  0
POINT
  8
Default
 62
255
 10
     1090.511103
 20
      989.292417
 30
       19.972337
  0
POINT
  8
Default
 62
255
 10
     1090.473201
 20
      989.264401
 30
       19.979513
  0
POINT
  8
Default
 62
255
 10
     1090.439965
 20
      989.230620
 30
       19.976877
  0
POINT
  8
Default
 62
255
 10
     1090.399234
 20
      989.205215
 30
       19.972203
  0
POINT
  8
Default
 62
255
 10
     1090.359788
 20
      989.168644
 30
       19.959128
  0
POINT
  8
Default
 62
255
 10
     1090.319947
 20
      989.147500
 30
       19.952215
  0
POINT
  8
Default
 62
255
 10
     1090.289623
 20
      989.108295
 30
       19.951657
  0
POINT
  8
Default
 62
255
 10
     1090.289830
 20
      989.062210
 30
       19.963270
  0
POINT
  8
Default
 62
255
 10
     1090.293141
 20
      989.015491
 30
       19.966357
  0
POINT
  8
Default
 62
255
 10
     1090.301904
 20
      988.966515
 30
       19.964566
  0
POINT
  8
Default
 62
255
 10
     1090.307377
 20
      988.921695
 30
       19.958969
  0
POINT
  8
Default
 62
255
 10
     1090.304791
 20
      988.875139
 30
       19.949524
  0
POINT
  8
Default
 62
255
 10
     1090.266026
 20
      988.846818
 30
       19.939152
  0
POINT
  8
Default
 62
255
 10
     1090.224704
 20
      988.825150
 30
       19.937031
  0
POINT
  8
Default
 62
255
 10
     1090.177675
 20
      988.816204
 30
       19.933338
  0
POINT
  8
Default
 62
255
 10
     1090.126661
 20
      988.805998
 30
       19.932376
  0
POINT
  8
Default
 62
255
 10
     1090.082834
 20
      988.790393
 30
       19.919623
  0
POINT
  8
Default
 62
255
 10
     1090.041894
 20
      988.785679
 30
       19.896459
  0
POINT
  8
Default
 62
255
 10
     1090.000585
 20
      988.779815
 30
       19.880413
  0
POINT
  8
Default
 62
255
 10
     1090.011787
 20
      988.732239
 30
       19.871033
  0
POINT
  8
Default
 62
255
 10
     1090.032800
 20
      988.698407
 30
       19.867749
  0
POINT
  8
Default
 62
255
 10
     1090.056451
 20
      988.650051
 30
       19.863867
  0
POINT
  8
Default
 62
255
 10
     1090.083364
 20
      988.617629
 30
       19.863705
  0
POINT
  8
Default
 62
255
 10
     1090.128270
 20
      988.597915
 30
       19.862651
  0
POINT
  8
Default
 62
255
 10
     1090.173308
 20
      988.602591
 30
       19.871255
  0
POINT
  8
Default
 62
255
 10
     1090.219985
 20
      988.604407
 30
       19.883870
  0
POINT
  8
Default
 62
255
 10
     1090.266326
 20
      988.603024
 30
       19.894439
  0
POINT
  8
Default
 62
255
 10
     1090.307440
 20
      988.603023
 30
       19.919919
  0
POINT
  8
Default
 62
255
 10
     1090.348573
 20
      988.600628
 30
       19.949844
  0
POINT
  8
Default
 62
255
 10
     1090.394039
 20
      988.606291
 30
       19.963946
  0
POINT
  8
Default
 62
255
 10
     1090.442873
 20
      988.611291
 30
       19.968046
  0
POINT
  8
Default
 62
255
 10
     1090.567533
 20
      989.258460
 30
       19.959461
  0
POINT
  8
Default
 62
255
 10
     1090.635322
 20
      989.183067
 30
       19.955979
  0
POINT
  8
Default
 62
255
 10
     1090.740177
 20
      989.030992
 30
       19.951527
  0
POINT
  8
Default
 62
255
 10
     1090.737999
 20
      989.002090
 30
       19.955032
  0
POINT
  8
Default
 62
255
 10
     1090.670056
 20
      988.936830
 30
       19.967041
  0
POINT
  8
Default
 62
255
 10
     1090.595459
 20
      988.880035
 30
       19.954130
  0
POINT
  8
Default
 62
255
 10
     1090.522904
 20
      988.809352
 30
       19.959109
  0
POINT
  8
Default
 62
255
 10
     1090.446756
 20
      988.754449
 30
       19.954745
  0
POINT
  8
Default
 62
255
 10
     1090.360697
 20
      988.689093
 30
       19.949924
  0
POINT
  8
Default
 62
255
 10
     1090.271094
 20
      988.556419
 30
       19.881377
  0
POINT
  8
Default
 62
255
 10
     1090.315491
 20
      988.482985
 30
       19.866420
  0
POINT
  8
Default
 62
255
 10
     1091.099638
 20
      989.815095
 30
       19.888280
  0
POINT
  8
Default
 62
255
 10
     1091.056442
 20
      989.803427
 30
       19.879851
  0
POINT
  8
Default
 62
255
 10
     1091.007413
 20
      989.789697
 30
       19.879699
  0
POINT
  8
Default
 62
255
 10
     1090.980842
 20
      989.751490
 30
       19.882066
  0
POINT
  8
Default
 62
255
 10
     1090.965714
 20
      989.704001
 30
       19.884927
  0
POINT
  8
Default
 62
255
 10
     1090.937899
 20
      989.613579
 30
       19.895582
  0
POINT
  8
Default
 62
255
 10
     1090.934158
 20
      989.519839
 30
       19.880521
  0
POINT
  8
Default
 62
255
 10
     1090.909037
 20
      989.379971
 30
       19.892340
  0
POINT
  8
Default
 62
255
 10
     1090.801903
 20
      989.294269
 30
       19.917208
  0
POINT
  8
Default
 62
255
 10
     1090.647057
 20
      989.276688
 30
       19.916409
  0
POINT
  8
Default
 62
255
 10
     1091.142390
 20
      988.992691
 30
       19.928818
  0
POINT
  8
Default
 62
255
 10
     1091.077973
 20
      988.926789
 30
       19.923869
  0
POINT
  8
Default
 62
255
 10
     1091.011245
 20
      988.856030
 30
       19.923242
  0
POINT
  8
Default
 62
255
 10
     1090.941790
 20
      988.785460
 30
       19.945960
  0
POINT
  8
Default
 62
255
 10
     1091.061469
 20
      988.516953
 30
       19.974001
  0
POINT
  8
Default
 62
255
 10
     1091.219734
 20
      988.625256
 30
       19.938877
  0
POINT
  8
Default
 62
255
 10
     1091.364842
 20
      988.749074
 30
       19.943404
  0
POINT
  8
Default
 62
255
 10
     1091.390794
 20
      988.788817
 30
       19.942148
  0
POINT
  8
Default
 62
255
 10
     1091.415257
 20
      988.828435
 30
       19.938322
  0
POINT
  8
Default
 62
255
 10
     1091.397274
 20
      988.901002
 30
       19.930919
  0
POINT
  8
Default
 62
255
 10
     1091.066036
 20
      988.861663
 30
       19.922372
  0
POINT
  8
Default
 62
255
 10
     1090.962820
 20
      988.413456
 30
       19.984983
  0
POINT
  8
Default
 62
255
 10
     1091.257553
 20
      988.989141
 30
       19.931792
  0
POINT
  8
Default
 62
255
 10
     1090.953428
 20
      988.617050
 30
       19.981955
  0
POINT
  8
Default
 62
255
 10
     1091.132821
 20
      988.754225
 30
       19.940914
  0
POINT
  8
Default
 62
255
 10
     1090.883094
 20
      988.517353
 30
       19.990600
  0
POINT
  8
Default
 62
255
 10
     1091.015549
 20
      988.723736
 30
       19.947303
  0
POINT
  8
Default
 62
255
 10
     1091.207568
 20
      989.122048
 30
       19.921288
  0
POINT
  8
Default
 62
255
 10
     1091.284728
 20
      989.187577
 30
       19.916993
  0
POINT
  8
Default
 62
255
 10
     1091.204413
 20
      989.069897
 30
       19.925412
  0
POINT
  8
Default
 62
255
 10
     1091.505617
 20
      988.994988
 30
       19.940131
  0
POINT
  8
Default
 62
255
 10
     1091.441980
 20
      988.869745
 30
       19.934005
  0
POINT
  8
Default
 62
255
 10
     1091.496486
 20
      988.774397
 30
       19.963696
  0
POINT
  8
Default
 62
255
 10
     1091.121673
 20
      988.360861
 30
       19.994138
  0
POINT
  8
Default
 62
255
 10
     1091.288466
 20
      988.942274
 30
       19.938798
  0
POINT
  8
Default
 62
255
 10
     1090.703485
 20
      988.319445
 30
       19.916429
  0
POINT
  8
Default
 62
255
 10
     1090.753379
 20
      988.242276
 30
       19.932533
  0
POINT
  8
Default
 62
255
 10
     1090.838993
 20
      988.150259
 30
       19.988774
  0
POINT
  8
Default
 62
255
 10
     1090.941089
 20
      988.088697
 30
       20.044340
  0
POINT
  8
Default
 62
255
 10
     1090.911087
 20
      988.102681
 30
       20.016898
  0
POINT
  8
Default
 62
255
 10
     1091.145430
 20
      988.572515
 30
       19.964841
  0
POINT
  8
Default
 62
255
 10
     1090.507342
 20
      990.146611
 30
       19.920796
  0
POINT
  8
Default
 62
255
 10
     1090.466741
 20
      990.071914
 30
       19.933334
  0
POINT
  8
Default
 62
255
 10
     1090.429696
 20
      990.007012
 30
       19.943777
  0
POINT
  8
Default
 62
255
 10
     1090.596762
 20
      989.842925
 30
       19.933852
  0
POINT
  8
Default
 62
255
 10
     1090.694355
 20
      990.001194
 30
       19.922385
  0
POINT
  8
Default
 62
255
 10
     1090.612793
 20
      990.023846
 30
       19.921167
  0
POINT
  8
Default
 62
255
 10
     1090.413038
 20
      989.929434
 30
       19.932392
  0
POINT
  8
Default
 62
255
 10
     1090.278601
 20
      989.863555
 30
       19.926783
  0
POINT
  8
Default
 62
255
 10
     1090.503473
 20
      990.180930
 30
       19.912029
  0
POINT
  8
Default
 62
255
 10
     1090.706671
 20
      990.098496
 30
       19.910246
  0
POINT
  8
Default
 62
255
 10
     1090.085307
 20
      989.918056
 30
       19.942477
  0
POINT
  8
Default
 62
255
 10
     1090.322106
 20
      989.573869
 30
       19.956730
  0
POINT
  8
Default
 62
255
 10
     1089.923654
 20
      989.705513
 30
       19.989750
  0
POINT
  8
Default
 62
255
 10
     1090.226496
 20
      989.539589
 30
       19.935550
  0
POINT
  8
Default
 62
255
 10
     1089.670933
 20
      989.700564
 30
       19.993784
  0
POINT
  8
Default
 62
255
 10
     1090.262017
 20
      989.991422
 30
       19.928281
  0
POINT
  8
Default
 62
255
 10
     1089.986171
 20
      988.181956
 30
       19.839023
  0
POINT
  8
Default
 62
255
 10
     1090.028157
 20
      988.157283
 30
       19.842586
  0
POINT
  8
Default
 62
255
 10
     1090.068463
 20
      988.139376
 30
       19.851378
  0
POINT
  8
Default
 62
255
 10
     1090.108629
 20
      988.112538
 30
       19.857423
  0
POINT
  8
Default
 62
255
 10
     1090.142460
 20
      988.077614
 30
       19.852218
  0
POINT
  8
Default
 62
255
 10
     1090.173471
 20
      988.055860
 30
       19.841011
  0
POINT
  8
Default
 62
255
 10
     1090.212937
 20
      988.019453
 30
       19.834067
  0
POINT
  8
Default
 62
255
 10
     1090.253140
 20
      987.998669
 30
       19.844360
  0
POINT
  8
Default
 62
255
 10
     1090.287906
 20
      987.971658
 30
       19.849302
  0
POINT
  8
Default
 62
255
 10
     1090.270877
 20
      987.896917
 30
       19.857674
  0
POINT
  8
Default
 62
255
 10
     1090.376042
 20
      987.855708
 30
       19.882517
  0
POINT
  8
Default
 62
255
 10
     1090.473388
 20
      987.822978
 30
       19.863856
  0
POINT
  8
Default
 62
255
 10
     1090.543319
 20
      987.878501
 30
       19.863200
  0
POINT
  8
Default
 62
255
 10
     1090.615339
 20
      987.942318
 30
       19.863381
  0
POINT
  8
Default
 62
255
 10
     1090.647718
 20
      987.974190
 30
       19.861292
  0
POINT
  8
Default
 62
255
 10
     1090.719884
 20
      988.037987
 30
       19.859825
  0
POINT
  8
Default
 62
255
 10
     1090.343980
 20
      988.445829
 30
       19.864536
  0
POINT
  8
Default
 62
255
 10
     1090.340388
 20
      988.402296
 30
       19.857578
  0
POINT
  8
Default
 62
255
 10
     1090.304994
 20
      988.372367
 30
       19.849515
  0
POINT
  8
Default
 62
255
 10
     1090.264313
 20
      988.344080
 30
       19.846409
  0
POINT
  8
Default
 62
255
 10
     1090.219642
 20
      988.325181
 30
       19.840945
  0
POINT
  8
Default
 62
255
 10
     1090.176930
 20
      988.310147
 30
       19.840289
  0
POINT
  8
Default
 62
255
 10
     1090.086574
 20
      988.281176
 30
       19.839132
  0
POINT
  8
Default
 62
255
 10
     1090.034695
 20
      988.266136
 30
       19.838508
  0
POINT
  8
Default
 62
255
 10
     1089.992886
 20
      988.243461
 30
       19.826612
  0
POINT
  8
Default
 62
255
 10
     1090.274848
 20
      988.019313
 30
       19.835326
  0
POINT
  8
Default
 62
255
 10
     1090.054944
 20
      987.989438
 30
       19.865593
  0
POINT
  8
Default
 62
255
 10
     1090.527659
 20
      988.301061
 30
       19.857796
  0
POINT
  8
Default
 62
255
 10
     1090.336769
 20
      988.317383
 30
       19.850818
  0
POINT
  8
Default
 62
255
 10
     1090.387322
 20
      988.160113
 30
       19.847352
  0
POINT
  8
Default
 62
255
 10
     1090.093415
 20
      988.214492
 30
       19.843896
  0
POINT
  8
Default
 62
255
 10
     1090.418147
 20
      988.792518
 30
       19.957537
  0
POINT
  8
Default
 62
255
 10
     1090.520729
 20
      988.739692
 30
       19.959759
  0
POINT
  8
Default
 62
255
 10
     1090.519016
 20
      988.515491
 30
       19.984882
  0
POINT
  8
Default
 62
255
 10
     1090.256444
 20
      988.434032
 30
       19.843455
  0
POINT
  8
Default
 62
255
 10
     1090.216351
 20
      987.803897
 30
       19.888599
  0
POINT
  8
Default
 62
255
 10
     1090.052663
 20
      987.853145
 30
       19.879188
  0
POINT
  8
Default
 62
255
 10
     1090.109709
 20
      987.757417
 30
       19.893240
  0
POINT
  8
Default
 62
255
 10
     1090.232940
 20
      987.666971
 30
       19.887357
  0
POINT
  8
Default
 62
255
 10
     1089.544005
 20
      988.568292
 30
       19.822952
  0
POINT
  8
Default
 62
255
 10
     1089.586108
 20
      988.535696
 30
       19.821470
  0
POINT
  8
Default
 62
255
 10
     1089.620323
 20
      988.502672
 30
       19.822939
  0
POINT
  8
Default
 62
255
 10
     1089.653650
 20
      988.470259
 30
       19.826939
  0
POINT
  8
Default
 62
255
 10
     1089.691590
 20
      988.436702
 30
       19.826843
  0
POINT
  8
Default
 62
255
 10
     1089.731319
 20
      988.405276
 30
       19.825690
  0
POINT
  8
Default
 62
255
 10
     1089.764230
 20
      988.371369
 30
       19.824840
  0
POINT
  8
Default
 62
255
 10
     1089.797892
 20
      988.334857
 30
       19.827812
  0
POINT
  8
Default
 62
255
 10
     1089.833709
 20
      988.304098
 30
       19.826561
  0
POINT
  8
Default
 62
255
 10
     1089.872704
 20
      988.272971
 30
       19.823856
  0
POINT
  8
Default
 62
255
 10
     1089.911160
 20
      988.244757
 30
       19.828241
  0
POINT
  8
Default
 62
255
 10
     1089.945053
 20
      988.215199
 30
       19.836382
  0
POINT
  8
Default
 62
255
 10
     1089.938388
 20
      988.169149
 30
       19.838619
  0
POINT
  8
Default
 62
255
 10
     1089.908682
 20
      988.136500
 30
       19.838588
  0
POINT
  8
Default
 62
255
 10
     1089.877344
 20
      988.104786
 30
       19.841555
  0
POINT
  8
Default
 62
255
 10
     1089.845088
 20
      988.078715
 30
       19.847246
  0
POINT
  8
Default
 62
255
 10
     1089.809712
 20
      988.044960
 30
       19.849314
  0
POINT
  8
Default
 62
255
 10
     1089.765982
 20
      988.012953
 30
       19.852569
  0
POINT
  8
Default
 62
255
 10
     1089.631296
 20
      988.360341
 30
       19.834869
  0
POINT
  8
Default
 62
255
 10
     1089.431782
 20
      988.226806
 30
       19.816023
  0
POINT
  8
Default
 62
255
 10
     1090.054816
 20
      988.706220
 30
       19.869741
  0
POINT
  8
Default
 62
255
 10
     1089.994286
 20
      988.580867
 30
       19.838883
  0
POINT
  8
Default
 62
255
 10
     1090.243890
 20
      988.745149
 30
       19.938622
  0
POINT
  8
Default
 62
255
 10
     1090.258976
 20
      988.879858
 30
       19.937987
  0
POINT
  8
Default
 62
255
 10
     1090.037119
 20
      989.090631
 30
       19.936978
  0
POINT
  8
Default
 62
255
 10
     1089.835177
 20
      988.817653
 30
       19.861955
  0
POINT
  8
Default
 62
255
 10
     1089.761077
 20
      989.020273
 30
       19.959432
  0
POINT
  8
Default
 62
255
 10
     1089.881401
 20
      988.880471
 30
       19.889182
  0
POINT
  8
Default
 62
255
 10
     1090.225854
 20
      988.898780
 30
       19.937038
  0
POINT
  8
Default
 62
255
 10
     1090.582011
 20
      989.675487
 30
       19.931156
  0
POINT
  8
Default
 62
255
 10
     1090.533277
 20
      989.770784
 30
       19.943766
  0
POINT
  8
Default
 62
255
 10
     1090.470765
 20
      989.696706
 30
       19.940768
  0
POINT
  8
Default
 62
255
 10
     1090.407770
 20
      989.631757
 30
       19.959243
  0
POINT
  8
Default
 62
255
 10
     1090.707084
 20
      989.282117
 30
       19.930121
  0
POINT
  8
Default
 62
255
 10
     1090.591048
 20
      989.385570
 30
       19.944618
  0
POINT
  8
Default
 62
255
 10
     1090.418803
 20
      989.501639
 30
       19.938331
  0
POINT
  8
Default
 62
255
 10
     1090.632155
 20
      989.656855
 30
       19.929116
  0
POINT
  8
Default
 62
255
 10
     1090.766200
 20
      989.790689
 30
       19.921270
  0
POINT
  8
Default
 62
255
 10
     1090.903230
 20
      989.878480
 30
       19.898988
  0
POINT
  8
Default
 62
255
 10
     1091.279267
 20
      989.651103
 30
       19.885482
  0
POINT
  8
Default
 62
255
 10
     1091.250120
 20
      989.619338
 30
       19.870145
  0
POINT
  8
Default
 62
255
 10
     1091.181885
 20
      989.550112
 30
       19.865332
  0
POINT
  8
Default
 62
255
 10
     1091.124019
 20
      989.477143
 30
       19.857059
  0
POINT
  8
Default
 62
255
 10
     1091.081783
 20
      989.392280
 30
       19.872379
  0
POINT
  8
Default
 62
255
 10
     1091.041167
 20
      989.302255
 30
       19.872445
  0
POINT
  8
Default
 62
255
 10
     1090.973644
 20
      989.222084
 30
       19.881493
  0
POINT
  8
Default
 62
255
 10
     1091.008890
 20
      989.153796
 30
       19.898494
  0
POINT
  8
Default
 62
255
 10
     1091.043686
 20
      989.107426
 30
       19.911890
  0
POINT
  8
Default
 62
255
 10
     1091.085682
 20
      989.063915
 30
       19.924220
  0
POINT
  8
Default
 62
255
 10
     1091.221909
 20
      989.475255
 30
       19.862078
  0
POINT
  8
Default
 62
255
 10
     1091.468253
 20
      989.390780
 30
       19.915184
  0
POINT
  8
Default
 62
255
 10
     1091.394037
 20
      989.341891
 30
       19.901504
  0
POINT
  8
Default
 62
255
 10
     1091.328535
 20
      989.275021
 30
       19.901242
  0
POINT
  8
Default
 62
255
 10
     1091.308294
 20
      989.230834
 30
       19.909273
  0
POINT
  8
Default
 62
255
 10
     1091.429012
 20
      989.369400
 30
       19.907476
  0
POINT
  8
Default
 62
255
 10
     1091.315190
 20
      989.681614
 30
       19.895283
  0
POINT
  8
Default
 62
255
 10
     1091.515881
 20
      989.406211
 30
       19.918825
  0
POINT
  8
Default
 62
255
 10
     1091.561626
 20
      989.471713
 30
       19.893339
  0
POINT
  8
Default
 62
255
 10
     1091.398581
 20
      989.618806
 30
       19.915002
  0
POINT
  8
Default
 62
255
 10
     1091.814731
 20
      989.232373
 30
       19.930064
  0
POINT
  8
Default
 62
255
 10
     1091.766506
 20
      989.154375
 30
       19.935129
  0
POINT
  8
Default
 62
255
 10
     1091.696135
 20
      989.088896
 30
       19.955841
  0
POINT
  8
Default
 62
255
 10
     1091.611773
 20
      989.070000
 30
       19.946986
  0
POINT
  8
Default
 62
255
 10
     1091.582603
 20
      989.198530
 30
       19.948438
  0
POINT
  8
Default
 62
255
 10
     1091.452915
 20
      989.110013
 30
       19.928600
  0
POINT
  8
Default
 62
255
 10
     1091.579677
 20
      988.987348
 30
       19.964575
  0
POINT
  8
Default
 62
255
 10
     1091.829081
 20
      989.320919
 30
       19.931740
  0
POINT
  8
Default
 62
255
 10
     1091.832491
 20
      989.342174
 30
       19.929689
  0
POINT
  8
Default
 62
255
 10
     1091.273816
 20
      988.642351
 30
       19.940177
  0
POINT
  8
Default
 62
255
 10
     1091.158536
 20
      989.098315
 30
       19.923764
  0
POINT
  8
Default
 62
255
 10
     1091.222756
 20
      989.278727
 30
       19.894134
  0
POINT
  8
Default
 62
255
 10
     1091.118081
 20
      989.608350
 30
       19.863181
  0
POINT
  8
Default
 62
255
 10
     1090.611680
 20
      988.109207
 30
       19.862853
  0
POINT
  8
Default
 62
255
 10
     1090.454036
 20
      988.096177
 30
       19.849966
  0
POINT
  8
Default
 62
255
 10
     1090.650934
 20
      987.881895
 30
       19.871812
  0
POINT
  8
Default
 62
255
 10
     1090.365200
 20
      987.661074
 30
       19.860157
  0
POINT
  8
Default
 62
255
 10
     1090.877126
 20
      988.129872
 30
       20.009286
  0
POINT
  8
Default
 62
255
 10
     1090.587870
 20
      988.273595
 30
       19.857587
  0
POINT
  8
Default
 62
255
 10
     1090.245323
 20
      988.122700
 30
       19.845000
  0
POINT
  8
Default
 62
255
 10
     1090.420089
 20
      988.011986
 30
       19.850340
  0
POINT
  8
Default
 62
255
 10
     1090.526254
 20
      987.903397
 30
       19.850534
  0
POINT
  8
Default
 62
255
 10
     1090.526711
 20
      988.051732
 30
       19.857761
  0
POINT
  8
Default
 62
255
 10
     1090.750316
 20
      988.069263
 30
       19.859349
  0
POINT
  8
Default
 62
255
 10
     1090.801104
 20
      988.173717
 30
       19.970457
  0
POINT
  8
Default
 62
255
 10
     1090.861008
 20
      988.200434
 30
       20.012757
  0
POINT
  8
Default
 62
255
 10
     1090.834543
 20
      988.168160
 30
       19.990153
  0
POINT
  8
Default
 62
255
 10
     1090.757165
 20
      988.104782
 30
       19.923204
  0
POINT
  8
Default
 62
255
 10
     1090.621413
 20
      987.914012
 30
       19.866489
  0
POINT
  8
Default
 62
255
 10
     1090.131199
 20
      989.743287
 30
       19.944859
  0
POINT
  8
Default
 62
255
 10
     1090.239673
 20
      989.832214
 30
       19.924231
  0
POINT
  8
Default
 62
255
 10
     1090.102376
 20
      989.742823
 30
       19.948195
  0
POINT
  8
Default
 62
255
 10
     1089.963130
 20
      989.714831
 30
       19.983775
  0
POINT
  8
Default
 62
255
 10
     1090.144675
 20
      989.645766
 30
       19.935448
  0
POINT
  8
Default
 62
255
 10
     1090.269381
 20
      989.908763
 30
       19.928720
  0
POINT
  8
Default
 62
255
 10
     1089.989872
 20
      989.778205
 30
       19.977657
  0
POINT
  8
Default
 62
255
 10
     1090.186347
 20
      989.560164
 30
       19.933073
  0
POINT
  8
Default
 62
255
 10
     1089.913426
 20
      989.625806
 30
       19.989112
  0
POINT
  8
Default
 62
255
 10
     1090.876575
 20
      988.723216
 30
       19.972752
  0
POINT
  8
Default
 62
255
 10
     1090.802235
 20
      988.659324
 30
       19.989469
  0
POINT
  8
Default
 62
255
 10
     1090.735658
 20
      988.591472
 30
       19.989640
  0
POINT
  8
Default
 62
255
 10
     1090.685011
 20
      988.506044
 30
       19.989242
  0
POINT
  8
Default
 62
255
 10
     1090.539871
 20
      988.621427
 30
       19.977297
  0
POINT
  8
Default
 62
255
 10
     1090.583597
 20
      988.492705
 30
       19.988571
  0
POINT
  8
Default
 62
255
 10
     1089.191192
 20
      989.029357
 30
       19.959012
  0
POINT
  8
Default
 62
255
 10
     1089.283938
 20
      989.163284
 30
       19.998133
  0
POINT
  8
Default
 62
255
 10
     1089.389801
 20
      989.349325
 30
       20.009702
  0
POINT
  8
Default
 62
255
 10
     1089.440440
 20
      989.442481
 30
       20.000339
  0
POINT
  8
Default
 62
255
 10
     1089.425565
 20
      989.254180
 30
       20.016410
  0
POINT
  8
Default
 62
255
 10
     1089.576195
 20
      989.634152
 30
       20.000622
  0
POINT
  8
Default
 62
255
 10
     1089.472055
 20
      989.568106
 30
       19.992548
  0
POINT
  8
Default
 62
255
 10
     1089.517875
 20
      989.750897
 30
       19.999027
  0
POINT
  8
Default
 62
255
 10
     1089.460111
 20
      989.659918
 30
       19.994739
  0
POINT
  8
Default
 62
255
 10
     1089.813990
 20
      989.769338
 30
       20.010692
  0
POINT
  8
Default
 62
255
 10
     1089.684632
 20
      989.846259
 30
       20.017337
  0
POINT
  8
Default
 62
255
 10
     1089.899823
 20
      989.863786
 30
       19.995405
  0
POINT
  8
Default
 62
255
 10
     1089.678224
 20
      989.968863
 30
       19.998784
  0
POINT
  8
Default
 62
255
 10
     1089.821009
 20
      990.013993
 30
       19.994309
  0
POINT
  8
Default
 62
255
 10
     1089.906445
 20
      990.067298
 30
       19.991879
  0
POINT
  8
Default
 62
255
 10
     1090.149279
 20
      990.134497
 30
       19.958156
  0
POINT
  8
Default
 62
255
 10
     1089.992541
 20
      990.121579
 30
       19.988420
  0
POINT
  8
Default
 62
255
 10
     1090.123468
 20
      990.029995
 30
       19.951610
  0
POINT
  8
Default
 62
255
 10
     1090.328973
 20
      990.082448
 30
       19.937580
  0
POINT
  8
Default
 62
255
 10
     1090.314135
 20
      990.168643
 30
       19.937995
  0
POINT
  8
Default
 62
255
 10
     1090.266430
 20
      990.257353
 30
       19.964551
  0
POINT
  8
Default
 62
255
 10
     1090.379746
 20
      990.274024
 30
       19.941502
  0
POINT
  8
Default
 62
255
 10
     1090.215866
 20
      990.210221
 30
       19.947703
  0
POINT
  8
Default
 62
255
 10
     1089.137437
 20
      988.818950
 30
       19.902927
  0
POINT
  8
Default
 62
255
 10
     1089.100858
 20
      988.946962
 30
       19.934174
  0
POINT
  8
Default
 62
255
 10
     1089.156350
 20
      988.694433
 30
       19.861810
  0
POINT
  8
Default
 62
255
 10
     1089.290126
 20
      988.758107
 30
       19.848248
  0
POINT
  8
Default
 62
255
 10
     1089.330743
 20
      988.740948
 30
       19.834239
  0
POINT
  8
Default
 62
255
 10
     1089.373546
 20
      988.720386
 30
       19.826930
  0
POINT
  8
Default
 62
255
 10
     1089.410693
 20
      988.690223
 30
       19.816948
  0
POINT
  8
Default
 62
255
 10
     1089.445588
 20
      988.658081
 30
       19.813877
  0
POINT
  8
Default
 62
255
 10
     1089.479318
 20
      988.627082
 30
       19.816492
  0
POINT
  8
Default
 62
255
 10
     1089.498987
 20
      988.744270
 30
       19.828033
  0
POINT
  8
Default
 62
255
 10
     1089.531389
 20
      989.024783
 30
       19.999486
  0
POINT
  8
Default
 62
255
 10
     1089.430158
 20
      988.989377
 30
       19.957374
  0
POINT
  8
Default
 62
255
 10
     1089.517906
 20
      989.126822
 30
       20.032421
  0
POINT
  8
Default
 62
255
 10
     1089.674559
 20
      989.052706
 30
       19.986372
  0
POINT
  8
Default
 62
255
 10
     1089.626001
 20
      989.053714
 30
       20.008833
  0
POINT
  8
Default
 62
255
 10
     1089.973107
 20
      989.542862
 30
       19.971054
  0
POINT
  8
Default
 62
255
 10
     1089.843018
 20
      989.498587
 30
       19.974765
  0
POINT
  8
Default
 62
255
 10
     1089.680271
 20
      989.423819
 30
       19.983640
  0
POINT
  8
Default
 62
255
 10
     1089.764849
 20
      989.364452
 30
       19.958823
  0
POINT
  8
Default
 62
255
 10
     1089.760496
 20
      989.150745
 30
       19.973244
  0
POINT
  8
Default
 62
255
 10
     1089.609253
 20
      989.242867
 30
       19.996045
  0
POINT
  8
Default
 62
255
 10
     1090.272972
 20
      989.425845
 30
       19.945037
  0
POINT
  8
Default
 62
255
 10
     1090.358087
 20
      989.303575
 30
       19.961056
  0
POINT
  8
Default
 62
255
 10
     1090.085331
 20
      989.249921
 30
       19.936940
  0
POINT
  8
Default
 62
255
 10
     1090.107682
 20
      989.336264
 30
       19.928393
  0
POINT
  8
Default
 62
255
 10
     1090.243084
 20
      989.275061
 30
       19.932856
  0
POINT
  8
Default
 62
255
 10
     1090.190460
 20
      989.145300
 30
       19.938067
  0
POINT
  8
Default
 62
255
 10
     1090.184885
 20
      989.052612
 30
       19.936818
  0
POINT
  8
Default
 62
255
 10
     1090.039545
 20
      988.879638
 30
       19.942392
  0
POINT
  8
Default
 62
255
 10
     1090.041006
 20
      988.968779
 30
       19.945924
  0
POINT
  8
Default
 62
255
 10
     1090.132380
 20
      988.920784
 30
       19.945755
  0
POINT
  8
Default
 62
255
 10
     1089.910110
 20
      988.984746
 30
       19.957293
  0
POINT
  8
Default
 62
255
 10
     1090.623727
 20
      989.021552
 30
       19.948272
  0
POINT
  8
Default
 62
255
 10
     1090.563065
 20
      989.152853
 30
       19.959786
  0
POINT
  8
Default
 62
255
 10
     1090.415996
 20
      989.099415
 30
       19.970546
  0
POINT
  8
Default
 62
255
 10
     1090.537432
 20
      989.013702
 30
       19.958859
  0
POINT
  8
Default
 62
255
 10
     1090.390142
 20
      988.925997
 30
       19.992924
  0
POINT
  8
Default
 62
255
 10
     1090.353881
 20
      989.060447
 30
       19.980906
  0
POINT
  8
Default
 62
255
 10
     1090.162667
 20
      988.749448
 30
       19.935319
  0
POINT
  8
Default
 62
255
 10
     1090.328002
 20
      988.657165
 30
       19.952950
  0
POINT
  8
Default
 62
255
 10
     1090.742454
 20
      988.788728
 30
       19.977962
  0
POINT
  8
Default
 62
255
 10
     1090.738843
 20
      988.894115
 30
       19.965354
  0
POINT
  8
Default
 62
255
 10
     1090.680573
 20
      988.690434
 30
       19.972713
  0
POINT
  8
Default
 62
255
 10
     1090.624457
 20
      988.788023
 30
       19.953545
  0
POINT
  8
Default
 62
255
 10
     1090.468824
 20
      988.476876
 30
       19.969441
  0
POINT
  8
Default
 62
255
 10
     1090.440385
 20
      988.552991
 30
       19.973259
  0
POINT
  8
Default
 62
255
 10
     1090.795170
 20
      988.525287
 30
       19.990179
  0
POINT
  8
Default
 62
255
 10
     1090.867389
 20
      988.641526
 30
       19.983610
  0
POINT
  8
Default
 62
255
 10
     1090.835276
 20
      988.252725
 30
       19.998162
  0
POINT
  8
Default
 62
255
 10
     1090.786489
 20
      988.306032
 30
       19.979974
  0
POINT
  8
Default
 62
255
 10
     1090.728852
 20
      988.429508
 30
       19.983454
  0
POINT
  8
Default
 62
255
 10
     1090.836159
 20
      988.379646
 30
       19.985859
  0
POINT
  8
Default
 62
255
 10
     1090.892553
 20
      988.392587
 30
       19.990914
  0
POINT
  8
Default
 62
255
 10
     1091.032934
 20
      988.301497
 30
       19.986868
  0
POINT
  8
Default
 62
255
 10
     1091.016540
 20
      988.188592
 30
       20.022439
  0
POINT
  8
Default
 62
255
 10
     1090.929202
 20
      988.171440
 30
       20.008818
  0
POINT
  8
Default
 62
255
 10
     1090.900239
 20
      988.045278
 30
       20.024089
  0
POINT
  8
Default
 62
255
 10
     1090.761343
 20
      987.984925
 30
       19.867170
  0
POINT
  8
Default
 62
255
 10
     1090.685071
 20
      988.232438
 30
       19.926797
  0
POINT
  8
Default
 62
255
 10
     1090.508965
 20
      988.188136
 30
       19.855031
  0
POINT
  8
Default
 62
255
 10
     1090.411217
 20
      988.279991
 30
       19.847880
  0
POINT
  8
Default
 62
255
 10
     1090.134097
 20
      988.477698
 30
       19.844803
  0
POINT
  8
Default
 62
255
 10
     1089.938641
 20
      988.471709
 30
       19.836922
  0
POINT
  8
Default
 62
255
 10
     1089.974479
 20
      988.345224
 30
       19.833312
  0
POINT
  8
Default
 62
255
 10
     1089.775382
 20
      988.514855
 30
       19.818894
  0
POINT
  8
Default
 62
255
 10
     1089.775132
 20
      988.659088
 30
       19.832947
  0
POINT
  8
Default
 62
255
 10
     1089.669531
 20
      988.644770
 30
       19.832301
  0
POINT
  8
Default
 62
255
 10
     1090.470808
 20
      987.589486
 30
       19.893554
  0
POINT
  8
Default
 62
255
 10
     1090.551142
 20
      987.683164
 30
       19.884365
  0
POINT
  8
Default
 62
255
 10
     1090.607495
 20
      987.760106
 30
       19.884295
  0
POINT
  8
Default
 62
255
 10
     1090.159711
 20
      987.915848
 30
       19.864991
  0
POINT
  8
Default
 62
255
 10
     1089.929967
 20
      988.005937
 30
       19.861496
  0
POINT
  8
Default
 62
255
 10
     1089.923846
 20
      987.871259
 30
       19.884877
  0
POINT
  8
Default
 62
255
 10
     1089.974070
 20
      988.094535
 30
       19.849563
  0
POINT
  8
Default
 62
255
 10
     1089.678747
 20
      988.214108
 30
       19.827734
  0
POINT
  8
Default
 62
255
 10
     1089.836458
 20
      988.161415
 30
       19.826653
  0
POINT
  8
Default
 62
255
 10
     1089.535976
 20
      988.050495
 30
       19.828739
  0
POINT
  8
Default
 62
255
 10
     1089.667323
 20
      988.097248
 30
       19.830166
  0
POINT
  8
Default
 62
255
 10
     1089.531624
 20
      988.364749
 30
       19.829794
  0
POINT
  8
Default
 62
255
 10
     1089.280291
 20
      988.406597
 30
       19.822631
  0
POINT
  8
Default
 62
255
 10
     1089.322309
 20
      988.524892
 30
       19.827322
  0
POINT
  8
Default
 62
255
 10
     1089.385491
 20
      988.594018
 30
       19.812847
  0
POINT
  8
Default
 62
255
 10
     1089.279608
 20
      988.647178
 30
       19.824907
  0
POINT
  8
Default
 62
255
 10
     1089.183793
 20
      988.568171
 30
       19.829698
  0
POINT
  8
Default
 62
255
 10
     1091.611472
 20
      989.305671
 30
       19.926046
  0
POINT
  8
Default
 62
255
 10
     1091.467925
 20
      989.273068
 30
       19.926807
  0
POINT
  8
Default
 62
255
 10
     1091.898470
 20
      989.312264
 30
       19.941390
  0
POINT
  8
Default
 62
255
 10
     1091.659518
 20
      989.010423
 30
       19.982877
  0
POINT
  8
Default
 62
255
 10
     1091.757607
 20
      989.358178
 30
       19.927206
  0
POINT
  8
Default
 62
255
 10
     1091.465894
 20
      989.542756
 30
       19.918964
  0
POINT
  8
Default
 62
255
 10
     1091.400308
 20
      989.473571
 30
       19.910501
  0
POINT
  8
Default
 62
255
 10
     1091.303407
 20
      989.563818
 30
       19.879786
  0
POINT
  8
Default
 62
255
 10
     1091.314013
 20
      989.427533
 30
       19.881880
  0
POINT
  8
Default
 62
255
 10
     1091.210655
 20
      989.391097
 30
       19.874978
  0
POINT
  8
Default
 62
255
 10
     1091.218380
 20
      989.758264
 30
       19.900941
  0
POINT
  8
Default
 62
255
 10
     1091.101344
 20
      989.699664
 30
       19.869932
  0
POINT
  8
Default
 62
255
 10
     1091.041247
 20
      989.909309
 30
       19.896674
  0
POINT
  8
Default
 62
255
 10
     1090.913101
 20
      990.008497
 30
       19.907848
  0
POINT
  8
Default
 62
255
 10
     1090.814431
 20
      990.055051
 30
       19.913956
  0
POINT
  8
Default
 62
255
 10
     1090.820834
 20
      989.964370
 30
       19.910283
  0
POINT
  8
Default
 62
255
 10
     1090.731430
 20
      989.883164
 30
       19.936562
  0
POINT
  8
Default
 62
255
 10
     1090.589729
 20
      990.146597
 30
       19.909333
  0
POINT
  8
Default
 62
255
 10
     1090.558633
 20
      989.927598
 30
       19.930905
  0
POINT
  8
Default
 62
255
 10
     1090.569497
 20
      990.109862
 30
       19.928156
  0
LINE
  8
Default
 62
255
 10
     1090.900239
 20
      988.045278
 30
       20.024089
 11
     1090.877126
 21
      988.129872
 31
       20.009286
  0
LINE
  8
Default
 62
255
 10
     1090.877126
 20
      988.129872
 30
       20.009286
 11
     1090.861008
 21
      988.200434
 31
       20.012757
  0
LINE
  8
Default
 62
255
 10
     1090.861008
 20
      988.200434
 30
       20.012757
 11
     1090.835276
 21
      988.252725
 31
       19.998162
  0
LINE
  8
Default
 62
255
 10
     1090.835276
 20
      988.252725
 30
       19.998162
 11
     1090.786489
 21
      988.306032
 31
       19.979974
  0
LINE
  8
Default
 62
255
 10
     1090.786489
 20
      988.306032
 30
       19.979974
 11
     1090.728852
 21
      988.429508
 31
       19.983454
  0
LINE
  8
Default
 62
255
 10
     1090.728852
 20
      988.429508
 30
       19.983454
 11
     1090.583597
 21
      988.492705
 31
       19.988571
  0
LINE
  8
Default
 62
255
 10
     1090.583597
 20
      988.492705
 30
       19.988571
 11
     1090.468824
 21
      988.476876
 31
       19.969441
  0
LINE
  8
Default
 62
255
 10
     1090.468824
 20
      988.476876
 30
       19.969441
 11
     1090.348573
 21
      988.600628
 31
       19.949844
  0
LINE
  8
Default
 62
255
 10
     1090.348573
 20
      988.600628
 30
       19.949844
 11
     1090.307440
 21
      988.603023
 31
       19.919919
  0
LINE
  8
Default
 62
255
 10
     1090.307440
 20
      988.603023
 30
       19.919919
 11
     1090.162667
 21
      988.749448
 31
       19.935319
  0
LINE
  8
Default
 62
255
 10
     1090.162667
 20
      988.749448
 30
       19.935319
 11
     1090.082834
 21
      988.790393
 31
       19.919623
  0
LINE
  8
Default
 62
255
 10
     1090.082834
 20
      988.790393
 30
       19.919623
 11
     1090.039545
 21
      988.879638
 31
       19.942392
  0
LINE
  8
Default
 62
255
 10
     1090.039545
 20
      988.879638
 30
       19.942392
 11
     1089.910110
 21
      988.984746
 31
       19.957293
  0
LINE
  8
Default
 62
255
 10
     1089.910110
 20
      988.984746
 30
       19.957293
 11
     1089.761077
 21
      989.020273
 31
       19.959432
  0
LINE
  8
Default
 62
255
 10
     1089.761077
 20
      989.020273
 30
       19.959432
 11
     1089.674559
 21
      989.052706
 31
       19.986372
  0
LINE
  8
Default
 62
255
 10
     1089.674559
 20
      989.052706
 30
       19.986372
 11
     1089.626001
 21
      989.053714
 31
       20.008833
  0
LINE
  8
Default
 62
255
 10
     1089.626001
 20
      989.053714
 30
       20.008833
 11
     1089.531389
 21
      989.024783
 31
       19.999486
  0
LINE
  8
Default
 62
255
 10
     1089.531389
 20
      989.024783
 30
       19.999486
 11
     1089.430158
 21
      988.989377
 31
       19.957374
  0
LINE
  8
Default
 62
255
 10
     1089.430158
 20
      988.989377
 30
       19.957374
 11
     1089.315466
 21
      988.937953
 31
       19.935169
  0
LINE
  8
Default
 62
255
 10
     1089.315466
 20
      988.937953
 30
       19.935169
 11
     1089.137437
 21
      988.818950
 31
       19.902927
  0
LINE
  8
Default
 62
255
 10
     1089.137437
 20
      988.818950
 30
       19.902927
 11
     1089.100858
 21
      988.946962
 31
       19.934174
  0
LINE
  8
Default
 62
255
 10
     1089.100858
 20
      988.946962
 30
       19.934174
 11
     1089.191192
 21
      989.029357
 31
       19.959012
  0
LINE
  8
Default
 62
255
 10
     1089.191192
 20
      989.029357
 30
       19.959012
 11
     1089.283938
 21
      989.163284
 31
       19.998133
  0
LINE
  8
Default
 62
255
 10
     1089.283938
 20
      989.163284
 30
       19.998133
 11
     1089.389801
 21
      989.349325
 31
       20.009702
  0
LINE
  8
Default
 62
255
 10
     1089.389801
 20
      989.349325
 30
       20.009702
 11
     1089.440440
 21
      989.442481
 31
       20.000339
  0
LINE
  8
Default
 62
255
 10
     1089.440440
 20
      989.442481
 30
       20.000339
 11
     1089.460111
 21
      989.659918
 31
       19.994739
  0
LINE
  8
Default
 62
255
 10
     1089.460111
 20
      989.659918
 30
       19.994739
 11
     1089.517875
 21
      989.750897
 31
       19.999027
  0
LINE
  8
Default
 62
255
 10
     1089.517875
 20
      989.750897
 30
       19.999027
 11
     1089.678224
 21
      989.968863
 31
       19.998784
  0
LINE
  8
Default
 62
255
 10
     1089.678224
 20
      989.968863
 30
       19.998784
 11
     1089.821009
 21
      990.013993
 31
       19.994309
  0
LINE
  8
Default
 62
255
 10
     1089.821009
 20
      990.013993
 30
       19.994309
 11
     1089.906445
 21
      990.067298
 31
       19.991879
  0
LINE
  8
Default
 62
255
 10
     1089.906445
 20
      990.067298
 30
       19.991879
 11
     1089.992541
 21
      990.121579
 31
       19.988420
  0
LINE
  8
Default
 62
255
 10
     1089.992541
 20
      990.121579
 30
       19.988420
 11
     1090.266430
 21
      990.257353
 31
       19.964551
  0
LINE
  8
Default
 62
255
 10
     1090.266430
 20
      990.257353
 30
       19.964551
 11
     1090.379746
 21
      990.274024
 31
       19.941502
  0
LINE
  8
Default
 62
255
 10
     1090.379746
 20
      990.274024
 30
       19.941502
 11
     1090.503473
 21
      990.180930
 31
       19.912029
  0
LINE
  8
Default
 62
255
 10
     1090.503473
 20
      990.180930
 30
       19.912029
 11
     1090.589729
 21
      990.146597
 31
       19.909333
  0
LINE
  8
Default
 62
255
 10
     1090.589729
 20
      990.146597
 30
       19.909333
 11
     1090.706671
 21
      990.098496
 31
       19.910246
  0
LINE
  8
Default
 62
255
 10
     1090.706671
 20
      990.098496
 30
       19.910246
 11
     1090.814431
 21
      990.055051
 31
       19.913956
  0
LINE
  8
Default
 62
255
 10
     1090.814431
 20
      990.055051
 30
       19.913956
 11
     1090.913101
 21
      990.008497
 31
       19.907848
  0
LINE
  8
Default
 62
255
 10
     1090.913101
 20
      990.008497
 30
       19.907848
 11
     1091.041247
 21
      989.909309
 31
       19.896674
  0
LINE
  8
Default
 62
255
 10
     1091.041247
 20
      989.909309
 30
       19.896674
 11
     1091.315190
 21
      989.681614
 31
       19.895283
  0
LINE
  8
Default
 62
255
 10
     1091.315190
 20
      989.681614
 30
       19.895283
 11
     1091.398581
 21
      989.618806
 31
       19.915002
  0
LINE
  8
Default
 62
255
 10
     1091.398581
 20
      989.618806
 30
       19.915002
 11
     1091.465894
 21
      989.542756
 31
       19.918964
  0
LINE
  8
Default
 62
255
 10
     1091.465894
 20
      989.542756
 30
       19.918964
 11
     1091.561626
 21
      989.471713
 31
       19.893339
  0
LINE
  8
Default
 62
255
 10
     1091.561626
 20
      989.471713
 30
       19.893339
 11
     1091.757607
 21
      989.358178
 31
       19.927206
  0
LINE
  8
Default
 62
255
 10
     1091.757607
 20
      989.358178
 30
       19.927206
 11
     1091.829081
 21
      989.320919
 31
       19.931740
  0
LINE
  8
Default
 62
255
 10
     1091.829081
 20
      989.320919
 30
       19.931740
 11
     1091.898470
 21
      989.312264
 31
       19.941390
  0
LINE
  8
Default
 62
255
 10
     1091.898470
 20
      989.312264
 30
       19.941390
 11
     1091.659518
 21
      989.010423
 31
       19.982877
  0
LINE
  8
Default
 62
255
 10
     1091.659518
 20
      989.010423
 30
       19.982877
 11
     1091.496486
 21
      988.774397
 31
       19.963696
  0
LINE
  8
Default
 62
255
 10
     1091.496486
 20
      988.774397
 30
       19.963696
 11
     1091.121673
 21
      988.360861
 31
       19.994138
  0
LINE
  8
Default
 62
255
 10
     1091.121673
 20
      988.360861
 30
       19.994138
 11
     1091.016540
 21
      988.188592
 31
       20.022439
  0
LINE
  8
Default
 62
255
 10
     1091.016540
 20
      988.188592
 30
       20.022439
 11
     1090.941089
 21
      988.088697
 31
       20.044340
  0
LINE
  8
Default
 62
255
 10
     1090.941089
 20
      988.088697
 30
       20.044340
 11
     1090.900239
 21
      988.045278
 31
       20.024089
  0
ENDSEC
  0
EOF
