  0
SECTION
  2
HEADER
  9
$PDMODE
 70
   34
  9
$PDSIZE
 40
   -3.0
  0
ENDSEC
  0
SECTION
  2
TABLES
  0
TABLE
  2
LTYPE
 70
 1
  0
LTYPE
  2
CONTINUOUS
  70
 64
  3
Solid line
  72
 65
 73
 0
  40
 0.0
  0
ENDTAB
  0
TABLE
  2
LAYER
 70
 1
 0
LAYER
  2
Default
  70
 0
 62
 7
  6
CONTINUOUS
  0
ENDTAB
  0 
ENDSEC
  0
SECTION
  2
ENTITIES
  0
POINT
  8
Default
 62
255
 10
     1093.588827
 20
     1001.763517
 30
       17.116616
  0
POINT
  8
Default
 62
255
 10
     1094.738333
 20
     1002.919171
 30
       16.884653
  0
POINT
  8
Default
 62
255
 10
     1096.442666
 20
     1002.310321
 30
       17.778135
  0
POINT
  8
Default
 62
255
 10
     1095.267174
 20
     1000.884991
 30
       18.139596
  0
POINT
  8
Default
 62
255
 10
     1094.835475
 20
     1002.189157
 30
       16.966089
  0
POINT
  8
Default
 62
255
 10
     1094.899754
 20
     1001.945168
 30
       17.040855
  0
POINT
  8
Default
 62
255
 10
     1093.607966
 20
     1001.635315
 30
       17.150269
  0
POINT
  8
Default
 62
255
 10
     1093.728229
 20
     1002.056048
 30
       17.011827
  0
POINT
  8
Default
 62
255
 10
     1094.035413
 20
     1001.854783
 30
       17.060386
  0
POINT
  8
Default
 62
255
 10
     1094.112086
 20
     1001.635714
 30
       17.087000
  0
POINT
  8
Default
 62
255
 10
     1094.002431
 20
     1001.435619
 30
       17.145916
  0
POINT
  8
Default
 62
255
 10
     1094.426930
 20
     1001.236876
 30
       17.195175
  0
POINT
  8
Default
 62
255
 10
     1094.699470
 20
     1001.484608
 30
       17.083737
  0
POINT
  8
Default
 62
255
 10
     1095.021010
 20
     1001.247320
 30
       17.230376
  0
POINT
  8
Default
 62
255
 10
     1095.365857
 20
     1001.501267
 30
       17.202132
  0
POINT
  8
Default
 62
255
 10
     1095.067472
 20
     1002.409199
 30
       16.903751
  0
POINT
  8
Default
 62
255
 10
     1095.623391
 20
     1002.157060
 30
       16.980910
  0
POINT
  8
Default
 62
255
 10
     1096.072636
 20
     1002.370556
 30
       16.944591
  0
POINT
  8
Default
 62
255
 10
     1095.432670
 20
     1002.580700
 30
       16.900200
  0
POINT
  8
Default
 62
255
 10
     1095.266076
 20
     1002.952091
 30
       16.870526
  0
POINT
  8
Default
 62
255
 10
     1095.014385
 20
     1003.151831
 30
       17.000331
  0
POINT
  8
Default
 62
255
 10
     1094.797910
 20
     1002.552457
 30
       16.880467
  0
POINT
  8
Default
 62
255
 10
     1094.280545
 20
     1002.722425
 30
       16.859332
  0
POINT
  8
Default
 62
255
 10
     1094.361285
 20
     1002.303997
 30
       16.871561
  0
POINT
  8
Default
 62
255
 10
     1093.503864
 20
     1001.625696
 30
       17.700984
  0
POINT
  8
Default
 62
255
 10
     1093.516422
 20
     1001.623650
 30
       17.663932
  0
POINT
  8
Default
 62
255
 10
     1093.524791
 20
     1001.624570
 30
       17.618698
  0
POINT
  8
Default
 62
255
 10
     1093.530726
 20
     1001.616041
 30
       17.590297
  0
POINT
  8
Default
 62
255
 10
     1093.537422
 20
     1001.609308
 30
       17.530691
  0
POINT
  8
Default
 62
255
 10
     1093.545347
 20
     1001.605377
 30
       17.492616
  0
POINT
  8
Default
 62
255
 10
     1093.553978
 20
     1001.618729
 30
       17.422711
  0
POINT
  8
Default
 62
255
 10
     1093.559262
 20
     1001.595320
 30
       17.389240
  0
POINT
  8
Default
 62
255
 10
     1093.570527
 20
     1001.588363
 30
       17.345316
  0
POINT
  8
Default
 62
255
 10
     1093.597715
 20
     1001.577337
 30
       17.310684
  0
POINT
  8
Default
 62
255
 10
     1093.636772
 20
     1001.562133
 30
       17.290796
  0
POINT
  8
Default
 62
255
 10
     1093.687044
 20
     1001.533775
 30
       17.266373
  0
POINT
  8
Default
 62
255
 10
     1093.715368
 20
     1001.503605
 30
       17.232077
  0
POINT
  8
Default
 62
255
 10
     1093.745887
 20
     1001.490883
 30
       17.194005
  0
POINT
  8
Default
 62
255
 10
     1093.766185
 20
     1001.519114
 30
       17.171665
  0
POINT
  8
Default
 62
255
 10
     1093.746211
 20
     1001.564991
 30
       17.148200
  0
POINT
  8
Default
 62
255
 10
     1093.712251
 20
     1001.589578
 30
       17.140362
  0
POINT
  8
Default
 62
255
 10
     1093.675985
 20
     1001.619193
 30
       17.140668
  0
POINT
  8
Default
 62
255
 10
     1093.660949
 20
     1001.661038
 30
       17.134482
  0
POINT
  8
Default
 62
255
 10
     1093.681723
 20
     1001.712756
 30
       17.121270
  0
POINT
  8
Default
 62
255
 10
     1093.717088
 20
     1001.743973
 30
       17.111931
  0
POINT
  8
Default
 62
255
 10
     1093.754504
 20
     1001.773740
 30
       17.085458
  0
POINT
  8
Default
 62
255
 10
     1093.795038
 20
     1001.797073
 30
       17.071696
  0
POINT
  8
Default
 62
255
 10
     1093.842524
 20
     1001.832350
 30
       17.066168
  0
POINT
  8
Default
 62
255
 10
     1093.864960
 20
     1001.864508
 30
       17.060456
  0
POINT
  8
Default
 62
255
 10
     1093.929013
 20
     1001.932854
 30
       17.042200
  0
POINT
  8
Default
 62
255
 10
     1093.966091
 20
     1001.961281
 30
       17.013440
  0
POINT
  8
Default
 62
255
 10
     1093.328965
 20
     1001.958397
 30
       17.755701
  0
POINT
  8
Default
 62
255
 10
     1093.338657
 20
     1001.946532
 30
       17.716470
  0
POINT
  8
Default
 62
255
 10
     1093.355586
 20
     1001.929279
 30
       17.662235
  0
POINT
  8
Default
 62
255
 10
     1093.363398
 20
     1001.919580
 30
       17.627973
  0
POINT
  8
Default
 62
255
 10
     1093.372929
 20
     1001.907909
 30
       17.576040
  0
POINT
  8
Default
 62
255
 10
     1093.385433
 20
     1001.898487
 30
       17.538706
  0
POINT
  8
Default
 62
255
 10
     1093.400024
 20
     1001.883508
 30
       17.482880
  0
POINT
  8
Default
 62
255
 10
     1093.407265
 20
     1001.871636
 30
       17.446360
  0
POINT
  8
Default
 62
255
 10
     1093.418848
 20
     1001.854777
 30
       17.390478
  0
POINT
  8
Default
 62
255
 10
     1093.423807
 20
     1001.848113
 30
       17.351489
  0
POINT
  8
Default
 62
255
 10
     1093.442007
 20
     1001.832332
 30
       17.301692
  0
POINT
  8
Default
 62
255
 10
     1093.458484
 20
     1001.819979
 30
       17.266062
  0
POINT
  8
Default
 62
255
 10
     1093.486263
 20
     1001.804682
 30
       17.217932
  0
POINT
  8
Default
 62
255
 10
     1093.502104
 20
     1001.791331
 30
       17.185434
  0
POINT
  8
Default
 62
255
 10
     1093.526458
 20
     1001.767627
 30
       17.139827
  0
POINT
  8
Default
 62
255
 10
     1093.588238
 20
     1001.821952
 30
       17.095024
  0
POINT
  8
Default
 62
255
 10
     1093.614391
 20
     1001.853144
 30
       17.083252
  0
POINT
  8
Default
 62
255
 10
     1093.664676
 20
     1001.843249
 30
       17.082294
  0
POINT
  8
Default
 62
255
 10
     1093.697566
 20
     1001.818527
 30
       17.087826
  0
POINT
  8
Default
 62
255
 10
     1093.772721
 20
     1001.747997
 30
       17.087566
  0
POINT
  8
Default
 62
255
 10
     1093.820771
 20
     1001.715243
 30
       17.096237
  0
POINT
  8
Default
 62
255
 10
     1093.857643
 20
     1001.690630
 30
       17.107772
  0
POINT
  8
Default
 62
255
 10
     1093.903007
 20
     1001.656471
 30
       17.116860
  0
POINT
  8
Default
 62
255
 10
     1093.936919
 20
     1001.629063
 30
       17.110107
  0
POINT
  8
Default
 62
255
 10
     1093.980857
 20
     1001.590428
 30
       17.101188
  0
POINT
  8
Default
 62
255
 10
     1094.015546
 20
     1001.565009
 30
       17.105027
  0
POINT
  8
Default
 62
255
 10
     1094.060336
 20
     1001.532097
 30
       17.118601
  0
POINT
  8
Default
 62
255
 10
     1094.093506
 20
     1001.508145
 30
       17.129279
  0
POINT
  8
Default
 62
255
 10
     1094.136866
 20
     1001.466333
 30
       17.131245
  0
POINT
  8
Default
 62
255
 10
     1094.170337
 20
     1001.433767
 30
       17.133018
  0
POINT
  8
Default
 62
255
 10
     1094.216879
 20
     1001.394485
 30
       17.144822
  0
POINT
  8
Default
 62
255
 10
     1094.247634
 20
     1001.366828
 30
       17.162887
  0
POINT
  8
Default
 62
255
 10
     1094.298444
 20
     1001.336027
 30
       17.172034
  0
POINT
  8
Default
 62
255
 10
     1094.335721
 20
     1001.317801
 30
       17.175775
  0
POINT
  8
Default
 62
255
 10
     1094.388068
 20
     1001.302517
 30
       17.179013
  0
POINT
  8
Default
 62
255
 10
     1094.431155
 20
     1001.290001
 30
       17.178313
  0
POINT
  8
Default
 62
255
 10
     1094.482570
 20
     1001.259397
 30
       17.183119
  0
POINT
  8
Default
 62
255
 10
     1094.511938
 20
     1001.232125
 30
       17.187680
  0
POINT
  8
Default
 62
255
 10
     1094.561164
 20
     1001.197214
 30
       17.196665
  0
POINT
  8
Default
 62
255
 10
     1094.597644
 20
     1001.181794
 30
       17.209407
  0
POINT
  8
Default
 62
255
 10
     1094.655310
 20
     1001.161632
 30
       17.227431
  0
POINT
  8
Default
 62
255
 10
     1094.692196
 20
     1001.149410
 30
       17.243479
  0
POINT
  8
Default
 62
255
 10
     1094.749613
 20
     1001.129777
 30
       17.248469
  0
POINT
  8
Default
 62
255
 10
     1094.790772
 20
     1001.116371
 30
       17.261428
  0
POINT
  8
Default
 62
255
 10
     1094.839065
 20
     1001.095144
 30
       17.287007
  0
POINT
  8
Default
 62
255
 10
     1094.870605
 20
     1001.088150
 30
       17.315233
  0
POINT
  8
Default
 62
255
 10
     1094.925270
 20
     1001.086457
 30
       17.329871
  0
POINT
  8
Default
 62
255
 10
     1094.948233
 20
     1001.077297
 30
       17.359481
  0
POINT
  8
Default
 62
255
 10
     1094.960591
 20
     1001.073396
 30
       17.418465
  0
POINT
  8
Default
 62
255
 10
     1094.987468
 20
     1001.073325
 30
       17.451230
  0
POINT
  8
Default
 62
255
 10
     1095.015577
 20
     1001.073421
 30
       17.501263
  0
POINT
  8
Default
 62
255
 10
     1095.029953
 20
     1001.069454
 30
       17.539752
  0
POINT
  8
Default
 62
255
 10
     1095.047290
 20
     1001.066031
 30
       17.595278
  0
POINT
  8
Default
 62
255
 10
     1095.061354
 20
     1001.058578
 30
       17.639375
  0
POINT
  8
Default
 62
255
 10
     1095.080440
 20
     1001.051181
 30
       17.693618
  0
POINT
  8
Default
 62
255
 10
     1095.100150
 20
     1001.051306
 30
       17.734632
  0
POINT
  8
Default
 62
255
 10
     1095.138223
 20
     1001.042642
 30
       17.779151
  0
POINT
  8
Default
 62
255
 10
     1095.159838
 20
     1001.039263
 30
       17.809062
  0
POINT
  8
Default
 62
255
 10
     1095.186253
 20
     1001.038710
 30
       17.856917
  0
POINT
  8
Default
 62
255
 10
     1095.205154
 20
     1001.037757
 30
       17.900004
  0
POINT
  8
Default
 62
255
 10
     1095.236399
 20
     1001.027300
 30
       17.949152
  0
POINT
  8
Default
 62
255
 10
     1095.253790
 20
     1001.025348
 30
       17.987706
  0
POINT
  8
Default
 62
255
 10
     1095.272844
 20
     1001.022051
 30
       18.040312
  0
POINT
  8
Default
 62
255
 10
     1095.287871
 20
     1001.018631
 30
       18.079307
  0
POINT
  8
Default
 62
255
 10
     1095.318793
 20
     1000.985391
 30
       18.113466
  0
POINT
  8
Default
 62
255
 10
     1095.347348
 20
     1000.967123
 30
       18.130776
  0
POINT
  8
Default
 62
255
 10
     1095.388237
 20
     1001.002330
 30
       18.130950
  0
POINT
  8
Default
 62
255
 10
     1095.405742
 20
     1001.042506
 30
       18.134925
  0
POINT
  8
Default
 62
255
 10
     1095.431100
 20
     1001.091565
 30
       18.118239
  0
POINT
  8
Default
 62
255
 10
     1095.457936
 20
     1001.121907
 30
       18.101421
  0
POINT
  8
Default
 62
255
 10
     1095.493493
 20
     1001.162742
 30
       18.080441
  0
POINT
  8
Default
 62
255
 10
     1095.516162
 20
     1001.193384
 30
       18.068306
  0
POINT
  8
Default
 62
255
 10
     1095.525437
 20
     1001.219967
 30
       18.019331
  0
POINT
  8
Default
 62
255
 10
     1095.522163
 20
     1001.217020
 30
       17.975390
  0
POINT
  8
Default
 62
255
 10
     1095.513422
 20
     1001.210343
 30
       17.915446
  0
POINT
  8
Default
 62
255
 10
     1095.507043
 20
     1001.205404
 30
       17.877816
  0
POINT
  8
Default
 62
255
 10
     1095.499490
 20
     1001.203248
 30
       17.817444
  0
POINT
  8
Default
 62
255
 10
     1095.485977
 20
     1001.198470
 30
       17.774509
  0
POINT
  8
Default
 62
255
 10
     1095.472570
 20
     1001.194866
 30
       17.717370
  0
POINT
  8
Default
 62
255
 10
     1095.461851
 20
     1001.194137
 30
       17.682007
  0
POINT
  8
Default
 62
255
 10
     1095.435725
 20
     1001.198173
 30
       17.626142
  0
POINT
  8
Default
 62
255
 10
     1095.416000
 20
     1001.205958
 30
       17.589892
  0
POINT
  8
Default
 62
255
 10
     1095.397543
 20
     1001.198753
 30
       17.531275
  0
POINT
  8
Default
 62
255
 10
     1095.378878
 20
     1001.205668
 30
       17.496847
  0
POINT
  8
Default
 62
255
 10
     1095.342314
 20
     1001.237650
 30
       17.457541
  0
POINT
  8
Default
 62
255
 10
     1095.322208
 20
     1001.267160
 30
       17.434225
  0
POINT
  8
Default
 62
255
 10
     1095.303251
 20
     1001.299348
 30
       17.393965
  0
POINT
  8
Default
 62
255
 10
     1095.286461
 20
     1001.319496
 30
       17.358866
  0
POINT
  8
Default
 62
255
 10
     1095.262794
 20
     1001.339090
 30
       17.309657
  0
POINT
  8
Default
 62
255
 10
     1095.239824
 20
     1001.359325
 30
       17.278806
  0
POINT
  8
Default
 62
255
 10
     1095.207168
 20
     1001.380826
 30
       17.235878
  0
POINT
  8
Default
 62
255
 10
     1095.187177
 20
     1001.408108
 30
       17.205874
  0
POINT
  8
Default
 62
255
 10
     1095.157593
 20
     1001.455533
 30
       17.183496
  0
POINT
  8
Default
 62
255
 10
     1095.135308
 20
     1001.485483
 30
       17.174406
  0
POINT
  8
Default
 62
255
 10
     1095.097650
 20
     1001.527399
 30
       17.158111
  0
POINT
  8
Default
 62
255
 10
     1093.905919
 20
     1002.098478
 30
       16.554326
  0
POINT
  8
Default
 62
255
 10
     1093.944397
 20
     1002.114364
 30
       16.548773
  0
POINT
  8
Default
 62
255
 10
     1093.995107
 20
     1002.113797
 30
       16.535946
  0
POINT
  8
Default
 62
255
 10
     1094.029657
 20
     1002.109181
 30
       16.506484
  0
POINT
  8
Default
 62
255
 10
     1094.066207
 20
     1002.118303
 30
       16.475786
  0
POINT
  8
Default
 62
255
 10
     1094.094642
 20
     1002.155143
 30
       16.495885
  0
POINT
  8
Default
 62
255
 10
     1094.127464
 20
     1002.181873
 30
       16.522980
  0
POINT
  8
Default
 62
255
 10
     1094.173585
 20
     1002.186346
 30
       16.531340
  0
POINT
  8
Default
 62
255
 10
     1094.218392
 20
     1002.179134
 30
       16.508254
  0
POINT
  8
Default
 62
255
 10
     1094.286528
 20
     1002.116246
 30
       16.679980
  0
POINT
  8
Default
 62
255
 10
     1094.308873
 20
     1002.124015
 30
       16.717475
  0
POINT
  8
Default
 62
255
 10
     1094.350691
 20
     1002.132225
 30
       16.744274
  0
POINT
  8
Default
 62
255
 10
     1094.455666
 20
     1002.091511
 30
       16.806698
  0
POINT
  8
Default
 62
255
 10
     1094.477295
 20
     1002.098607
 30
       16.843300
  0
POINT
  8
Default
 62
255
 10
     1094.476530
 20
     1002.141194
 30
       16.873352
  0
POINT
  8
Default
 62
255
 10
     1094.463857
 20
     1002.183898
 30
       16.886374
  0
POINT
  8
Default
 62
255
 10
     1094.473868
 20
     1002.228305
 30
       16.895384
  0
POINT
  8
Default
 62
255
 10
     1094.523864
 20
     1002.240493
 30
       16.882190
  0
POINT
  8
Default
 62
255
 10
     1094.563165
 20
     1002.256755
 30
       16.860807
  0
POINT
  8
Default
 62
255
 10
     1094.601520
 20
     1002.287867
 30
       16.846445
  0
POINT
  8
Default
 62
255
 10
     1094.644110
 20
     1002.313913
 30
       16.841715
  0
POINT
  8
Default
 62
255
 10
     1094.691298
 20
     1002.337635
 30
       16.840258
  0
POINT
  8
Default
 62
255
 10
     1094.731001
 20
     1002.364951
 30
       16.852454
  0
POINT
  8
Default
 62
255
 10
     1094.774051
 20
     1002.361848
 30
       16.878897
  0
POINT
  8
Default
 62
255
 10
     1094.798358
 20
     1002.324786
 30
       16.909436
  0
POINT
  8
Default
 62
255
 10
     1094.837828
 20
     1002.297794
 30
       16.918524
  0
POINT
  8
Default
 62
255
 10
     1094.884288
 20
     1002.270583
 30
       16.923288
  0
POINT
  8
Default
 62
255
 10
     1094.926896
 20
     1002.244360
 30
       16.929092
  0
POINT
  8
Default
 62
255
 10
     1094.959986
 20
     1002.216871
 30
       16.936627
  0
POINT
  8
Default
 62
255
 10
     1094.989032
 20
     1002.173375
 30
       16.957343
  0
POINT
  8
Default
 62
255
 10
     1095.001779
 20
     1002.126194
 30
       16.976623
  0
POINT
  8
Default
 62
255
 10
     1095.004323
 20
     1002.080025
 30
       16.996318
  0
POINT
  8
Default
 62
255
 10
     1095.021938
 20
     1002.032337
 30
       17.008105
  0
POINT
  8
Default
 62
255
 10
     1095.041343
 20
     1001.990484
 30
       17.025563
  0
POINT
  8
Default
 62
255
 10
     1095.072602
 20
     1001.947684
 30
       17.031016
  0
POINT
  8
Default
 62
255
 10
     1095.109381
 20
     1001.912280
 30
       17.034858
  0
POINT
  8
Default
 62
255
 10
     1095.145760
 20
     1001.881341
 30
       17.041300
  0
POINT
  8
Default
 62
255
 10
     1095.185360
 20
     1001.843077
 30
       17.054059
  0
POINT
  8
Default
 62
255
 10
     1095.224714
 20
     1001.817380
 30
       17.074914
  0
POINT
  8
Default
 62
255
 10
     1095.261927
 20
     1001.791114
 30
       17.094633
  0
POINT
  8
Default
 62
255
 10
     1095.303868
 20
     1001.764592
 30
       17.114433
  0
POINT
  8
Default
 62
255
 10
     1095.352661
 20
     1001.751304
 30
       17.116442
  0
POINT
  8
Default
 62
255
 10
     1095.395638
 20
     1001.723313
 30
       17.121359
  0
POINT
  8
Default
 62
255
 10
     1095.443433
 20
     1001.704153
 30
       17.134939
  0
POINT
  8
Default
 62
255
 10
     1095.487838
 20
     1001.679007
 30
       17.136287
  0
POINT
  8
Default
 62
255
 10
     1095.531735
 20
     1001.655241
 30
       17.146467
  0
POINT
  8
Default
 62
255
 10
     1095.562718
 20
     1001.629404
 30
       17.171654
  0
POINT
  8
Default
 62
255
 10
     1095.588256
 20
     1001.605548
 30
       17.210030
  0
POINT
  8
Default
 62
255
 10
     1095.605371
 20
     1001.578530
 30
       17.253621
  0
POINT
  8
Default
 62
255
 10
     1095.640374
 20
     1001.559825
 30
       17.290261
  0
POINT
  8
Default
 62
255
 10
     1095.678942
 20
     1001.551442
 30
       17.313970
  0
POINT
  8
Default
 62
255
 10
     1095.726943
 20
     1001.561887
 30
       17.339550
  0
POINT
  8
Default
 62
255
 10
     1095.758092
 20
     1001.561984
 30
       17.376639
  0
POINT
  8
Default
 62
255
 10
     1095.763956
 20
     1001.558913
 30
       17.424253
  0
POINT
  8
Default
 62
255
 10
     1095.775677
 20
     1001.616436
 30
       17.504452
  0
POINT
  8
Default
 62
255
 10
     1095.776622
 20
     1001.626491
 30
       17.552397
  0
POINT
  8
Default
 62
255
 10
     1095.787393
 20
     1001.616106
 30
       17.599058
  0
POINT
  8
Default
 62
255
 10
     1095.795019
 20
     1001.612733
 30
       17.650395
  0
POINT
  8
Default
 62
255
 10
     1095.806511
 20
     1001.611879
 30
       17.699887
  0
POINT
  8
Default
 62
255
 10
     1095.818616
 20
     1001.612733
 30
       17.747525
  0
POINT
  8
Default
 62
255
 10
     1095.827089
 20
     1001.618511
 30
       17.798885
  0
POINT
  8
Default
 62
255
 10
     1095.833741
 20
     1001.624322
 30
       17.850061
  0
POINT
  8
Default
 62
255
 10
     1095.840980
 20
     1001.631436
 30
       17.896198
  0
POINT
  8
Default
 62
255
 10
     1095.849886
 20
     1001.628380
 30
       17.946481
  0
POINT
  8
Default
 62
255
 10
     1095.867864
 20
     1001.586567
 30
       17.969420
  0
POINT
  8
Default
 62
255
 10
     1095.889184
 20
     1001.542268
 30
       17.979366
  0
POINT
  8
Default
 62
255
 10
     1094.638845
 20
     1003.628994
 30
       17.790800
  0
POINT
  8
Default
 62
255
 10
     1094.601695
 20
     1003.592173
 30
       17.776861
  0
POINT
  8
Default
 62
255
 10
     1094.566266
 20
     1003.558600
 30
       17.763372
  0
POINT
  8
Default
 62
255
 10
     1094.533162
 20
     1003.520025
 30
       17.759145
  0
POINT
  8
Default
 62
255
 10
     1094.495677
 20
     1003.483357
 30
       17.740150
  0
POINT
  8
Default
 62
255
 10
     1094.514111
 20
     1003.392546
 30
       17.633770
  0
POINT
  8
Default
 62
255
 10
     1094.529838
 20
     1003.357138
 30
       17.599253
  0
POINT
  8
Default
 62
255
 10
     1094.542148
 20
     1003.327608
 30
       17.562471
  0
POINT
  8
Default
 62
255
 10
     1094.550204
 20
     1003.308840
 30
       17.519829
  0
POINT
  8
Default
 62
255
 10
     1094.559078
 20
     1003.289937
 30
       17.469993
  0
POINT
  8
Default
 62
255
 10
     1094.567214
 20
     1003.270082
 30
       17.421663
  0
POINT
  8
Default
 62
255
 10
     1094.576460
 20
     1003.252017
 30
       17.379724
  0
POINT
  8
Default
 62
255
 10
     1094.586081
 20
     1003.230322
 30
       17.332415
  0
POINT
  8
Default
 62
255
 10
     1094.595519
 20
     1003.212375
 30
       17.291897
  0
POINT
  8
Default
 62
255
 10
     1094.600836
 20
     1003.203008
 30
       17.265017
  0
POINT
  8
Default
 62
255
 10
     1094.615204
 20
     1003.177927
 30
       17.215495
  0
POINT
  8
Default
 62
255
 10
     1094.627257
 20
     1003.154403
 30
       17.168604
  0
POINT
  8
Default
 62
255
 10
     1094.643593
 20
     1003.129810
 30
       17.124100
  0
POINT
  8
Default
 62
255
 10
     1094.654372
 20
     1003.108664
 30
       17.080668
  0
POINT
  8
Default
 62
255
 10
     1094.672851
 20
     1003.084039
 30
       17.041709
  0
POINT
  8
Default
 62
255
 10
     1094.690369
 20
     1003.055990
 30
       16.999347
  0
POINT
  8
Default
 62
255
 10
     1094.711803
 20
     1003.028492
 30
       16.965175
  0
POINT
  8
Default
 62
255
 10
     1094.735934
 20
     1003.003037
 30
       16.928393
  0
POINT
  8
Default
 62
255
 10
     1094.763309
 20
     1002.967417
 30
       16.901194
  0
POINT
  8
Default
 62
255
 10
     1094.796493
 20
     1002.933989
 30
       16.883966
  0
POINT
  8
Default
 62
255
 10
     1094.828533
 20
     1002.898515
 30
       16.871715
  0
POINT
  8
Default
 62
255
 10
     1094.865071
 20
     1002.862852
 30
       16.860369
  0
POINT
  8
Default
 62
255
 10
     1094.908250
 20
     1002.832420
 30
       16.851171
  0
POINT
  8
Default
 62
255
 10
     1094.953745
 20
     1002.805762
 30
       16.848841
  0
POINT
  8
Default
 62
255
 10
     1095.000198
 20
     1002.787960
 30
       16.851515
  0
POINT
  8
Default
 62
255
 10
     1095.059897
 20
     1002.716025
 30
       16.867564
  0
POINT
  8
Default
 62
255
 10
     1095.076466
 20
     1002.667135
 30
       16.880622
  0
POINT
  8
Default
 62
255
 10
     1094.823293
 20
     1003.580091
 30
       17.795421
  0
POINT
  8
Default
 62
255
 10
     1094.864868
 20
     1003.555595
 30
       17.798425
  0
POINT
  8
Default
 62
255
 10
     1094.911362
 20
     1003.528520
 30
       17.794406
  0
POINT
  8
Default
 62
255
 10
     1094.954896
 20
     1003.504401
 30
       17.795644
  0
POINT
  8
Default
 62
255
 10
     1094.999629
 20
     1003.480967
 30
       17.798643
  0
POINT
  8
Default
 62
255
 10
     1095.044358
 20
     1003.454126
 30
       17.796473
  0
POINT
  8
Default
 62
255
 10
     1095.083823
 20
     1003.424738
 30
       17.778405
  0
POINT
  8
Default
 62
255
 10
     1095.102193
 20
     1003.407626
 30
       17.730635
  0
POINT
  8
Default
 62
255
 10
     1095.110480
 20
     1003.390642
 30
       17.691811
  0
POINT
  8
Default
 62
255
 10
     1095.109403
 20
     1003.383474
 30
       17.644415
  0
POINT
  8
Default
 62
255
 10
     1095.106025
 20
     1003.376421
 30
       17.592335
  0
POINT
  8
Default
 62
255
 10
     1095.102448
 20
     1003.370220
 30
       17.543638
  0
POINT
  8
Default
 62
255
 10
     1095.097328
 20
     1003.362996
 30
       17.488368
  0
POINT
  8
Default
 62
255
 10
     1095.087613
 20
     1003.359515
 30
       17.433235
  0
POINT
  8
Default
 62
255
 10
     1095.079746
 20
     1003.353867
 30
       17.384784
  0
POINT
  8
Default
 62
255
 10
     1095.066160
 20
     1003.352603
 30
       17.337465
  0
POINT
  8
Default
 62
255
 10
     1095.054277
 20
     1003.346705
 30
       17.291175
  0
POINT
  8
Default
 62
255
 10
     1095.053020
 20
     1003.311539
 30
       17.202138
  0
POINT
  8
Default
 62
255
 10
     1095.053544
 20
     1003.286549
 30
       17.151033
  0
POINT
  8
Default
 62
255
 10
     1095.051011
 20
     1003.248503
 30
       17.103542
  0
POINT
  8
Default
 62
255
 10
     1095.495295
 20
     1003.206710
 30
       17.402802
  0
POINT
  8
Default
 62
255
 10
     1095.494004
 20
     1003.189150
 30
       17.344180
  0
POINT
  8
Default
 62
255
 10
     1095.487954
 20
     1003.132441
 30
       17.166398
  0
POINT
  8
Default
 62
255
 10
     1095.480625
 20
     1003.109414
 30
       17.104115
  0
POINT
  8
Default
 62
255
 10
     1095.481065
 20
     1003.089012
 30
       17.056148
  0
POINT
  8
Default
 62
255
 10
     1095.484626
 20
     1003.062807
 30
       16.990828
  0
POINT
  8
Default
 62
255
 10
     1095.487001
 20
     1003.033514
 30
       16.936313
  0
POINT
  8
Default
 62
255
 10
     1095.496542
 20
     1002.982781
 30
       16.896696
  0
POINT
  8
Default
 62
255
 10
     1095.414631
 20
     1002.966622
 30
       16.866620
  0
POINT
  8
Default
 62
255
 10
     1095.353369
 20
     1002.933987
 30
       16.853875
  0
POINT
  8
Default
 62
255
 10
     1095.331443
 20
     1002.881571
 30
       16.829458
  0
POINT
  8
Default
 62
255
 10
     1095.315401
 20
     1002.843336
 30
       16.834196
  0
POINT
  8
Default
 62
255
 10
     1095.253618
 20
     1002.803565
 30
       16.839508
  0
POINT
  8
Default
 62
255
 10
     1095.212027
 20
     1002.749310
 30
       16.855582
  0
POINT
  8
Default
 62
255
 10
     1095.170402
 20
     1002.708835
 30
       16.858716
  0
POINT
  8
Default
 62
255
 10
     1095.116433
 20
     1002.677197
 30
       16.874518
  0
POINT
  8
Default
 62
255
 10
     1095.703637
 20
     1002.384843
 30
       16.904883
  0
POINT
  8
Default
 62
255
 10
     1095.739411
 20
     1002.424587
 30
       16.896527
  0
POINT
  8
Default
 62
255
 10
     1095.740117
 20
     1002.467314
 30
       16.907541
  0
POINT
  8
Default
 62
255
 10
     1095.744385
 20
     1002.506513
 30
       16.884887
  0
POINT
  8
Default
 62
255
 10
     1095.771607
 20
     1002.467003
 30
       16.889914
  0
POINT
  8
Default
 62
255
 10
     1095.791062
 20
     1002.418394
 30
       16.892470
  0
POINT
  8
Default
 62
255
 10
     1095.824850
 20
     1002.380880
 30
       16.900502
  0
POINT
  8
Default
 62
255
 10
     1095.868545
 20
     1002.376995
 30
       16.907697
  0
POINT
  8
Default
 62
255
 10
     1095.920412
 20
     1002.391339
 30
       16.906374
  0
POINT
  8
Default
 62
255
 10
     1095.964695
 20
     1002.422846
 30
       16.910380
  0
POINT
  8
Default
 62
255
 10
     1095.991102
 20
     1002.464430
 30
       16.909462
  0
POINT
  8
Default
 62
255
 10
     1096.022015
 20
     1002.505783
 30
       16.912894
  0
POINT
  8
Default
 62
255
 10
     1096.052734
 20
     1002.553249
 30
       16.918962
  0
POINT
  8
Default
 62
255
 10
     1096.068436
 20
     1002.595918
 30
       16.932329
  0
POINT
  8
Default
 62
255
 10
     1096.037199
 20
     1002.609850
 30
       16.933469
  0
POINT
  8
Default
 62
255
 10
     1096.045128
 20
     1002.635850
 30
       16.931810
  0
POINT
  8
Default
 62
255
 10
     1096.087563
 20
     1002.624344
 30
       16.956831
  0
POINT
  8
Default
 62
255
 10
     1096.130298
 20
     1002.609970
 30
       16.985511
  0
POINT
  8
Default
 62
255
 10
     1096.165612
 20
     1002.604123
 30
       17.024932
  0
POINT
  8
Default
 62
255
 10
     1096.186445
 20
     1002.601945
 30
       17.060474
  0
POINT
  8
Default
 62
255
 10
     1096.207491
 20
     1002.606284
 30
       17.112995
  0
POINT
  8
Default
 62
255
 10
     1096.220380
 20
     1002.611626
 30
       17.158530
  0
POINT
  8
Default
 62
255
 10
     1096.237379
 20
     1002.620835
 30
       17.212528
  0
POINT
  8
Default
 62
255
 10
     1095.689705
 20
     1002.357924
 30
       16.913360
  0
POINT
  8
Default
 62
255
 10
     1095.737260
 20
     1002.343533
 30
       16.909422
  0
POINT
  8
Default
 62
255
 10
     1095.787606
 20
     1002.329194
 30
       16.914244
  0
POINT
  8
Default
 62
255
 10
     1095.833358
 20
     1002.311756
 30
       16.918191
  0
POINT
  8
Default
 62
255
 10
     1095.882768
 20
     1002.292602
 30
       16.925951
  0
POINT
  8
Default
 62
255
 10
     1095.924628
 20
     1002.269784
 30
       16.934478
  0
POINT
  8
Default
 62
255
 10
     1095.969736
 20
     1002.245825
 30
       16.952387
  0
POINT
  8
Default
 62
255
 10
     1096.013064
 20
     1002.222920
 30
       16.969118
  0
POINT
  8
Default
 62
255
 10
     1096.052571
 20
     1002.203679
 30
       16.988801
  0
POINT
  8
Default
 62
255
 10
     1096.093068
 20
     1002.188060
 30
       17.023346
  0
POINT
  8
Default
 62
255
 10
     1096.123451
 20
     1002.175727
 30
       17.059776
  0
POINT
  8
Default
 62
255
 10
     1096.155052
 20
     1002.181992
 30
       17.099716
  0
POINT
  8
Default
 62
255
 10
     1096.147198
 20
     1002.157776
 30
       17.110638
  0
POINT
  8
Default
 62
255
 10
     1096.118805
 20
     1002.123776
 30
       17.124237
  0
POINT
  8
Default
 62
255
 10
     1096.131049
 20
     1002.132915
 30
       17.164814
  0
POINT
  8
Default
 62
255
 10
     1096.163498
 20
     1002.151758
 30
       17.202277
  0
POINT
  8
Default
 62
255
 10
     1096.197182
 20
     1002.163745
 30
       17.231106
  0
POINT
  8
Default
 62
255
 10
     1096.226452
 20
     1002.175381
 30
       17.272464
  0
POINT
  8
Default
 62
255
 10
     1096.243693
 20
     1002.180167
 30
       17.317554
  0
POINT
  8
Default
 62
255
 10
     1096.253094
 20
     1002.190260
 30
       17.365934
  0
POINT
  8
Default
 62
255
 10
     1096.263807
 20
     1002.198883
 30
       17.413057
  0
POINT
  8
Default
 62
255
 10
     1096.275180
 20
     1002.211321
 30
       17.466249
  0
POINT
  8
Default
 62
255
 10
     1096.287234
 20
     1002.218376
 30
       17.510782
  0
POINT
  8
Default
 62
255
 10
     1096.295939
 20
     1002.229990
 30
       17.560136
  0
POINT
  8
Default
 62
255
 10
     1096.303806
 20
     1002.239238
 30
       17.611376
  0
POINT
  8
Default
 62
255
 10
     1096.314563
 20
     1002.246667
 30
       17.658365
  0
POINT
  8
Default
 62
255
 10
     1096.322030
 20
     1002.254669
 30
       17.708877
  0
POINT
  8
Default
 62
255
 10
     1094.189259
 20
     1002.219654
 30
       16.601645
  0
POINT
  8
Default
 62
255
 10
     1094.200272
 20
     1002.253379
 30
       16.670129
  0
POINT
  8
Default
 62
255
 10
     1094.205948
 20
     1002.275253
 30
       16.707810
  0
POINT
  8
Default
 62
255
 10
     1094.229314
 20
     1002.343773
 30
       16.838543
  0
POINT
  8
Default
 62
255
 10
     1094.267862
 20
     1002.369740
 30
       16.841229
  0
POINT
  8
Default
 62
255
 10
     1094.316436
 20
     1002.389250
 30
       16.837578
  0
POINT
  8
Default
 62
255
 10
     1094.372277
 20
     1002.394930
 30
       16.845256
  0
POINT
  8
Default
 62
255
 10
     1094.422459
 20
     1002.396724
 30
       16.860715
  0
POINT
  8
Default
 62
255
 10
     1094.470294
 20
     1002.402429
 30
       16.874108
  0
POINT
  8
Default
 62
255
 10
     1094.520315
 20
     1002.408814
 30
       16.885784
  0
POINT
  8
Default
 62
255
 10
     1094.565289
 20
     1002.415591
 30
       16.894166
  0
POINT
  8
Default
 62
255
 10
     1094.614201
 20
     1002.426088
 30
       16.895953
  0
POINT
  8
Default
 62
255
 10
     1094.660615
 20
     1002.431199
 30
       16.889552
  0
POINT
  8
Default
 62
255
 10
     1094.716216
 20
     1002.438206
 30
       16.881117
  0
POINT
  8
Default
 62
255
 10
     1094.769464
 20
     1002.444968
 30
       16.876438
  0
POINT
  8
Default
 62
255
 10
     1094.831422
 20
     1002.443519
 30
       16.878682
  0
POINT
  8
Default
 62
255
 10
     1094.878889
 20
     1002.438889
 30
       16.879719
  0
POINT
  8
Default
 62
255
 10
     1094.928536
 20
     1002.455259
 30
       16.882863
  0
POINT
  8
Default
 62
255
 10
     1094.960759
 20
     1002.482198
 30
       16.878889
  0
POINT
  8
Default
 62
255
 10
     1094.996259
 20
     1002.516002
 30
       16.876254
  0
POINT
  8
Default
 62
255
 10
     1095.030741
 20
     1002.553895
 30
       16.880957
  0
POINT
  8
Default
 62
255
 10
     1095.057700
 20
     1002.607095
 30
       16.887595
  0
POINT
  8
Default
 62
255
 10
     1094.111082
 20
     1001.882984
 30
       16.599156
  0
POINT
  8
Default
 62
255
 10
     1094.158231
 20
     1001.887040
 30
       16.596292
  0
POINT
  8
Default
 62
255
 10
     1094.200308
 20
     1001.884450
 30
       16.622557
  0
POINT
  8
Default
 62
255
 10
     1094.242127
 20
     1001.888316
 30
       16.649217
  0
POINT
  8
Default
 62
255
 10
     1094.272119
 20
     1001.892718
 30
       16.678221
  0
POINT
  8
Default
 62
255
 10
     1094.325049
 20
     1001.926799
 30
       16.818568
  0
POINT
  8
Default
 62
255
 10
     1094.348711
 20
     1001.931042
 30
       16.862696
  0
POINT
  8
Default
 62
255
 10
     1094.371083
 20
     1001.943646
 30
       16.910041
  0
POINT
  8
Default
 62
255
 10
     1094.392321
 20
     1001.948364
 30
       16.958031
  0
POINT
  8
Default
 62
255
 10
     1094.419312
 20
     1001.944826
 30
       16.990658
  0
POINT
  8
Default
 62
255
 10
     1094.462002
 20
     1001.915788
 30
       17.012760
  0
POINT
  8
Default
 62
255
 10
     1094.502506
 20
     1001.879390
 30
       17.013926
  0
POINT
  8
Default
 62
255
 10
     1094.544493
 20
     1001.847212
 30
       17.012575
  0
POINT
  8
Default
 62
255
 10
     1094.631972
 20
     1001.797714
 30
       17.021326
  0
POINT
  8
Default
 62
255
 10
     1094.663469
 20
     1001.774815
 30
       17.031410
  0
POINT
  8
Default
 62
255
 10
     1094.707026
 20
     1001.734636
 30
       17.041309
  0
POINT
  8
Default
 62
255
 10
     1094.580275
 20
     1000.976908
 30
       18.017675
  0
POINT
  8
Default
 62
255
 10
     1094.545869
 20
     1000.985496
 30
       18.056623
  0
POINT
  8
Default
 62
255
 10
     1094.505010
 20
     1000.993656
 30
       18.080293
  0
POINT
  8
Default
 62
255
 10
     1094.463402
 20
     1001.001069
 30
       18.102915
  0
POINT
  8
Default
 62
255
 10
     1094.418719
 20
     1001.009100
 30
       18.130959
  0
POINT
  8
Default
 62
255
 10
     1094.370003
 20
     1001.017511
 30
       18.136346
  0
POINT
  8
Default
 62
255
 10
     1094.324901
 20
     1001.031110
 30
       18.135447
  0
POINT
  8
Default
 62
255
 10
     1094.279244
 20
     1001.047965
 30
       18.127655
  0
POINT
  8
Default
 62
255
 10
     1094.232342
 20
     1001.063237
 30
       18.121109
  0
POINT
  8
Default
 62
255
 10
     1094.183226
 20
     1001.071349
 30
       18.128730
  0
POINT
  8
Default
 62
255
 10
     1094.136970
 20
     1001.076223
 30
       18.152886
  0
POINT
  8
Default
 62
255
 10
     1094.092899
 20
     1001.075756
 30
       18.173391
  0
POINT
  8
Default
 62
255
 10
     1094.046111
 20
     1001.081255
 30
       18.194235
  0
POINT
  8
Default
 62
255
 10
     1093.998586
 20
     1001.091250
 30
       18.203984
  0
POINT
  8
Default
 62
255
 10
     1093.977921
 20
     1001.125984
 30
       18.186318
  0
POINT
  8
Default
 62
255
 10
     1094.002934
 20
     1001.150889
 30
       18.154724
  0
POINT
  8
Default
 62
255
 10
     1094.025038
 20
     1001.168489
 30
       18.115111
  0
POINT
  8
Default
 62
255
 10
     1094.049675
 20
     1001.185944
 30
       18.070109
  0
POINT
  8
Default
 62
255
 10
     1094.057687
 20
     1001.181195
 30
       18.012310
  0
POINT
  8
Default
 62
255
 10
     1094.073535
 20
     1001.185701
 30
       17.960722
  0
POINT
  8
Default
 62
255
 10
     1094.084688
 20
     1001.191043
 30
       17.916963
  0
POINT
  8
Default
 62
255
 10
     1094.094992
 20
     1001.190545
 30
       17.863928
  0
POINT
  8
Default
 62
255
 10
     1094.105898
 20
     1001.190953
 30
       17.815959
  0
POINT
  8
Default
 62
255
 10
     1094.117079
 20
     1001.193384
 30
       17.766392
  0
POINT
  8
Default
 62
255
 10
     1094.128691
 20
     1001.194460
 30
       17.722805
  0
POINT
  8
Default
 62
255
 10
     1094.142489
 20
     1001.187721
 30
       17.671965
  0
POINT
  8
Default
 62
255
 10
     1094.156557
 20
     1001.183468
 30
       17.621791
  0
POINT
  8
Default
 62
255
 10
     1094.171189
 20
     1001.182375
 30
       17.568853
  0
POINT
  8
Default
 62
255
 10
     1094.181771
 20
     1001.177886
 30
       17.529493
  0
POINT
  8
Default
 62
255
 10
     1094.189076
 20
     1001.171572
 30
       17.489869
  0
POINT
  8
Default
 62
255
 10
     1094.197942
 20
     1001.170159
 30
       17.428206
  0
POINT
  8
Default
 62
255
 10
     1094.214100
 20
     1001.185946
 30
       17.384393
  0
POINT
  8
Default
 62
255
 10
     1094.229961
 20
     1001.192674
 30
       17.339399
  0
POINT
  8
Default
 62
255
 10
     1094.256748
 20
     1001.192513
 30
       17.300310
  0
POINT
  8
Default
 62
255
 10
     1094.295348
 20
     1001.193297
 30
       17.266061
  0
POINT
  8
Default
 62
255
 10
     1094.340456
 20
     1001.194211
 30
       17.239437
  0
POINT
  8
Default
 62
255
 10
     1094.389779
 20
     1001.196831
 30
       17.224850
  0
POINT
  8
Default
 62
255
 10
     1094.438983
 20
     1001.196894
 30
       17.219054
  0
POINT
  8
Default
 62
255
 10
     1094.484272
 20
     1001.216337
 30
       17.198264
  0
POINT
  8
Default
 62
255
 10
     1094.536184
 20
     1001.225512
 30
       17.188295
  0
POINT
  8
Default
 62
255
 10
     1094.587260
 20
     1001.242484
 30
       17.182644
  0
POINT
  8
Default
 62
255
 10
     1094.632127
 20
     1001.264029
 30
       17.179678
  0
POINT
  8
Default
 62
255
 10
     1094.641028
 20
     1001.304603
 30
       17.160224
  0
POINT
  8
Default
 62
255
 10
     1094.619889
 20
     1001.349974
 30
       17.142703
  0
POINT
  8
Default
 62
255
 10
     1094.609412
 20
     1001.393349
 30
       17.129223
  0
POINT
  8
Default
 62
255
 10
     1094.618822
 20
     1001.442873
 30
       17.115014
  0
POINT
  8
Default
 62
255
 10
     1094.650027
 20
     1001.476768
 30
       17.085680
  0
POINT
  8
Default
 62
255
 10
     1094.681746
 20
     1001.512870
 30
       17.073496
  0
POINT
  8
Default
 62
255
 10
     1094.720975
 20
     1001.543964
 30
       17.069265
  0
POINT
  8
Default
 62
255
 10
     1094.764251
 20
     1001.570288
 30
       17.060806
  0
POINT
  8
Default
 62
255
 10
     1094.804271
 20
     1001.593018
 30
       17.059322
  0
POINT
  8
Default
 62
255
 10
     1094.849443
 20
     1001.620159
 30
       17.063043
  0
POINT
  8
Default
 62
255
 10
     1094.895987
 20
     1001.643597
 30
       17.068999
  0
POINT
  8
Default
 62
255
 10
     1094.942227
 20
     1001.675015
 30
       17.082771
  0
POINT
  8
Default
 62
255
 10
     1094.988242
 20
     1001.701222
 30
       17.087126
  0
POINT
  8
Default
 62
255
 10
     1095.035672
 20
     1001.724801
 30
       17.091350
  0
POINT
  8
Default
 62
255
 10
     1095.077976
 20
     1001.747051
 30
       17.088331
  0
POINT
  8
Default
 62
255
 10
     1095.129196
 20
     1001.773024
 30
       17.078641
  0
POINT
  8
Default
 62
255
 10
     1095.169381
 20
     1001.795764
 30
       17.073547
  0
POINT
  8
Default
 62
255
 10
     1095.209052
 20
     1001.821552
 30
       17.068596
  0
POINT
  8
Default
 62
255
 10
     1095.257051
 20
     1001.852573
 30
       17.060907
  0
POINT
  8
Default
 62
255
 10
     1095.302495
 20
     1001.881362
 30
       17.051366
  0
POINT
  8
Default
 62
255
 10
     1095.350875
 20
     1001.904444
 30
       17.041712
  0
POINT
  8
Default
 62
255
 10
     1095.394978
 20
     1001.919661
 30
       17.035768
  0
POINT
  8
Default
 62
255
 10
     1095.380668
 20
     1001.959026
 30
       17.020726
  0
POINT
  8
Default
 62
255
 10
     1095.393395
 20
     1001.999698
 30
       17.005388
  0
POINT
  8
Default
 62
255
 10
     1095.426364
 20
     1002.043663
 30
       16.999230
  0
POINT
  8
Default
 62
255
 10
     1095.453016
 20
     1002.088574
 30
       16.989436
  0
POINT
  8
Default
 62
255
 10
     1095.482113
 20
     1002.131809
 30
       16.987907
  0
POINT
  8
Default
 62
255
 10
     1095.512023
 20
     1002.170169
 30
       16.995769
  0
POINT
  8
Default
 62
255
 10
     1095.540225
 20
     1002.207525
 30
       16.979102
  0
POINT
  8
Default
 62
255
 10
     1095.565329
 20
     1002.248706
 30
       16.958344
  0
POINT
  8
Default
 62
255
 10
     1095.586459
 20
     1002.287925
 30
       16.938791
  0
POINT
  8
Default
 62
255
 10
     1095.623349
 20
     1002.319837
 30
       16.930180
  0
POINT
  8
Default
 62
255
 10
     1095.665545
 20
     1002.351521
 30
       16.921331
  0
POINT
  8
Default
 62
255
 10
     1095.632027
 20
     1002.371990
 30
       16.920161
  0
POINT
  8
Default
 62
255
 10
     1095.581420
 20
     1002.383491
 30
       16.918172
  0
POINT
  8
Default
 62
255
 10
     1095.530298
 20
     1002.397909
 30
       16.916519
  0
POINT
  8
Default
 62
255
 10
     1095.481254
 20
     1002.414491
 30
       16.921952
  0
POINT
  8
Default
 62
255
 10
     1095.429262
 20
     1002.427492
 30
       16.919847
  0
POINT
  8
Default
 62
255
 10
     1095.381287
 20
     1002.442663
 30
       16.919132
  0
POINT
  8
Default
 62
255
 10
     1095.332548
 20
     1002.460243
 30
       16.918679
  0
POINT
  8
Default
 62
255
 10
     1095.284176
 20
     1002.480398
 30
       16.920837
  0
POINT
  8
Default
 62
255
 10
     1095.232139
 20
     1002.499499
 30
       16.919384
  0
POINT
  8
Default
 62
255
 10
     1095.183585
 20
     1002.519516
 30
       16.923819
  0
POINT
  8
Default
 62
255
 10
     1095.141158
 20
     1002.545338
 30
       16.928746
  0
POINT
  8
Default
 62
255
 10
     1095.104978
 20
     1002.588025
 30
       16.915306
  0
POINT
  8
Default
 62
255
 10
     1095.089033
 20
     1002.626009
 30
       16.893607
  0
POINT
  8
Default
 62
255
 10
     1094.049707
 20
     1001.880131
 30
       16.592910
  0
POINT
  8
Default
 62
255
 10
     1094.014192
 20
     1001.903524
 30
       16.596030
  0
POINT
  8
Default
 62
255
 10
     1093.979574
 20
     1001.934603
 30
       16.576395
  0
POINT
  8
Default
 62
255
 10
     1093.935283
 20
     1001.964385
 30
       16.578401
  0
POINT
  8
Default
 62
255
 10
     1093.906844
 20
     1001.994728
 30
       16.575559
  0
POINT
  8
Default
 62
255
 10
     1093.901668
 20
     1002.047934
 30
       16.564231
  0
POINT
  8
Default
 62
255
 10
     1094.030192
 20
     1001.940036
 30
       16.576051
  0
POINT
  8
Default
 62
255
 10
     1094.042842
 20
     1001.975979
 30
       16.544884
  0
POINT
  8
Default
 62
255
 10
     1094.061280
 20
     1002.008401
 30
       16.508225
  0
POINT
  8
Default
 62
255
 10
     1094.085689
 20
     1002.036366
 30
       16.480315
  0
POINT
  8
Default
 62
255
 10
     1094.118748
 20
     1002.076487
 30
       16.473497
  0
POINT
  8
Default
 62
255
 10
     1094.142702
 20
     1002.114754
 30
       16.482413
  0
POINT
  8
Default
 62
255
 10
     1094.162220
 20
     1002.146535
 30
       16.505086
  0
POINT
  8
Default
 62
255
 10
     1094.002984
 20
     1001.868326
 30
       16.631630
  0
POINT
  8
Default
 62
255
 10
     1093.996321
 20
     1001.953867
 30
       16.910093
  0
POINT
  8
Default
 62
255
 10
     1093.987437
 20
     1001.965425
 30
       16.965908
  0
POINT
  8
Default
 62
255
 10
     1093.538870
 20
     1001.662100
 30
       17.165965
  0
POINT
  8
Default
 62
255
 10
     1093.465450
 20
     1001.757118
 30
       17.332542
  0
POINT
  8
Default
 62
255
 10
     1093.382775
 20
     1001.773377
 30
       17.680919
  0
POINT
  8
Default
 62
255
 10
     1093.421892
 20
     1001.699298
 30
       17.525514
  0
POINT
  8
Default
 62
255
 10
     1093.399816
 20
     1001.720426
 30
       17.816066
  0
POINT
  8
Default
 62
255
 10
     1093.488171
 20
     1001.637101
 30
       17.793811
  0
POINT
  8
Default
 62
255
 10
     1093.418643
 20
     1001.622280
 30
       17.873284
  0
POINT
  8
Default
 62
255
 10
     1093.280180
 20
     1001.831761
 30
       17.883715
  0
POINT
  8
Default
 62
255
 10
     1093.323763
 20
     1001.819094
 30
       17.795301
  0
POINT
  8
Default
 62
255
 10
     1093.342503
 20
     1001.878878
 30
       17.742465
  0
POINT
  8
Default
 62
255
 10
     1093.455338
 20
     1001.644499
 30
       17.593704
  0
POINT
  8
Default
 62
255
 10
     1093.398758
 20
     1001.789179
 30
       17.517437
  0
POINT
  8
Default
 62
255
 10
     1093.361779
 20
     1001.730747
 30
       17.861630
  0
POINT
  8
Default
 62
255
 10
     1093.529240
 20
     1001.587523
 30
       17.932481
  0
POINT
  8
Default
 62
255
 10
     1093.655247
 20
     1001.502775
 30
       17.859024
  0
POINT
  8
Default
 62
255
 10
     1093.645609
 20
     1001.515682
 30
       17.675581
  0
POINT
  8
Default
 62
255
 10
     1093.554024
 20
     1001.577787
 30
       17.745624
  0
POINT
  8
Default
 62
255
 10
     1093.777784
 20
     1001.431093
 30
       17.909482
  0
POINT
  8
Default
 62
255
 10
     1093.692369
 20
     1001.484316
 30
       17.503940
  0
POINT
  8
Default
 62
255
 10
     1093.677447
 20
     1001.484355
 30
       17.982490
  0
POINT
  8
Default
 62
255
 10
     1093.928551
 20
     1001.303285
 30
       17.851046
  0
POINT
  8
Default
 62
255
 10
     1093.928496
 20
     1001.327204
 30
       18.067991
  0
POINT
  8
Default
 62
255
 10
     1093.872968
 20
     1001.333184
 30
       17.642222
  0
POINT
  8
Default
 62
255
 10
     1093.756597
 20
     1001.430279
 30
       17.558238
  0
POINT
  8
Default
 62
255
 10
     1093.919143
 20
     1001.362399
 30
       17.364177
  0
POINT
  8
Default
 62
255
 10
     1094.011982
 20
     1001.258680
 30
       17.690563
  0
POINT
  8
Default
 62
255
 10
     1094.107969
 20
     1001.191602
 30
       17.461856
  0
POINT
  8
Default
 62
255
 10
     1093.904773
 20
     1001.350895
 30
       17.234670
  0
POINT
  8
Default
 62
255
 10
     1094.214673
 20
     1001.279211
 30
       17.187142
  0
POINT
  8
Default
 62
255
 10
     1093.889284
 20
     1001.351228
 30
       17.492285
  0
POINT
  8
Default
 62
255
 10
     1094.034139
 20
     1001.234305
 30
       17.379447
  0
POINT
  8
Default
 62
255
 10
     1093.694725
 20
     1001.489160
 30
       17.407575
  0
POINT
  8
Default
 62
255
 10
     1093.809315
 20
     1001.436186
 30
       17.387024
  0
POINT
  8
Default
 62
255
 10
     1093.859622
 20
     1001.458387
 30
       17.168287
  0
POINT
  8
Default
 62
255
 10
     1093.876064
 20
     1001.584877
 30
       17.135611
  0
POINT
  8
Default
 62
255
 10
     1093.795410
 20
     1001.625727
 30
       17.121287
  0
POINT
  8
Default
 62
255
 10
     1094.123709
 20
     1001.362005
 30
       17.126204
  0
POINT
  8
Default
 62
255
 10
     1093.533454
 20
     1001.584346
 30
       18.048250
  0
POINT
  8
Default
 62
255
 10
     1093.664813
 20
     1001.496070
 30
       18.067617
  0
POINT
  8
Default
 62
255
 10
     1093.966334
 20
     1001.232103
 30
       18.144563
  0
POINT
  8
Default
 62
255
 10
     1094.011940
 20
     1001.240024
 30
       17.803504
  0
POINT
  8
Default
 62
255
 10
     1093.799347
 20
     1001.383439
 30
       17.988260
  0
POINT
  8
Default
 62
255
 10
     1094.000149
 20
     1001.255742
 30
       17.563869
  0
POINT
  8
Default
 62
255
 10
     1094.247081
 20
     1001.136088
 30
       18.022513
  0
POINT
  8
Default
 62
255
 10
     1094.371084
 20
     1001.047829
 30
       18.079884
  0
POINT
  8
Default
 62
255
 10
     1094.462476
 20
     1001.033605
 30
       18.054044
  0
POINT
  8
Default
 62
255
 10
     1094.571584
 20
     1000.973843
 30
       17.966716
  0
POINT
  8
Default
 62
255
 10
     1094.495764
 20
     1000.944685
 30
       18.208087
  0
POINT
  8
Default
 62
255
 10
     1094.377651
 20
     1000.968701
 30
       18.225975
  0
POINT
  8
Default
 62
255
 10
     1094.241270
 20
     1001.018619
 30
       18.178221
  0
POINT
  8
Default
 62
255
 10
     1094.220353
 20
     1001.091938
 30
       18.087469
  0
POINT
  8
Default
 62
255
 10
     1094.095167
 20
     1001.125653
 30
       18.098535
  0
POINT
  8
Default
 62
255
 10
     1094.171802
 20
     1001.150982
 30
       17.926994
  0
POINT
  8
Default
 62
255
 10
     1094.411314
 20
     1001.061457
 30
       17.737011
  0
POINT
  8
Default
 62
255
 10
     1094.262192
 20
     1001.138338
 30
       17.801147
  0
POINT
  8
Default
 62
255
 10
     1094.291976
 20
     1001.099732
 30
       17.587368
  0
POINT
  8
Default
 62
255
 10
     1094.442482
 20
     1001.052786
 30
       17.630252
  0
POINT
  8
Default
 62
255
 10
     1094.647725
 20
     1001.034164
 30
       17.369456
  0
POINT
  8
Default
 62
255
 10
     1094.383066
 20
     1001.096432
 30
       17.422723
  0
POINT
  8
Default
 62
255
 10
     1094.524928
 20
     1001.079786
 30
       17.296591
  0
POINT
  8
Default
 62
255
 10
     1094.656158
 20
     1001.107301
 30
       17.251680
  0
POINT
  8
Default
 62
255
 10
     1094.805076
 20
     1001.065366
 30
       17.316273
  0
POINT
  8
Default
 62
255
 10
     1094.378770
 20
     1001.136119
 30
       17.286591
  0
POINT
  8
Default
 62
255
 10
     1094.602488
 20
     1000.987815
 30
       17.501883
  0
POINT
  8
Default
 62
255
 10
     1094.494144
 20
     1000.963730
 30
       18.309309
  0
POINT
  8
Default
 62
255
 10
     1094.640416
 20
     1000.914230
 30
       18.272005
  0
POINT
  8
Default
 62
255
 10
     1094.666737
 20
     1000.920094
 30
       18.025240
  0
POINT
  8
Default
 62
255
 10
     1094.687992
 20
     1000.904584
 30
       18.000217
  0
POINT
  8
Default
 62
255
 10
     1094.715222
 20
     1000.886119
 30
       18.083796
  0
POINT
  8
Default
 62
255
 10
     1094.604771
 20
     1000.902329
 30
       18.102548
  0
POINT
  8
Default
 62
255
 10
     1094.775042
 20
     1000.817224
 30
       18.164962
  0
POINT
  8
Default
 62
255
 10
     1094.808148
 20
     1000.829448
 30
       18.112045
  0
POINT
  8
Default
 62
255
 10
     1094.804375
 20
     1000.839432
 30
       17.952634
  0
POINT
  8
Default
 62
255
 10
     1094.762462
 20
     1000.901917
 30
       17.852036
  0
POINT
  8
Default
 62
255
 10
     1094.726029
 20
     1000.869198
 30
       17.904764
  0
POINT
  8
Default
 62
255
 10
     1094.661961
 20
     1000.940342
 30
       17.887229
  0
POINT
  8
Default
 62
255
 10
     1094.741311
 20
     1000.992978
 30
       17.728484
  0
POINT
  8
Default
 62
255
 10
     1094.849064
 20
     1000.797549
 30
       18.219764
  0
POINT
  8
Default
 62
255
 10
     1095.078515
 20
     1000.808115
 30
       18.121951
  0
POINT
  8
Default
 62
255
 10
     1095.121181
 20
     1000.860381
 30
       18.105940
  0
POINT
  8
Default
 62
255
 10
     1095.157315
 20
     1000.955777
 30
       18.010645
  0
POINT
  8
Default
 62
255
 10
     1094.969587
 20
     1000.781563
 30
       18.074880
  0
POINT
  8
Default
 62
255
 10
     1095.004217
 20
     1000.770728
 30
       18.268581
  0
POINT
  8
Default
 62
255
 10
     1094.931651
 20
     1000.836090
 30
       17.990157
  0
POINT
  8
Default
 62
255
 10
     1095.032518
 20
     1000.906986
 30
       17.912021
  0
POINT
  8
Default
 62
255
 10
     1095.129808
 20
     1000.955078
 30
       17.918876
  0
POINT
  8
Default
 62
255
 10
     1094.906283
 20
     1000.927826
 30
       17.847204
  0
POINT
  8
Default
 62
255
 10
     1094.990418
 20
     1000.964197
 30
       17.774434
  0
POINT
  8
Default
 62
255
 10
     1095.072909
 20
     1001.000463
 30
       17.742071
  0
POINT
  8
Default
 62
255
 10
     1095.199322
 20
     1000.929656
 30
       18.127871
  0
POINT
  8
Default
 62
255
 10
     1095.273301
 20
     1000.983781
 30
       18.112092
  0
POINT
  8
Default
 62
255
 10
     1094.953320
 20
     1000.886859
 30
       17.907300
  0
POINT
  8
Default
 62
255
 10
     1094.845512
 20
     1000.870012
 30
       17.897062
  0
POINT
  8
Default
 62
255
 10
     1095.139543
 20
     1000.785434
 30
       18.193443
  0
POINT
  8
Default
 62
255
 10
     1095.192729
 20
     1000.843816
 30
       18.145972
  0
POINT
  8
Default
 62
255
 10
     1095.328359
 20
     1000.824528
 30
       18.191828
  0
POINT
  8
Default
 62
255
 10
     1095.399493
 20
     1000.895466
 30
       18.151874
  0
POINT
  8
Default
 62
255
 10
     1095.468226
 20
     1000.965681
 30
       18.166817
  0
POINT
  8
Default
 62
255
 10
     1095.055149
 20
     1000.866930
 30
       17.975426
  0
POINT
  8
Default
 62
255
 10
     1094.831571
 20
     1000.970396
 30
       17.757822
  0
POINT
  8
Default
 62
255
 10
     1094.872883
 20
     1000.999493
 30
       17.644781
  0
POINT
  8
Default
 62
255
 10
     1094.950417
 20
     1001.014288
 30
       17.628005
  0
POINT
  8
Default
 62
255
 10
     1094.930083
 20
     1001.028668
 30
       17.533368
  0
POINT
  8
Default
 62
255
 10
     1094.769179
 20
     1001.002578
 30
       17.509106
  0
POINT
  8
Default
 62
255
 10
     1094.645386
 20
     1000.955578
 30
       17.751505
  0
POINT
  8
Default
 62
255
 10
     1094.850191
 20
     1001.049948
 30
       17.466322
  0
POINT
  8
Default
 62
255
 10
     1094.712702
 20
     1000.975992
 30
       17.633458
  0
POINT
  8
Default
 62
255
 10
     1095.338018
 20
     1001.047398
 30
       18.103975
  0
POINT
  8
Default
 62
255
 10
     1095.362410
 20
     1001.132722
 30
       18.029564
  0
POINT
  8
Default
 62
255
 10
     1095.482271
 20
     1001.222153
 30
       18.053703
  0
POINT
  8
Default
 62
255
 10
     1095.427802
 20
     1001.151852
 30
       18.080005
  0
POINT
  8
Default
 62
255
 10
     1095.479505
 20
     1001.058814
 30
       18.144338
  0
POINT
  8
Default
 62
255
 10
     1095.553517
 20
     1001.104496
 30
       18.100135
  0
POINT
  8
Default
 62
255
 10
     1095.702302
 20
     1001.100411
 30
       18.121753
  0
POINT
  8
Default
 62
255
 10
     1095.630129
 20
     1000.996720
 30
       18.151345
  0
POINT
  8
Default
 62
255
 10
     1095.579749
 20
     1001.202837
 30
       18.044315
  0
POINT
  8
Default
 62
255
 10
     1095.606709
 20
     1001.292446
 30
       18.024477
  0
POINT
  8
Default
 62
255
 10
     1095.698909
 20
     1001.321747
 30
       18.026067
  0
POINT
  8
Default
 62
255
 10
     1095.671977
 20
     1001.170723
 30
       18.084931
  0
POINT
  8
Default
 62
255
 10
     1095.263335
 20
     1001.057016
 30
       17.919011
  0
POINT
  8
Default
 62
255
 10
     1095.410231
 20
     1001.168164
 30
       17.950406
  0
POINT
  8
Default
 62
255
 10
     1095.222114
 20
     1001.062815
 30
       17.759997
  0
POINT
  8
Default
 62
255
 10
     1095.137186
 20
     1001.083285
 30
       17.729831
  0
POINT
  8
Default
 62
255
 10
     1095.267568
 20
     1001.138161
 30
       17.636979
  0
POINT
  8
Default
 62
255
 10
     1095.370147
 20
     1001.177281
 30
       17.639701
  0
POINT
  8
Default
 62
255
 10
     1095.384037
 20
     1001.138436
 30
       17.761286
  0
POINT
  8
Default
 62
255
 10
     1095.341975
 20
     1001.064174
 30
       17.842404
  0
POINT
  8
Default
 62
255
 10
     1095.169685
 20
     1001.136501
 30
       17.621557
  0
POINT
  8
Default
 62
255
 10
     1095.167102
 20
     1001.172197
 30
       17.551953
  0
POINT
  8
Default
 62
255
 10
     1095.233771
 20
     1001.190647
 30
       17.487290
  0
POINT
  8
Default
 62
255
 10
     1095.277299
 20
     1001.237465
 30
       17.443641
  0
POINT
  8
Default
 62
255
 10
     1095.134032
 20
     1001.201614
 30
       17.401694
  0
POINT
  8
Default
 62
255
 10
     1095.168642
 20
     1001.249587
 30
       17.335275
  0
POINT
  8
Default
 62
255
 10
     1095.006888
 20
     1001.125554
 30
       17.340144
  0
POINT
  8
Default
 62
255
 10
     1095.012757
 20
     1001.403586
 30
       17.149648
  0
POINT
  8
Default
 62
255
 10
     1094.888746
 20
     1001.541135
 30
       17.086328
  0
POINT
  8
Default
 62
255
 10
     1094.823379
 20
     1001.429688
 30
       17.118816
  0
POINT
  8
Default
 62
255
 10
     1094.810830
 20
     1001.353097
 30
       17.150348
  0
POINT
  8
Default
 62
255
 10
     1094.871474
 20
     1001.209430
 30
       17.214168
  0
POINT
  8
Default
 62
255
 10
     1094.711564
 20
     1001.180737
 30
       17.223041
  0
POINT
  8
Default
 62
255
 10
     1094.724810
 20
     1001.322343
 30
       17.147719
  0
POINT
  8
Default
 62
255
 10
     1095.022276
 20
     1001.630932
 30
       17.094437
  0
POINT
  8
Default
 62
255
 10
     1095.138812
 20
     1001.612659
 30
       17.122286
  0
POINT
  8
Default
 62
255
 10
     1095.235395
 20
     1001.593996
 30
       17.147356
  0
POINT
  8
Default
 62
255
 10
     1095.192822
 20
     1001.699507
 30
       17.106404
  0
POINT
  8
Default
 62
255
 10
     1095.336459
 20
     1001.647820
 30
       17.145553
  0
POINT
  8
Default
 62
255
 10
     1095.264970
 20
     1001.418561
 30
       17.225849
  0
POINT
  8
Default
 62
255
 10
     1095.233552
 20
     1001.525432
 30
       17.179206
  0
POINT
  8
Default
 62
255
 10
     1095.462171
 20
     1001.543222
 30
       17.222208
  0
POINT
  8
Default
 62
255
 10
     1095.367648
 20
     1001.406334
 30
       17.301393
  0
POINT
  8
Default
 62
255
 10
     1095.542862
 20
     1001.575174
 30
       17.216358
  0
POINT
  8
Default
 62
255
 10
     1095.460929
 20
     1001.634782
 30
       17.158333
  0
POINT
  8
Default
 62
255
 10
     1095.377842
 20
     1001.340152
 30
       17.396989
  0
POINT
  8
Default
 62
255
 10
     1095.480955
 20
     1001.396644
 30
       17.398960
  0
POINT
  8
Default
 62
255
 10
     1095.487933
 20
     1001.464008
 30
       17.296717
  0
POINT
  8
Default
 62
255
 10
     1095.429599
 20
     1001.282695
 30
       17.545010
  0
POINT
  8
Default
 62
255
 10
     1095.471494
 20
     1001.373450
 30
       17.482802
  0
POINT
  8
Default
 62
255
 10
     1095.483310
 20
     1001.311923
 30
       17.554994
  0
POINT
  8
Default
 62
255
 10
     1095.567575
 20
     1001.354784
 30
       17.610279
  0
POINT
  8
Default
 62
255
 10
     1095.608643
 20
     1001.414802
 30
       17.534311
  0
POINT
  8
Default
 62
255
 10
     1095.677375
 20
     1001.448441
 30
       17.547628
  0
POINT
  8
Default
 62
255
 10
     1095.700446
 20
     1001.470550
 30
       17.405963
  0
POINT
  8
Default
 62
255
 10
     1095.620206
 20
     1001.473313
 30
       17.363418
  0
POINT
  8
Default
 62
255
 10
     1095.653213
 20
     1001.521604
 30
       17.333615
  0
POINT
  8
Default
 62
255
 10
     1095.609625
 20
     1001.409510
 30
       17.610583
  0
POINT
  8
Default
 62
255
 10
     1095.739093
 20
     1001.582012
 30
       17.554221
  0
POINT
  8
Default
 62
255
 10
     1095.760285
 20
     1001.564355
 30
       17.626407
  0
POINT
  8
Default
 62
255
 10
     1095.716297
 20
     1001.496670
 30
       17.591044
  0
POINT
  8
Default
 62
255
 10
     1095.806698
 20
     1001.553242
 30
       17.688506
  0
POINT
  8
Default
 62
255
 10
     1095.697549
 20
     1001.490730
 30
       17.741415
  0
POINT
  8
Default
 62
255
 10
     1095.515778
 20
     1001.214077
 30
       17.746669
  0
POINT
  8
Default
 62
255
 10
     1095.512327
 20
     1001.227088
 30
       17.666145
  0
POINT
  8
Default
 62
255
 10
     1095.556609
 20
     1001.291982
 30
       17.699487
  0
POINT
  8
Default
 62
255
 10
     1095.579926
 20
     1001.274901
 30
       17.771673
  0
POINT
  8
Default
 62
255
 10
     1095.625314
 20
     1001.309540
 30
       17.792173
  0
POINT
  8
Default
 62
255
 10
     1095.654727
 20
     1001.366406
 30
       17.721724
  0
POINT
  8
Default
 62
255
 10
     1095.675662
 20
     1001.435196
 30
       17.677657
  0
POINT
  8
Default
 62
255
 10
     1095.587907
 20
     1001.345855
 30
       17.684999
  0
POINT
  8
Default
 62
255
 10
     1095.674526
 20
     1001.345603
 30
       17.890219
  0
POINT
  8
Default
 62
255
 10
     1095.558164
 20
     1001.242486
 30
       17.929138
  0
POINT
  8
Default
 62
255
 10
     1095.616182
 20
     1001.288813
 30
       17.922925
  0
POINT
  8
Default
 62
255
 10
     1095.733452
 20
     1001.403772
 30
       17.880441
  0
POINT
  8
Default
 62
255
 10
     1095.778547
 20
     1001.496555
 30
       17.984819
  0
POINT
  8
Default
 62
255
 10
     1095.804004
 20
     1001.607852
 30
       17.942355
  0
POINT
  8
Default
 62
255
 10
     1095.711818
 20
     1001.448493
 30
       17.807500
  0
POINT
  8
Default
 62
255
 10
     1095.739127
 20
     1001.529516
 30
       17.787902
  0
POINT
  8
Default
 62
255
 10
     1095.761035
 20
     1001.504042
 30
       17.923989
  0
POINT
  8
Default
 62
255
 10
     1095.720796
 20
     1001.364568
 30
       17.935499
  0
POINT
  8
Default
 62
255
 10
     1095.772117
 20
     1001.374052
 30
       18.017588
  0
POINT
  8
Default
 62
255
 10
     1095.802636
 20
     1001.532859
 30
       17.964178
  0
POINT
  8
Default
 62
255
 10
     1095.303965
 20
     1001.809914
 30
       17.092258
  0
POINT
  8
Default
 62
255
 10
     1095.410207
 20
     1001.860908
 30
       17.055365
  0
POINT
  8
Default
 62
255
 10
     1095.534868
 20
     1001.845221
 30
       17.060934
  0
POINT
  8
Default
 62
255
 10
     1095.637826
 20
     1001.874782
 30
       17.062933
  0
POINT
  8
Default
 62
255
 10
     1095.533660
 20
     1001.739399
 30
       17.092038
  0
POINT
  8
Default
 62
255
 10
     1095.628979
 20
     1001.723638
 30
       17.138116
  0
POINT
  8
Default
 62
255
 10
     1095.710698
 20
     1001.745469
 30
       17.157804
  0
POINT
  8
Default
 62
255
 10
     1095.667928
 20
     1001.620267
 30
       17.255941
  0
POINT
  8
Default
 62
255
 10
     1095.762242
 20
     1001.682259
 30
       17.253917
  0
POINT
  8
Default
 62
255
 10
     1095.797794
 20
     1001.750101
 30
       17.198650
  0
POINT
  8
Default
 62
255
 10
     1095.821262
 20
     1001.847480
 30
       17.109395
  0
POINT
  8
Default
 62
255
 10
     1095.739878
 20
     1001.930104
 30
       17.036067
  0
POINT
  8
Default
 62
255
 10
     1095.652819
 20
     1001.959890
 30
       17.019298
  0
POINT
  8
Default
 62
255
 10
     1095.524750
 20
     1001.989366
 30
       17.009973
  0
POINT
  8
Default
 62
255
 10
     1095.624067
 20
     1002.064412
 30
       16.978577
  0
POINT
  8
Default
 62
255
 10
     1095.765675
 20
     1002.036968
 30
       16.999270
  0
POINT
  8
Default
 62
255
 10
     1095.905022
 20
     1001.991029
 30
       17.028010
  0
POINT
  8
Default
 62
255
 10
     1095.891703
 20
     1002.091564
 30
       16.981084
  0
POINT
  8
Default
 62
255
 10
     1095.785702
 20
     1002.157500
 30
       16.963147
  0
POINT
  8
Default
 62
255
 10
     1095.759705
 20
     1002.241650
 30
       16.939601
  0
POINT
  8
Default
 62
255
 10
     1095.642438
 20
     1002.240946
 30
       16.953636
  0
POINT
  8
Default
 62
255
 10
     1095.898630
 20
     1002.218356
 30
       16.942393
  0
POINT
  8
Default
 62
255
 10
     1095.998767
 20
     1002.152755
 30
       16.986229
  0
POINT
  8
Default
 62
255
 10
     1096.040827
 20
     1002.039659
 30
       17.097030
  0
POINT
  8
Default
 62
255
 10
     1096.078174
 20
     1002.099300
 30
       17.082883
  0
POINT
  8
Default
 62
255
 10
     1095.780274
 20
     1001.618586
 30
       17.390421
  0
POINT
  8
Default
 62
255
 10
     1095.811819
 20
     1001.688499
 30
       17.398857
  0
POINT
  8
Default
 62
255
 10
     1095.842685
 20
     1001.757201
 30
       17.470550
  0
POINT
  8
Default
 62
255
 10
     1095.890955
 20
     1001.831761
 30
       17.403375
  0
POINT
  8
Default
 62
255
 10
     1095.982152
 20
     1001.875386
 30
       17.419211
  0
POINT
  8
Default
 62
255
 10
     1096.077292
 20
     1002.054882
 30
       17.202774
  0
POINT
  8
Default
 62
255
 10
     1096.114091
 20
     1002.055055
 30
       17.293982
  0
POINT
  8
Default
 62
255
 10
     1096.184601
 20
     1002.100380
 30
       17.327976
  0
POINT
  8
Default
 62
255
 10
     1095.855320
 20
     1001.788571
 30
       17.309022
  0
POINT
  8
Default
 62
255
 10
     1095.943211
 20
     1001.885818
 30
       17.224270
  0
POINT
  8
Default
 62
255
 10
     1096.015580
 20
     1001.942491
 30
       17.255394
  0
POINT
  8
Default
 62
255
 10
     1096.065428
 20
     1001.987510
 30
       17.350517
  0
POINT
  8
Default
 62
255
 10
     1096.062423
 20
     1001.955710
 30
       17.481214
  0
POINT
  8
Default
 62
255
 10
     1096.068232
 20
     1001.869492
 30
       17.647628
  0
POINT
  8
Default
 62
255
 10
     1096.143181
 20
     1001.944698
 30
       17.547734
  0
POINT
  8
Default
 62
255
 10
     1095.810792
 20
     1001.663676
 30
       17.569156
  0
POINT
  8
Default
 62
255
 10
     1095.851860
 20
     1001.718023
 30
       17.620758
  0
POINT
  8
Default
 62
255
 10
     1095.889904
 20
     1001.783209
 30
       17.640675
  0
POINT
  8
Default
 62
255
 10
     1096.029429
 20
     1001.882480
 30
       17.497060
  0
POINT
  8
Default
 62
255
 10
     1095.934887
 20
     1001.770927
 30
       17.687359
  0
POINT
  8
Default
 62
255
 10
     1095.863949
 20
     1001.770184
 30
       17.549844
  0
POINT
  8
Default
 62
255
 10
     1095.963349
 20
     1001.874811
 30
       17.525210
  0
POINT
  8
Default
 62
255
 10
     1096.178637
 20
     1001.995085
 30
       17.554143
  0
POINT
  8
Default
 62
255
 10
     1096.201103
 20
     1002.082679
 30
       17.520696
  0
POINT
  8
Default
 62
255
 10
     1096.250200
 20
     1002.133715
 30
       17.525935
  0
POINT
  8
Default
 62
255
 10
     1096.270178
 20
     1002.192150
 30
       17.650971
  0
POINT
  8
Default
 62
255
 10
     1096.087693
 20
     1001.889437
 30
       17.690230
  0
POINT
  8
Default
 62
255
 10
     1095.963055
 20
     1001.778355
 30
       17.857513
  0
POINT
  8
Default
 62
255
 10
     1096.181758
 20
     1002.084368
 30
       17.702297
  0
POINT
  8
Default
 62
255
 10
     1096.310612
 20
     1002.191704
 30
       17.785939
  0
POINT
  8
Default
 62
255
 10
     1096.308024
 20
     1002.231788
 30
       17.720106
  0
POINT
  8
Default
 62
255
 10
     1096.217709
 20
     1002.119353
 30
       17.830072
  0
POINT
  8
Default
 62
255
 10
     1096.195193
 20
     1002.052252
 30
       17.835067
  0
POINT
  8
Default
 62
255
 10
     1096.120334
 20
     1001.955624
 30
       17.816297
  0
POINT
  8
Default
 62
255
 10
     1096.099244
 20
     1001.862354
 30
       17.842086
  0
POINT
  8
Default
 62
255
 10
     1096.014137
 20
     1001.764960
 30
       17.885006
  0
POINT
  8
Default
 62
255
 10
     1096.119176
 20
     1002.005704
 30
       17.848860
  0
POINT
  8
Default
 62
255
 10
     1095.853036
 20
     1001.730607
 30
       17.803330
  0
POINT
  8
Default
 62
255
 10
     1095.902550
 20
     1001.666098
 30
       17.934769
  0
POINT
  8
Default
 62
255
 10
     1096.019802
 20
     1002.264061
 30
       16.960227
  0
POINT
  8
Default
 62
255
 10
     1096.106865
 20
     1002.466502
 30
       16.948201
  0
POINT
  8
Default
 62
255
 10
     1096.163473
 20
     1002.557141
 30
       16.977283
  0
POINT
  8
Default
 62
255
 10
     1096.208535
 20
     1002.374659
 30
       17.027109
  0
POINT
  8
Default
 62
255
 10
     1096.164793
 20
     1002.239705
 30
       17.050570
  0
POINT
  8
Default
 62
255
 10
     1096.257321
 20
     1002.311248
 30
       17.132006
  0
POINT
  8
Default
 62
255
 10
     1096.313225
 20
     1002.362915
 30
       17.201410
  0
POINT
  8
Default
 62
255
 10
     1096.290048
 20
     1002.406164
 30
       17.120245
  0
POINT
  8
Default
 62
255
 10
     1096.289610
 20
     1002.500864
 30
       17.113448
  0
POINT
  8
Default
 62
255
 10
     1096.222149
 20
     1002.553590
 30
       17.031477
  0
POINT
  8
Default
 62
255
 10
     1096.223539
 20
     1002.443922
 30
       17.023790
  0
POINT
  8
Default
 62
255
 10
     1096.213304
 20
     1002.228426
 30
       17.166848
  0
POINT
  8
Default
 62
255
 10
     1096.274075
 20
     1002.278017
 30
       17.210314
  0
POINT
  8
Default
 62
255
 10
     1096.284829
 20
     1002.234200
 30
       17.301389
  0
POINT
  8
Default
 62
255
 10
     1096.350105
 20
     1002.308054
 30
       17.332066
  0
POINT
  8
Default
 62
255
 10
     1096.369556
 20
     1002.442504
 30
       17.272961
  0
POINT
  8
Default
 62
255
 10
     1096.393863
 20
     1002.471255
 30
       17.352313
  0
POINT
  8
Default
 62
255
 10
     1096.346566
 20
     1002.537779
 30
       17.243965
  0
POINT
  8
Default
 62
255
 10
     1096.321470
 20
     1002.437307
 30
       17.184945
  0
POINT
  8
Default
 62
255
 10
     1096.327512
 20
     1002.671930
 30
       17.318291
  0
POINT
  8
Default
 62
255
 10
     1096.401673
 20
     1002.592685
 30
       17.362394
  0
POINT
  8
Default
 62
255
 10
     1096.338538
 20
     1002.263499
 30
       17.494649
  0
POINT
  8
Default
 62
255
 10
     1096.341075
 20
     1002.345202
 30
       17.539905
  0
POINT
  8
Default
 62
255
 10
     1096.347652
 20
     1002.307832
 30
       17.639850
  0
POINT
  8
Default
 62
255
 10
     1096.418576
 20
     1002.625134
 30
       17.556346
  0
POINT
  8
Default
 62
255
 10
     1096.433930
 20
     1002.555611
 30
       17.582926
  0
POINT
  8
Default
 62
255
 10
     1096.425685
 20
     1002.484407
 30
       17.585149
  0
POINT
  8
Default
 62
255
 10
     1096.372334
 20
     1002.377311
 30
       17.675090
  0
POINT
  8
Default
 62
255
 10
     1096.373509
 20
     1002.390436
 30
       17.582152
  0
POINT
  8
Default
 62
255
 10
     1096.436202
 20
     1002.631145
 30
       17.439468
  0
POINT
  8
Default
 62
255
 10
     1096.375985
 20
     1002.746071
 30
       17.545437
  0
POINT
  8
Default
 62
255
 10
     1096.456962
 20
     1002.610344
 30
       17.630121
  0
POINT
  8
Default
 62
255
 10
     1096.422735
 20
     1002.488768
 30
       17.730399
  0
POINT
  8
Default
 62
255
 10
     1096.364331
 20
     1002.307362
 30
       17.768048
  0
POINT
  8
Default
 62
255
 10
     1096.350310
 20
     1002.608131
 30
       17.281311
  0
POINT
  8
Default
 62
255
 10
     1096.469304
 20
     1002.558053
 30
       17.759878
  0
POINT
  8
Default
 62
255
 10
     1096.450649
 20
     1002.658731
 30
       17.673487
  0
POINT
  8
Default
 62
255
 10
     1096.482332
 20
     1002.591386
 30
       17.688957
  0
POINT
  8
Default
 62
255
 10
     1096.432840
 20
     1002.391798
 30
       17.812861
  0
POINT
  8
Default
 62
255
 10
     1096.537746
 20
     1002.227452
 30
       17.791615
  0
POINT
  8
Default
 62
255
 10
     1096.414426
 20
     1002.250752
 30
       17.772812
  0
POINT
  8
Default
 62
255
 10
     1096.602149
 20
     1002.168783
 30
       17.805945
  0
POINT
  8
Default
 62
255
 10
     1096.648042
 20
     1002.151466
 30
       17.833520
  0
POINT
  8
Default
 62
255
 10
     1096.688102
 20
     1002.139218
 30
       17.859454
  0
POINT
  8
Default
 62
255
 10
     1096.701444
 20
     1002.099323
 30
       17.871338
  0
POINT
  8
Default
 62
255
 10
     1096.668748
 20
     1002.069383
 30
       17.858745
  0
POINT
  8
Default
 62
255
 10
     1096.637383
 20
     1002.094972
 30
       17.843167
  0
POINT
  8
Default
 62
255
 10
     1096.604528
 20
     1002.123297
 30
       17.828459
  0
POINT
  8
Default
 62
255
 10
     1096.557546
 20
     1002.122785
 30
       17.820900
  0
POINT
  8
Default
 62
255
 10
     1096.510195
 20
     1002.115750
 30
       17.815369
  0
POINT
  8
Default
 62
255
 10
     1096.456724
 20
     1002.133264
 30
       17.813063
  0
POINT
  8
Default
 62
255
 10
     1096.409792
 20
     1002.140068
 30
       17.807879
  0
POINT
  8
Default
 62
255
 10
     1096.365258
 20
     1002.127779
 30
       17.826486
  0
POINT
  8
Default
 62
255
 10
     1096.323474
 20
     1002.096526
 30
       17.845319
  0
POINT
  8
Default
 62
255
 10
     1096.290527
 20
     1002.059237
 30
       17.854396
  0
POINT
  8
Default
 62
255
 10
     1096.254457
 20
     1002.022115
 30
       17.871835
  0
POINT
  8
Default
 62
255
 10
     1096.220375
 20
     1001.981480
 30
       17.872405
  0
POINT
  8
Default
 62
255
 10
     1096.193154
 20
     1001.939677
 30
       17.875031
  0
POINT
  8
Default
 62
255
 10
     1096.172990
 20
     1001.891651
 30
       17.880887
  0
POINT
  8
Default
 62
255
 10
     1096.157833
 20
     1001.838281
 30
       17.883948
  0
POINT
  8
Default
 62
255
 10
     1096.140495
 20
     1001.791169
 30
       17.892234
  0
POINT
  8
Default
 62
255
 10
     1096.125903
 20
     1001.741169
 30
       17.910904
  0
POINT
  8
Default
 62
255
 10
     1096.119156
 20
     1001.693614
 30
       17.933011
  0
POINT
  8
Default
 62
255
 10
     1096.114866
 20
     1001.648624
 30
       17.953597
  0
POINT
  8
Default
 62
255
 10
     1096.102209
 20
     1001.600349
 30
       17.961412
  0
POINT
  8
Default
 62
255
 10
     1096.087168
 20
     1001.546010
 30
       17.961824
  0
POINT
  8
Default
 62
255
 10
     1096.070058
 20
     1001.501833
 30
       17.975009
  0
POINT
  8
Default
 62
255
 10
     1095.979714
 20
     1001.637773
 30
       17.949592
  0
POINT
  8
Default
 62
255
 10
     1096.026508
 20
     1001.628442
 30
       17.950889
  0
POINT
  8
Default
 62
255
 10
     1096.079465
 20
     1001.627066
 30
       17.963177
  0
POINT
  8
Default
 62
255
 10
     1096.127092
 20
     1001.627420
 30
       17.961839
  0
POINT
  8
Default
 62
255
 10
     1096.180711
 20
     1001.620453
 30
       17.959674
  0
POINT
  8
Default
 62
255
 10
     1096.230444
 20
     1001.616992
 30
       17.970945
  0
POINT
  8
Default
 62
255
 10
     1096.280976
 20
     1001.611681
 30
       17.967750
  0
POINT
  8
Default
 62
255
 10
     1096.329859
 20
     1001.608383
 30
       17.958075
  0
POINT
  8
Default
 62
255
 10
     1096.380943
 20
     1001.606284
 30
       17.953643
  0
POINT
  8
Default
 62
255
 10
     1096.432749
 20
     1001.603565
 30
       17.950226
  0
POINT
  8
Default
 62
255
 10
     1096.482048
 20
     1001.608676
 30
       17.954110
  0
POINT
  8
Default
 62
255
 10
     1096.532114
 20
     1001.621029
 30
       17.969872
  0
POINT
  8
Default
 62
255
 10
     1096.576125
 20
     1001.635505
 30
       17.987881
  0
POINT
  8
Default
 62
255
 10
     1096.616577
 20
     1001.662331
 30
       18.005737
  0
POINT
  8
Default
 62
255
 10
     1096.640930
 20
     1001.690834
 30
       18.033545
  0
POINT
  8
Default
 62
255
 10
     1096.669285
 20
     1001.702728
 30
       18.076674
  0
POINT
  8
Default
 62
255
 10
     1096.699201
 20
     1001.675770
 30
       18.099055
  0
POINT
  8
Default
 62
255
 10
     1096.739421
 20
     1001.654719
 30
       18.117538
  0
POINT
  8
Default
 62
255
 10
     1096.785791
 20
     1001.676086
 30
       18.126289
  0
POINT
  8
Default
 62
255
 10
     1096.809842
 20
     1001.720636
 30
       18.115151
  0
POINT
  8
Default
 62
255
 10
     1096.806198
 20
     1001.765290
 30
       18.094174
  0
POINT
  8
Default
 62
255
 10
     1096.795648
 20
     1001.812352
 30
       18.080002
  0
POINT
  8
Default
 62
255
 10
     1096.781773
 20
     1001.859156
 30
       18.057029
  0
POINT
  8
Default
 62
255
 10
     1096.762342
 20
     1001.906212
 30
       18.023659
  0
POINT
  8
Default
 62
255
 10
     1096.754548
 20
     1001.936671
 30
       17.985198
  0
POINT
  8
Default
 62
255
 10
     1096.742357
 20
     1001.970044
 30
       17.948487
  0
POINT
  8
Default
 62
255
 10
     1096.755137
 20
     1002.009325
 30
       17.928811
  0
POINT
  8
Default
 62
255
 10
     1096.750968
 20
     1001.987562
 30
       17.933291
  0
POINT
  8
Default
 62
255
 10
     1096.707564
 20
     1001.969255
 30
       17.909389
  0
POINT
  8
Default
 62
255
 10
     1096.669402
 20
     1001.943240
 30
       17.894504
  0
POINT
  8
Default
 62
255
 10
     1096.627929
 20
     1001.913480
 30
       17.888898
  0
POINT
  8
Default
 62
255
 10
     1096.579994
 20
     1001.883566
 30
       17.891331
  0
POINT
  8
Default
 62
255
 10
     1096.542085
 20
     1001.858880
 30
       17.894018
  0
POINT
  8
Default
 62
255
 10
     1096.501793
 20
     1001.824058
 30
       17.907434
  0
POINT
  8
Default
 62
255
 10
     1096.470638
 20
     1001.784321
 30
       17.918115
  0
POINT
  8
Default
 62
255
 10
     1096.444611
 20
     1001.742227
 30
       17.929335
  0
POINT
  8
Default
 62
255
 10
     1096.439078
 20
     1001.690357
 30
       17.942838
  0
POINT
  8
Default
 62
255
 10
     1096.437636
 20
     1001.638695
 30
       17.949760
  0
POINT
  8
Default
 62
255
 10
     1096.447918
 20
     1001.591074
 30
       17.952313
  0
POINT
  8
Default
 62
255
 10
     1096.453355
 20
     1001.546480
 30
       17.972363
  0
POINT
  8
Default
 62
255
 10
     1096.460691
 20
     1001.499049
 30
       17.989145
  0
POINT
  8
Default
 62
255
 10
     1096.477975
 20
     1001.459473
 30
       18.005970
  0
POINT
  8
Default
 62
255
 10
     1096.478151
 20
     1001.414419
 30
       18.030720
  0
POINT
  8
Default
 62
255
 10
     1096.442693
 20
     1001.376345
 30
       18.039182
  0
POINT
  8
Default
 62
255
 10
     1096.399710
 20
     1001.365409
 30
       18.040299
  0
POINT
  8
Default
 62
255
 10
     1096.353127
 20
     1001.352362
 30
       18.030661
  0
POINT
  8
Default
 62
255
 10
     1096.311263
 20
     1001.324042
 30
       18.042754
  0
POINT
  8
Default
 62
255
 10
     1096.270896
 20
     1001.299708
 30
       18.057798
  0
POINT
  8
Default
 62
255
 10
     1096.217996
 20
     1001.284893
 30
       18.078670
  0
POINT
  8
Default
 62
255
 10
     1096.173285
 20
     1001.290542
 30
       18.080543
  0
POINT
  8
Default
 62
255
 10
     1096.123920
 20
     1001.300737
 30
       18.073774
  0
POINT
  8
Default
 62
255
 10
     1096.078364
 20
     1001.314247
 30
       18.057002
  0
POINT
  8
Default
 62
255
 10
     1096.031771
 20
     1001.329921
 30
       18.038587
  0
POINT
  8
Default
 62
255
 10
     1095.979908
 20
     1001.325913
 30
       18.044839
  0
POINT
  8
Default
 62
255
 10
     1095.936715
 20
     1001.313890
 30
       18.055641
  0
POINT
  8
Default
 62
255
 10
     1095.897769
 20
     1001.278918
 30
       18.067224
  0
POINT
  8
Default
 62
255
 10
     1095.862065
 20
     1001.244085
 30
       18.078976
  0
POINT
  8
Default
 62
255
 10
     1095.822313
 20
     1001.205123
 30
       18.087533
  0
POINT
  8
Default
 62
255
 10
     1095.789186
 20
     1001.169778
 30
       18.101168
  0
POINT
  8
Default
 62
255
 10
     1095.744706
 20
     1001.159759
 30
       18.102333
  0
POINT
  8
Default
 62
255
 10
     1095.725933
 20
     1001.195615
 30
       18.082623
  0
POINT
  8
Default
 62
255
 10
     1095.731524
 20
     1001.241181
 30
       18.061705
  0
POINT
  8
Default
 62
255
 10
     1095.760989
 20
     1001.285982
 30
       18.043172
  0
POINT
  8
Default
 62
255
 10
     1095.798808
 20
     1001.316075
 30
       18.038444
  0
POINT
  8
Default
 62
255
 10
     1095.841891
 20
     1001.338400
 30
       18.044255
  0
POINT
  8
Default
 62
255
 10
     1095.891520
 20
     1001.356636
 30
       18.037421
  0
POINT
  8
Default
 62
255
 10
     1095.944430
 20
     1001.362409
 30
       18.029536
  0
POINT
  8
Default
 62
255
 10
     1095.995280
 20
     1001.363251
 30
       18.022338
  0
POINT
  8
Default
 62
255
 10
     1096.042405
 20
     1001.372701
 30
       18.013793
  0
POINT
  8
Default
 62
255
 10
     1096.049876
 20
     1001.413448
 30
       18.000124
  0
POINT
  8
Default
 62
255
 10
     1096.766774
 20
     1002.129586
 30
       17.937231
  0
POINT
  8
Default
 62
255
 10
     1096.839083
 20
     1002.067066
 30
       18.011083
  0
POINT
  8
Default
 62
255
 10
     1096.800959
 20
     1002.030038
 30
       17.957193
  0
POINT
  8
Default
 62
255
 10
     1096.894472
 20
     1002.010485
 30
       18.055138
  0
POINT
  8
Default
 62
255
 10
     1096.832439
 20
     1001.932319
 30
       18.052228
  0
POINT
  8
Default
 62
255
 10
     1096.898173
 20
     1001.900694
 30
       18.083991
  0
POINT
  8
Default
 62
255
 10
     1096.845393
 20
     1001.766522
 30
       18.106860
  0
POINT
  8
Default
 62
255
 10
     1096.760787
 20
     1001.575547
 30
       18.150272
  0
POINT
  8
Default
 62
255
 10
     1096.657502
 20
     1001.514912
 30
       18.146731
  0
POINT
  8
Default
 62
255
 10
     1096.649329
 20
     1001.607115
 30
       18.090686
  0
POINT
  8
Default
 62
255
 10
     1096.608683
 20
     1001.525474
 30
       18.074832
  0
POINT
  8
Default
 62
255
 10
     1096.590947
 20
     1001.453836
 30
       18.099431
  0
POINT
  8
Default
 62
255
 10
     1096.528386
 20
     1001.387748
 30
       18.101115
  0
POINT
  8
Default
 62
255
 10
     1096.618308
 20
     1001.413864
 30
       18.162810
  0
POINT
  8
Default
 62
255
 10
     1096.482027
 20
     1001.261066
 30
       18.252688
  0
POINT
  8
Default
 62
255
 10
     1096.573348
 20
     1001.310863
 30
       18.195149
  0
POINT
  8
Default
 62
255
 10
     1096.401451
 20
     1001.221954
 30
       18.247059
  0
POINT
  8
Default
 62
255
 10
     1096.298449
 20
     1001.193369
 30
       18.257436
  0
POINT
  8
Default
 62
255
 10
     1096.171069
 20
     1001.218250
 30
       18.239157
  0
POINT
  8
Default
 62
255
 10
     1096.397340
 20
     1001.282649
 30
       18.135590
  0
POINT
  8
Default
 62
255
 10
     1096.250459
 20
     1001.260543
 30
       18.204314
  0
POINT
  8
Default
 62
255
 10
     1096.101879
 20
     1001.278738
 30
       18.158813
  0
POINT
  8
Default
 62
255
 10
     1096.038781
 20
     1001.257325
 30
       18.242046
  0
POINT
  8
Default
 62
255
 10
     1096.008009
 20
     1001.298798
 30
       18.163982
  0
POINT
  8
Default
 62
255
 10
     1096.184954
 20
     1001.471568
 30
       17.978517
  0
POINT
  8
Default
 62
255
 10
     1096.357106
 20
     1001.494630
 30
       17.988244
  0
POINT
  8
Default
 62
255
 10
     1096.279082
 20
     1001.398392
 30
       18.003687
  0
POINT
  8
Default
 62
255
 10
     1095.245836
 20
     1002.634795
 30
       16.886559
  0
POINT
  8
Default
 62
255
 10
     1095.386762
 20
     1002.657458
 30
       16.885600
  0
POINT
  8
Default
 62
255
 10
     1095.321328
 20
     1002.538507
 30
       16.926075
  0
POINT
  8
Default
 62
255
 10
     1095.406743
 20
     1002.821819
 30
       16.848133
  0
POINT
  8
Default
 62
255
 10
     1095.503421
 20
     1002.670107
 30
       16.880430
  0
POINT
  8
Default
 62
255
 10
     1095.495969
 20
     1002.487301
 30
       16.905254
  0
POINT
  8
Default
 62
255
 10
     1095.565654
 20
     1002.561460
 30
       16.883664
  0
POINT
  8
Default
 62
255
 10
     1095.641469
 20
     1002.448840
 30
       16.903765
  0
POINT
  8
Default
 62
255
 10
     1095.673880
 20
     1002.582253
 30
       16.884116
  0
POINT
  8
Default
 62
255
 10
     1095.653917
 20
     1002.667227
 30
       16.872453
  0
POINT
  8
Default
 62
255
 10
     1095.554099
 20
     1002.837258
 30
       16.876617
  0
POINT
  8
Default
 62
255
 10
     1095.722056
 20
     1002.718715
 30
       16.882764
  0
POINT
  8
Default
 62
255
 10
     1095.721032
 20
     1002.807658
 30
       16.888304
  0
POINT
  8
Default
 62
255
 10
     1095.867331
 20
     1002.543953
 30
       16.881887
  0
POINT
  8
Default
 62
255
 10
     1095.933486
 20
     1002.641366
 30
       16.894411
  0
POINT
  8
Default
 62
255
 10
     1095.897461
 20
     1002.756839
 30
       16.923697
  0
POINT
  8
Default
 62
255
 10
     1095.767868
 20
     1002.872018
 30
       16.924559
  0
POINT
  8
Default
 62
255
 10
     1095.845577
 20
     1002.889533
 30
       17.027805
  0
POINT
  8
Default
 62
255
 10
     1095.803287
 20
     1002.782657
 30
       16.896154
  0
POINT
  8
Default
 62
255
 10
     1095.808157
 20
     1002.615337
 30
       16.877415
  0
POINT
  8
Default
 62
255
 10
     1096.022415
 20
     1002.720124
 30
       16.982759
  0
POINT
  8
Default
 62
255
 10
     1096.120270
 20
     1002.766957
 30
       17.144098
  0
POINT
  8
Default
 62
255
 10
     1096.229644
 20
     1002.670605
 30
       17.181413
  0
POINT
  8
Default
 62
255
 10
     1096.202258
 20
     1002.800278
 30
       17.291108
  0
POINT
  8
Default
 62
255
 10
     1096.286031
 20
     1002.689565
 30
       17.281320
  0
POINT
  8
Default
 62
255
 10
     1096.128302
 20
     1002.687792
 30
       17.032563
  0
POINT
  8
Default
 62
255
 10
     1096.360023
 20
     1002.716482
 30
       17.465598
  0
POINT
  8
Default
 62
255
 10
     1096.324173
 20
     1002.734607
 30
       17.402987
  0
POINT
  8
Default
 62
255
 10
     1096.285706
 20
     1002.884744
 30
       17.552070
  0
POINT
  8
Default
 62
255
 10
     1096.311685
 20
     1002.801174
 30
       17.473788
  0
POINT
  8
Default
 62
255
 10
     1096.223184
 20
     1002.843325
 30
       17.414898
  0
POINT
  8
Default
 62
255
 10
     1096.180069
 20
     1002.927681
 30
       17.517290
  0
POINT
  8
Default
 62
255
 10
     1096.188392
 20
     1002.969551
 30
       17.554886
  0
POINT
  8
Default
 62
255
 10
     1096.145770
 20
     1002.911571
 30
       17.441067
  0
POINT
  8
Default
 62
255
 10
     1096.113502
 20
     1002.881734
 30
       17.354761
  0
POINT
  8
Default
 62
255
 10
     1096.106296
 20
     1003.031432
 30
       17.544721
  0
POINT
  8
Default
 62
255
 10
     1096.031893
 20
     1003.056338
 30
       17.514768
  0
POINT
  8
Default
 62
255
 10
     1096.061917
 20
     1002.991672
 30
       17.442081
  0
POINT
  8
Default
 62
255
 10
     1096.000904
 20
     1002.978416
 30
       17.367028
  0
POINT
  8
Default
 62
255
 10
     1096.070809
 20
     1002.862327
 30
       17.254421
  0
POINT
  8
Default
 62
255
 10
     1095.973679
 20
     1002.915142
 30
       17.211594
  0
POINT
  8
Default
 62
255
 10
     1095.939223
 20
     1002.901632
 30
       17.165041
  0
POINT
  8
Default
 62
255
 10
     1095.774408
 20
     1003.001887
 30
       17.117901
  0
POINT
  8
Default
 62
255
 10
     1095.897296
 20
     1002.982973
 30
       17.257298
  0
POINT
  8
Default
 62
255
 10
     1095.919979
 20
     1003.030789
 30
       17.348212
  0
POINT
  8
Default
 62
255
 10
     1095.902990
 20
     1003.127078
 30
       17.499645
  0
POINT
  8
Default
 62
255
 10
     1095.970493
 20
     1003.051736
 30
       17.440365
  0
POINT
  8
Default
 62
255
 10
     1095.836175
 20
     1003.167993
 30
       17.470641
  0
POINT
  8
Default
 62
255
 10
     1095.846532
 20
     1003.118236
 30
       17.400845
  0
POINT
  8
Default
 62
255
 10
     1095.733670
 20
     1003.226520
 30
       17.432752
  0
POINT
  8
Default
 62
255
 10
     1095.772874
 20
     1003.154733
 30
       17.361667
  0
POINT
  8
Default
 62
255
 10
     1095.796751
 20
     1003.082353
 30
       17.289874
  0
POINT
  8
Default
 62
255
 10
     1095.654270
 20
     1003.299926
 30
       17.454572
  0
POINT
  8
Default
 62
255
 10
     1095.650251
 20
     1003.236016
 30
       17.364759
  0
POINT
  8
Default
 62
255
 10
     1095.700418
 20
     1003.153131
 30
       17.306676
  0
POINT
  8
Default
 62
255
 10
     1095.668743
 20
     1003.112053
 30
       17.148653
  0
POINT
  8
Default
 62
255
 10
     1095.679985
 20
     1003.001778
 30
       17.032018
  0
POINT
  8
Default
 62
255
 10
     1095.600158
 20
     1003.055137
 30
       17.031542
  0
POINT
  8
Default
 62
255
 10
     1095.648286
 20
     1003.187433
 30
       17.258567
  0
POINT
  8
Default
 62
255
 10
     1095.652767
 20
     1002.883184
 30
       16.895418
  0
POINT
  8
Default
 62
255
 10
     1095.571978
 20
     1003.002693
 30
       16.944877
  0
POINT
  8
Default
 62
255
 10
     1095.510138
 20
     1003.276932
 30
       17.314544
  0
POINT
  8
Default
 62
255
 10
     1095.162072
 20
     1002.852774
 30
       16.843496
  0
POINT
  8
Default
 62
255
 10
     1095.019221
 20
     1002.888116
 30
       16.843355
  0
POINT
  8
Default
 62
255
 10
     1095.077501
 20
     1002.991503
 30
       16.896206
  0
POINT
  8
Default
 62
255
 10
     1095.168924
 20
     1003.093097
 30
       16.968430
  0
POINT
  8
Default
 62
255
 10
     1094.847191
 20
     1003.008994
 30
       16.898730
  0
POINT
  8
Default
 62
255
 10
     1094.935362
 20
     1003.060498
 30
       16.940371
  0
POINT
  8
Default
 62
255
 10
     1095.415624
 20
     1003.023645
 30
       16.909874
  0
POINT
  8
Default
 62
255
 10
     1095.347490
 20
     1003.114068
 30
       16.975259
  0
POINT
  8
Default
 62
255
 10
     1095.204883
 20
     1003.212307
 30
       17.055634
  0
POINT
  8
Default
 62
255
 10
     1095.343623
 20
     1003.189754
 30
       17.040706
  0
POINT
  8
Default
 62
255
 10
     1095.432059
 20
     1003.212633
 30
       17.151929
  0
POINT
  8
Default
 62
255
 10
     1095.404986
 20
     1003.299427
 30
       17.245744
  0
POINT
  8
Default
 62
255
 10
     1095.328677
 20
     1003.313398
 30
       17.221096
  0
POINT
  8
Default
 62
255
 10
     1094.887998
 20
     1003.182464
 30
       17.035698
  0
POINT
  8
Default
 62
255
 10
     1094.800152
 20
     1003.148772
 30
       17.033579
  0
POINT
  8
Default
 62
255
 10
     1094.749980
 20
     1003.230205
 30
       17.203647
  0
POINT
  8
Default
 62
255
 10
     1094.715765
 20
     1003.177050
 30
       17.131021
  0
POINT
  8
Default
 62
255
 10
     1094.940634
 20
     1003.239345
 30
       17.084294
  0
POINT
  8
Default
 62
255
 10
     1094.865042
 20
     1003.277641
 30
       17.314384
  0
POINT
  8
Default
 62
255
 10
     1094.687581
 20
     1003.294729
 30
       17.323477
  0
POINT
  8
Default
 62
255
 10
     1094.642559
 20
     1003.254760
 30
       17.224758
  0
POINT
  8
Default
 62
255
 10
     1094.750065
 20
     1003.066088
 30
       16.960868
  0
POINT
  8
Default
 62
255
 10
     1095.087058
 20
     1003.201977
 30
       17.022891
  0
POINT
  8
Default
 62
255
 10
     1095.156000
 20
     1003.323286
 30
       17.136074
  0
POINT
  8
Default
 62
255
 10
     1094.509782
 20
     1003.453779
 30
       17.771589
  0
POINT
  8
Default
 62
255
 10
     1094.715027
 20
     1003.395205
 30
       17.799097
  0
POINT
  8
Default
 62
255
 10
     1094.605792
 20
     1003.432366
 30
       17.785824
  0
POINT
  8
Default
 62
255
 10
     1094.705193
 20
     1003.525337
 30
       17.793969
  0
POINT
  8
Default
 62
255
 10
     1094.609341
 20
     1003.502068
 30
       17.778522
  0
POINT
  8
Default
 62
255
 10
     1094.785482
 20
     1003.428379
 30
       17.803430
  0
POINT
  8
Default
 62
255
 10
     1094.837996
 20
     1003.504904
 30
       17.798144
  0
POINT
  8
Default
 62
255
 10
     1094.849300
 20
     1003.340622
 30
       17.807735
  0
POINT
  8
Default
 62
255
 10
     1094.944263
 20
     1003.384142
 30
       17.802611
  0
POINT
  8
Default
 62
255
 10
     1094.912089
 20
     1003.467289
 30
       17.798956
  0
POINT
  8
Default
 62
255
 10
     1095.054178
 20
     1003.517047
 30
       17.797722
  0
POINT
  8
Default
 62
255
 10
     1095.029850
 20
     1003.580538
 30
       17.792789
  0
POINT
  8
Default
 62
255
 10
     1094.921445
 20
     1003.660956
 30
       17.787477
  0
POINT
  8
Default
 62
255
 10
     1094.798475
 20
     1003.738645
 30
       17.777966
  0
POINT
  8
Default
 62
255
 10
     1094.739659
 20
     1003.694540
 30
       17.767692
  0
POINT
  8
Default
 62
255
 10
     1094.818133
 20
     1003.628352
 30
       17.804187
  0
POINT
  8
Default
 62
255
 10
     1094.959729
 20
     1003.591056
 30
       17.792400
  0
POINT
  8
Default
 62
255
 10
     1095.186916
 20
     1003.483033
 30
       17.749135
  0
POINT
  8
Default
 62
255
 10
     1095.173913
 20
     1003.397221
 30
       17.674673
  0
POINT
  8
Default
 62
255
 10
     1095.385656
 20
     1003.303185
 30
       17.409333
  0
POINT
  8
Default
 62
255
 10
     1095.239371
 20
     1003.345360
 30
       17.398473
  0
POINT
  8
Default
 62
255
 10
     1095.324446
 20
     1003.371903
 30
       17.665717
  0
POINT
  8
Default
 62
255
 10
     1095.215150
 20
     1003.412947
 30
       17.717230
  0
POINT
  8
Default
 62
255
 10
     1095.358262
 20
     1003.327558
 30
       17.556131
  0
POINT
  8
Default
 62
255
 10
     1094.956335
 20
     1002.711752
 30
       16.868538
  0
POINT
  8
Default
 62
255
 10
     1094.916148
 20
     1002.612730
 30
       16.874043
  0
POINT
  8
Default
 62
255
 10
     1094.813792
 20
     1002.727676
 30
       16.861454
  0
POINT
  8
Default
 62
255
 10
     1094.733230
 20
     1002.821767
 30
       16.882192
  0
POINT
  8
Default
 62
255
 10
     1094.655776
 20
     1002.737878
 30
       16.897894
  0
POINT
  8
Default
 62
255
 10
     1094.679309
 20
     1002.592510
 30
       16.901694
  0
POINT
  8
Default
 62
255
 10
     1094.620330
 20
     1003.020627
 30
       16.913180
  0
POINT
  8
Default
 62
255
 10
     1094.585375
 20
     1002.933244
 30
       16.884436
  0
POINT
  8
Default
 62
255
 10
     1094.465313
 20
     1002.993974
 30
       16.879493
  0
POINT
  8
Default
 62
255
 10
     1094.532635
 20
     1002.763785
 30
       16.888640
  0
POINT
  8
Default
 62
255
 10
     1094.550018
 20
     1002.616762
 30
       16.888386
  0
POINT
  8
Default
 62
255
 10
     1094.456319
 20
     1002.862513
 30
       16.866492
  0
POINT
  8
Default
 62
255
 10
     1094.360493
 20
     1002.895021
 30
       16.867510
  0
POINT
  8
Default
 62
255
 10
     1094.425361
 20
     1002.705915
 30
       16.877867
  0
POINT
  8
Default
 62
255
 10
     1094.494502
 20
     1002.472110
 30
       16.866517
  0
POINT
  8
Default
 62
255
 10
     1094.445285
 20
     1002.584994
 30
       16.857051
  0
POINT
  8
Default
 62
255
 10
     1094.384068
 20
     1002.482272
 30
       16.835908
  0
POINT
  8
Default
 62
255
 10
     1094.321418
 20
     1002.609734
 30
       16.816157
  0
POINT
  8
Default
 62
255
 10
     1094.189588
 20
     1002.646428
 30
       16.871035
  0
POINT
  8
Default
 62
255
 10
     1094.118673
 20
     1002.524583
 30
       16.806392
  0
POINT
  8
Default
 62
255
 10
     1094.081069
 20
     1002.453155
 30
       16.795013
  0
POINT
  8
Default
 62
255
 10
     1094.148294
 20
     1002.408545
 30
       16.804645
  0
POINT
  8
Default
 62
255
 10
     1094.238137
 20
     1002.437373
 30
       16.821044
  0
POINT
  8
Default
 62
255
 10
     1094.264085
 20
     1002.536818
 30
       16.799071
  0
POINT
  8
Default
 62
255
 10
     1094.484200
 20
     1002.317089
 30
       16.891236
  0
POINT
  8
Default
 62
255
 10
     1094.570021
 20
     1002.357554
 30
       16.895036
  0
POINT
  8
Default
 62
255
 10
     1094.396112
 20
     1002.188892
 30
       16.893049
  0
POINT
  8
Default
 62
255
 10
     1094.447561
 20
     1002.157079
 30
       16.873370
  0
POINT
  8
Default
 62
255
 10
     1094.338385
 20
     1002.235147
 30
       16.880834
  0
POINT
  8
Default
 62
255
 10
     1094.291259
 20
     1002.289907
 30
       16.860688
  0
POINT
  8
Default
 62
255
 10
     1094.519594
 20
     1002.106730
 30
       16.889264
  0
POINT
  8
Default
 62
255
 10
     1095.056931
 20
     1001.876411
 30
       17.050530
  0
POINT
  8
Default
 62
255
 10
     1094.969367
 20
     1001.818512
 30
       17.065745
  0
POINT
  8
Default
 62
255
 10
     1094.887722
 20
     1001.761670
 30
       17.063917
  0
POINT
  8
Default
 62
255
 10
     1094.731750
 20
     1001.821461
 30
       17.023744
  0
POINT
  8
Default
 62
255
 10
     1094.845989
 20
     1001.865103
 30
       17.025799
  0
POINT
  8
Default
 62
255
 10
     1094.811481
 20
     1002.018608
 30
       16.980905
  0
POINT
  8
Default
 62
255
 10
     1094.709186
 20
     1001.990014
 30
       16.988086
  0
POINT
  8
Default
 62
255
 10
     1094.594300
 20
     1001.999310
 30
       16.993091
  0
POINT
  8
Default
 62
255
 10
     1094.557936
 20
     1001.927242
 30
       16.997025
  0
POINT
  8
Default
 62
255
 10
     1094.731070
 20
     1002.280865
 30
       16.907108
  0
POINT
  8
Default
 62
255
 10
     1094.665827
 20
     1002.205197
 30
       16.917257
  0
POINT
  8
Default
 62
255
 10
     1094.652448
 20
     1002.123237
 30
       16.941675
  0
POINT
  8
Default
 62
255
 10
     1094.600203
 20
     1002.079273
 30
       16.939504
  0
POINT
  8
Default
 62
255
 10
     1094.471895
 20
     1001.983411
 30
       16.998058
  0
POINT
  8
Default
 62
255
 10
     1095.488895
 20
     1002.304948
 30
       16.943285
  0
POINT
  8
Default
 62
255
 10
     1095.313851
 20
     1002.381183
 30
       16.923930
  0
POINT
  8
Default
 62
255
 10
     1095.351141
 20
     1002.234455
 30
       16.945652
  0
POINT
  8
Default
 62
255
 10
     1095.295839
 20
     1002.139860
 30
       16.972289
  0
POINT
  8
Default
 62
255
 10
     1095.227019
 20
     1002.254355
 30
       16.963191
  0
POINT
  8
Default
 62
255
 10
     1095.091564
 20
     1002.175030
 30
       16.959666
  0
POINT
  8
Default
 62
255
 10
     1095.219854
 20
     1001.959349
 30
       17.021470
  0
POINT
  8
Default
 62
255
 10
     1095.178756
 20
     1002.418677
 30
       16.923413
  0
POINT
  8
Default
 62
255
 10
     1095.099183
 20
     1002.276229
 30
       16.949404
  0
POINT
  8
Default
 62
255
 10
     1094.981211
 20
     1002.335331
 30
       16.900404
  0
POINT
  8
Default
 62
255
 10
     1094.482379
 20
     1001.356479
 30
       17.143769
  0
POINT
  8
Default
 62
255
 10
     1094.525769
 20
     1001.461797
 30
       17.118356
  0
POINT
  8
Default
 62
255
 10
     1094.565301
 20
     1001.562688
 30
       17.069108
  0
POINT
  8
Default
 62
255
 10
     1094.718480
 20
     1001.650455
 30
       17.048929
  0
POINT
  8
Default
 62
255
 10
     1094.583182
 20
     1001.667566
 30
       17.044406
  0
POINT
  8
Default
 62
255
 10
     1094.452703
 20
     1001.580285
 30
       17.089812
  0
POINT
  8
Default
 62
255
 10
     1094.416521
 20
     1001.490110
 30
       17.136707
  0
POINT
  8
Default
 62
255
 10
     1094.370628
 20
     1001.395318
 30
       17.140971
  0
POINT
  8
Default
 62
255
 10
     1094.269982
 20
     1001.452142
 30
       17.132752
  0
POINT
  8
Default
 62
255
 10
     1094.541597
 20
     1001.796256
 30
       17.018561
  0
POINT
  8
Default
 62
255
 10
     1094.387363
 20
     1001.899925
 30
       17.008838
  0
POINT
  8
Default
 62
255
 10
     1094.333886
 20
     1001.872493
 30
       17.013025
  0
POINT
  8
Default
 62
255
 10
     1094.273666
 20
     1001.800198
 30
       17.039349
  0
POINT
  8
Default
 62
255
 10
     1094.424110
 20
     1001.776450
 30
       17.036848
  0
POINT
  8
Default
 62
255
 10
     1094.395118
 20
     1001.685774
 30
       17.057025
  0
POINT
  8
Default
 62
255
 10
     1094.298472
 20
     1001.590049
 30
       17.099134
  0
POINT
  8
Default
 62
255
 10
     1094.165437
 20
     1001.741519
 30
       17.062543
  0
POINT
  8
Default
 62
255
 10
     1094.050907
 20
     1001.700236
 30
       17.039519
  0
POINT
  8
Default
 62
255
 10
     1094.009594
 20
     1001.639014
 30
       17.057803
  0
POINT
  8
Default
 62
255
 10
     1094.248551
 20
     1001.704902
 30
       17.078390
  0
POINT
  8
Default
 62
255
 10
     1094.184735
 20
     1001.560799
 30
       17.103327
  0
POINT
  8
Default
 62
255
 10
     1094.047386
 20
     1001.795817
 30
       17.077207
  0
POINT
  8
Default
 62
255
 10
     1094.005786
 20
     1001.907418
 30
       17.044197
  0
POINT
  8
Default
 62
255
 10
     1093.976105
 20
     1001.824496
 30
       17.066089
  0
POINT
  8
Default
 62
255
 10
     1093.955474
 20
     1001.879552
 30
       17.046687
  0
POINT
  8
Default
 62
255
 10
     1093.999141
 20
     1001.750983
 30
       17.081221
  0
POINT
  8
Default
 62
255
 10
     1093.918841
 20
     1001.693851
 30
       17.096540
  0
POINT
  8
Default
 62
255
 10
     1093.861286
 20
     1001.741501
 30
       17.081527
  0
POINT
  8
Default
 62
255
 10
     1093.894989
 20
     1001.787323
 30
       17.065588
  0
POINT
  8
Default
 62
255
 10
     1094.073860
 20
     1001.812289
 30
       17.051148
  0
POINT
  8
Default
 62
255
 10
     1093.762595
 20
     1001.838221
 30
       17.055789
  0
POINT
  8
Default
 62
255
 10
     1093.903307
 20
     1001.982542
 30
       17.018704
  0
POINT
  8
Default
 62
255
 10
     1093.840668
 20
     1001.920315
 30
       17.037188
  0
POINT
  8
Default
 62
255
 10
     1093.703927
 20
     1001.877038
 30
       17.048892
  0
POINT
  8
Default
 62
255
 10
     1093.727285
 20
     1001.929637
 30
       17.036692
  0
POINT
  8
Default
 62
255
 10
     1093.800360
 20
     1002.007793
 30
       17.002548
  0
POINT
  8
Default
 62
255
 10
     1093.840258
 20
     1002.048425
 30
       16.947875
  0
POINT
  8
Default
 62
255
 10
     1093.670989
 20
     1001.973198
 30
       17.043567
  0
POINT
  8
Default
 62
255
 10
     1093.647560
 20
     1001.909910
 30
       17.057691
  0
POINT
  8
Default
 62
255
 10
     1093.599730
 20
     1001.896585
 30
       17.071735
  0
POINT
  8
Default
 62
255
 10
     1093.539872
 20
     1001.846586
 30
       17.099301
  0
POINT
  8
Default
 62
255
 10
     1093.631562
 20
     1001.709935
 30
       17.120469
  0
POINT
  8
Default
 62
255
 10
     1094.268278
 20
     1002.045420
 30
       16.703721
  0
POINT
  8
Default
 62
255
 10
     1094.258012
 20
     1002.009543
 30
       16.708621
  0
POINT
  8
Default
 62
255
 10
     1094.290477
 20
     1001.965131
 30
       16.731306
  0
POINT
  8
Default
 62
255
 10
     1094.348407
 20
     1001.976887
 30
       16.774671
  0
POINT
  8
Default
 62
255
 10
     1094.312343
 20
     1002.091667
 30
       16.733539
  0
POINT
  8
Default
 62
255
 10
     1094.392641
 20
     1002.027657
 30
       16.801047
  0
POINT
  8
Default
 62
255
 10
     1094.456774
 20
     1002.041267
 30
       16.874459
  0
POINT
  8
Default
 62
255
 10
     1094.509503
 20
     1002.058002
 30
       16.914377
  0
POINT
  8
Default
 62
255
 10
     1094.152063
 20
     1002.293349
 30
       16.624692
  0
POINT
  8
Default
 62
255
 10
     1094.087843
 20
     1002.342461
 30
       16.648861
  0
POINT
  8
Default
 62
255
 10
     1094.061633
 20
     1002.275414
 30
       16.601114
  0
POINT
  8
Default
 62
255
 10
     1093.998449
 20
     1002.304415
 30
       16.686699
  0
POINT
  8
Default
 62
255
 10
     1093.972014
 20
     1002.234530
 30
       16.638446
  0
POINT
  8
Default
 62
255
 10
     1093.952529
 20
     1002.177576
 30
       16.599635
  0
POINT
  8
Default
 62
255
 10
     1093.988289
 20
     1002.162880
 30
       16.527117
  0
POINT
  8
Default
 62
255
 10
     1093.895615
 20
     1002.222059
 30
       16.778855
  0
POINT
  8
Default
 62
255
 10
     1093.864194
 20
     1002.150163
 30
       16.768420
  0
POINT
  8
Default
 62
255
 10
     1093.800643
 20
     1002.132096
 30
       16.895413
  0
POINT
  8
Default
 62
255
 10
     1093.994819
 20
     1002.456161
 30
       16.984010
  0
POINT
  8
Default
 62
255
 10
     1093.989800
 20
     1002.392244
 30
       16.893842
  0
POINT
  8
Default
 62
255
 10
     1093.943064
 20
     1002.336493
 30
       16.906740
  0
POINT
  8
Default
 62
255
 10
     1093.834071
 20
     1002.214614
 30
       17.005003
  0
POINT
  8
Default
 62
255
 10
     1093.750896
 20
     1002.140030
 30
       17.026745
  0
POINT
  8
Default
 62
255
 10
     1094.542950
 20
     1003.067109
 30
       16.989986
  0
POINT
  8
Default
 62
255
 10
     1094.577640
 20
     1003.113482
 30
       17.073458
  0
POINT
  8
Default
 62
255
 10
     1094.464544
 20
     1003.088617
 30
       17.042577
  0
POINT
  8
Default
 62
255
 10
     1094.434917
 20
     1003.188483
 30
       17.231526
  0
POINT
  8
Default
 62
255
 10
     1094.477111
 20
     1003.210344
 30
       17.229595
  0
POINT
  8
Default
 62
255
 10
     1094.271951
 20
     1002.856353
 30
       16.934454
  0
POINT
  8
Default
 62
255
 10
     1094.402546
 20
     1002.980460
 30
       16.890477
  0
POINT
  8
Default
 62
255
 10
     1094.214579
 20
     1002.823962
 30
       17.040045
  0
POINT
  8
Default
 62
255
 10
     1094.363188
 20
     1003.038760
 30
       17.003477
  0
POINT
  8
Default
 62
255
 10
     1094.298105
 20
     1002.977665
 30
       17.116212
  0
POINT
  8
Default
 62
255
 10
     1094.298496
 20
     1003.022644
 30
       17.315944
  0
POINT
  8
Default
 62
255
 10
     1094.131449
 20
     1002.737670
 30
       17.135703
  0
POINT
  8
Default
 62
255
 10
     1094.146512
 20
     1002.850500
 30
       17.432128
  0
POINT
  8
Default
 62
255
 10
     1094.241310
 20
     1002.962277
 30
       17.406000
  0
POINT
  8
Default
 62
255
 10
     1094.072253
 20
     1002.639259
 30
       17.157182
  0
POINT
  8
Default
 62
255
 10
     1094.043956
 20
     1002.675205
 30
       17.352057
  0
POINT
  8
Default
 62
255
 10
     1093.985347
 20
     1002.587603
 30
       17.353402
  0
POINT
  8
Default
 62
255
 10
     1093.924561
 20
     1002.429016
 30
       17.089107
  0
POINT
  8
Default
 62
255
 10
     1093.993184
 20
     1002.686348
 30
       17.536765
  0
POINT
  8
Default
 62
255
 10
     1093.809950
 20
     1002.320725
 30
       17.140319
  0
POINT
  8
Default
 62
255
 10
     1093.914506
 20
     1002.597986
 30
       17.641529
  0
POINT
  8
Default
 62
255
 10
     1093.755999
 20
     1002.378023
 30
       17.594403
  0
POINT
  8
Default
 62
255
 10
     1093.758233
 20
     1002.311817
 30
       17.365228
  0
POINT
  8
Default
 62
255
 10
     1093.661730
 20
     1002.128361
 30
       17.138970
  0
POINT
  8
Default
 62
255
 10
     1093.546494
 20
     1002.052918
 30
       17.197116
  0
POINT
  8
Default
 62
255
 10
     1093.476701
 20
     1001.959711
 30
       17.224602
  0
POINT
  8
Default
 62
255
 10
     1093.381840
 20
     1001.942024
 30
       17.332875
  0
POINT
  8
Default
 62
255
 10
     1094.396644
 20
     1003.366999
 30
       17.649817
  0
POINT
  8
Default
 62
255
 10
     1094.457518
 20
     1003.336586
 30
       17.608205
  0
POINT
  8
Default
 62
255
 10
     1094.372961
 20
     1003.281220
 30
       17.571802
  0
POINT
  8
Default
 62
255
 10
     1094.345554
 20
     1003.107629
 30
       17.380086
  0
POINT
  8
Default
 62
255
 10
     1094.354596
 20
     1003.193648
 30
       17.471609
  0
POINT
  8
Default
 62
255
 10
     1094.421451
 20
     1003.263017
 30
       17.352041
  0
POINT
  8
Default
 62
255
 10
     1094.291098
 20
     1003.071818
 30
       17.459574
  0
POINT
  8
Default
 62
255
 10
     1094.297054
 20
     1003.174771
 30
       17.650409
  0
POINT
  8
Default
 62
255
 10
     1094.237686
 20
     1003.040378
 30
       17.588723
  0
POINT
  8
Default
 62
255
 10
     1094.164616
 20
     1002.960928
 30
       17.665912
  0
POINT
  8
Default
 62
255
 10
     1094.067063
 20
     1002.936556
 30
       17.829133
  0
POINT
  8
Default
 62
255
 10
     1094.154002
 20
     1003.029823
 30
       17.753285
  0
POINT
  8
Default
 62
255
 10
     1094.246437
 20
     1003.136306
 30
       17.691893
  0
POINT
  8
Default
 62
255
 10
     1094.034678
 20
     1002.803861
 30
       17.677822
  0
POINT
  8
Default
 62
255
 10
     1094.121183
 20
     1002.845622
 30
       17.566490
  0
POINT
  8
Default
 62
255
 10
     1094.002427
 20
     1002.908671
 30
       17.582037
  0
POINT
  8
Default
 62
255
 10
     1093.517163
 20
     1002.161867
 30
       17.671120
  0
POINT
  8
Default
 62
255
 10
     1093.622061
 20
     1002.235195
 30
       17.635925
  0
POINT
  8
Default
 62
255
 10
     1093.739263
 20
     1002.495688
 30
       17.858361
  0
POINT
  8
Default
 62
255
 10
     1093.857205
 20
     1002.572107
 30
       17.739922
  0
POINT
  8
Default
 62
255
 10
     1093.743144
 20
     1002.678511
 30
       17.757154
  0
POINT
  8
Default
 62
255
 10
     1094.012449
 20
     1002.876773
 30
       17.898137
  0
POINT
  8
Default
 62
255
 10
     1093.955150
 20
     1002.778739
 30
       17.842210
  0
POINT
  8
Default
 62
255
 10
     1093.867573
 20
     1002.823048
 30
       18.177026
  0
POINT
  8
Default
 62
255
 10
     1093.801097
 20
     1002.714246
 30
       18.137230
  0
POINT
  8
Default
 62
255
 10
     1093.631864
 20
     1002.371902
 30
       17.862522
  0
POINT
  8
Default
 62
255
 10
     1093.678790
 20
     1002.506811
 30
       18.012304
  0
POINT
  8
Default
 62
255
 10
     1093.374973
 20
     1002.020138
 30
       17.647737
  0
POINT
  8
Default
 62
255
 10
     1093.407816
 20
     1002.078860
 30
       17.763417
  0
POINT
  8
Default
 62
255
 10
     1093.457055
 20
     1002.152662
 30
       17.728576
  0
POINT
  8
Default
 62
255
 10
     1093.374317
 20
     1002.115464
 30
       17.795371
  0
POINT
  8
Default
 62
255
 10
     1093.357586
 20
     1002.034319
 30
       17.811592
  0
POINT
  8
Default
 62
255
 10
     1093.366491
 20
     1002.001051
 30
       17.808970
  0
POINT
  8
Default
 62
255
 10
     1093.249095
 20
     1002.046118
 30
       17.847662
  0
POINT
  8
Default
 62
255
 10
     1093.362916
 20
     1001.963619
 30
       17.645741
  0
POINT
  8
Default
 62
255
 10
     1093.449637
 20
     1002.035308
 30
       17.579944
  0
POINT
  8
Default
 62
255
 10
     1093.454286
 20
     1002.084602
 30
       17.575318
  0
POINT
  8
Default
 62
255
 10
     1093.463273
 20
     1002.078628
 30
       17.491535
  0
POINT
  8
Default
 62
255
 10
     1093.513141
 20
     1002.111121
 30
       17.501770
  0
POINT
  8
Default
 62
255
 10
     1093.495959
 20
     1002.136236
 30
       17.627206
  0
POINT
  8
Default
 62
255
 10
     1093.642535
 20
     1002.189575
 30
       17.538660
  0
POINT
  8
Default
 62
255
 10
     1093.538293
 20
     1002.215290
 30
       17.656096
  0
POINT
  8
Default
 62
255
 10
     1093.588767
 20
     1002.162645
 30
       17.583333
  0
POINT
  8
Default
 62
255
 10
     1093.609756
 20
     1002.306411
 30
       17.733907
  0
POINT
  8
Default
 62
255
 10
     1093.449353
 20
     1002.197828
 30
       17.789619
  0
POINT
  8
Default
 62
255
 10
     1093.514701
 20
     1002.263127
 30
       17.764911
  0
POINT
  8
Default
 62
255
 10
     1093.680103
 20
     1002.296495
 30
       17.616244
  0
POINT
  8
Default
 62
255
 10
     1093.746841
 20
     1002.418094
 30
       17.711740
  0
POINT
  8
Default
 62
255
 10
     1093.674037
 20
     1002.368989
 30
       17.734820
  0
POINT
  8
Default
 62
255
 10
     1093.518334
 20
     1002.284235
 30
       17.882737
  0
POINT
  8
Default
 62
255
 10
     1093.542462
 20
     1002.320820
 30
       17.847375
  0
POINT
  8
Default
 62
255
 10
     1093.490631
 20
     1002.238238
 30
       17.895134
  0
POINT
  8
Default
 62
255
 10
     1093.499473
 20
     1002.252253
 30
       18.005256
  0
POINT
  8
Default
 62
255
 10
     1093.579320
 20
     1002.349371
 30
       17.956867
  0
POINT
  8
Default
 62
255
 10
     1093.443454
 20
     1002.202446
 30
       17.966748
  0
POINT
  8
Default
 62
255
 10
     1096.407730
 20
     1002.408773
 30
       17.754818
  0
POINT
  8
Default
 62
255
 10
     1096.398080
 20
     1002.324070
 30
       17.768842
  0
POINT
  8
Default
 62
255
 10
     1096.250061
 20
     1002.158650
 30
       17.753377
  0
POINT
  8
Default
 62
255
 10
     1096.071510
 20
     1001.867503
 30
       17.755138
  0
POINT
  8
Default
 62
255
 10
     1096.149643
 20
     1001.965811
 30
       17.846298
  0
POINT
  8
Default
 62
255
 10
     1095.862348
 20
     1001.718397
 30
       17.860747
  0
POINT
  8
Default
 62
255
 10
     1093.438815
 20
     1001.886405
 30
       17.265711
  0
POINT
  8
Default
 62
255
 10
     1093.986465
 20
     1001.325327
 30
       17.198797
  0
POINT
  8
Default
 62
255
 10
     1094.084873
 20
     1001.257925
 30
       17.245554
  0
POINT
  8
Default
 62
255
 10
     1094.206269
 20
     1001.216796
 30
       17.281793
  0
POINT
  8
Default
 62
255
 10
     1095.015712
 20
     1001.200560
 30
       17.272200
  0
POINT
  8
Default
 62
255
 10
     1095.108141
 20
     1001.263492
 30
       17.251076
  0
POINT
  8
Default
 62
255
 10
     1095.172684
 20
     1001.295176
 30
       17.262430
  0
POINT
  8
Default
 62
255
 10
     1095.764544
 20
     1001.609941
 30
       17.349958
  0
POINT
  8
Default
 62
255
 10
     1095.849981
 20
     1001.768705
 30
       17.268777
  0
POINT
  8
Default
 62
255
 10
     1096.049212
 20
     1001.999745
 30
       17.161428
  0
POINT
  8
Default
 62
255
 10
     1094.214421
 20
     1001.853160
 30
       16.649484
  0
POINT
  8
Default
 62
255
 10
     1094.131251
 20
     1001.820605
 30
       16.650309
  0
POINT
  8
Default
 62
255
 10
     1094.069292
 20
     1001.776291
 30
       16.722615
  0
POINT
  8
Default
 62
255
 10
     1094.191995
 20
     1001.913717
 30
       16.586147
  0
POINT
  8
Default
 62
255
 10
     1094.129473
 20
     1001.943837
 30
       16.558644
  0
POINT
  8
Default
 62
255
 10
     1094.202670
 20
     1002.029130
 30
       16.484106
  0
POINT
  8
Default
 62
255
 10
     1094.254232
 20
     1002.079030
 30
       16.470186
  0
POINT
  8
Default
 62
255
 10
     1094.271263
 20
     1002.128169
 30
       16.474436
  0
POINT
  8
Default
 62
255
 10
     1094.231424
 20
     1001.948946
 30
       16.552610
  0
POINT
  8
Default
 62
255
 10
     1093.852987
 20
     1001.970261
 30
       16.613093
  0
POINT
  8
Default
 62
255
 10
     1093.885300
 20
     1001.918450
 30
       16.676983
  0
POINT
  8
Default
 62
255
 10
     1093.987973
 20
     1002.021207
 30
       16.556889
  0
POINT
  8
Default
 62
255
 10
     1093.839745
 20
     1002.007099
 30
       16.700153
  0
POINT
  8
Default
 62
255
 10
     1093.888449
 20
     1002.127420
 30
       16.653748
  0
POINT
  8
Default
 62
255
 10
     1094.183061
 20
     1001.820022
 30
       16.863227
  0
POINT
  8
Default
 62
255
 10
     1094.116068
 20
     1001.778136
 30
       16.936978
  0
POINT
  8
Default
 62
255
 10
     1094.303643
 20
     1001.896677
 30
       16.885428
  0
POINT
  8
Default
 62
255
 10
     1094.282529
 20
     1001.907381
 30
       16.835139
  0
POINT
  8
Default
 62
255
 10
     1094.170628
 20
     1001.827704
 30
       16.740286
  0
POINT
  8
Default
 62
255
 10
     1094.187358
 20
     1001.812220
 30
       16.961339
  0
POINT
  8
Default
 62
255
 10
     1094.267496
 20
     1001.862408
 30
       16.896317
  0
LINE
  8
Default
 62
255
 10
     1095.029850
 20
     1003.580538
 30
       17.792789
 11
     1095.054178
 21
     1003.517047
 31
       17.797722
  0
LINE
  8
Default
 62
255
 10
     1095.054178
 20
     1003.517047
 30
       17.797722
 11
     1095.044358
 21
     1003.454126
 31
       17.796473
  0
LINE
  8
Default
 62
255
 10
     1095.044358
 20
     1003.454126
 30
       17.796473
 11
     1094.944263
 21
     1003.384142
 31
       17.802611
  0
LINE
  8
Default
 62
255
 10
     1094.944263
 20
     1003.384142
 30
       17.802611
 11
     1094.849300
 21
     1003.340622
 31
       17.807735
  0
LINE
  8
Default
 62
255
 10
     1094.849300
 20
     1003.340622
 30
       17.807735
 11
     1094.715027
 21
     1003.395205
 31
       17.799097
  0
LINE
  8
Default
 62
255
 10
     1094.715027
 20
     1003.395205
 30
       17.799097
 11
     1094.605792
 21
     1003.432366
 31
       17.785824
  0
LINE
  8
Default
 62
255
 10
     1094.605792
 20
     1003.432366
 30
       17.785824
 11
     1094.509782
 21
     1003.453779
 31
       17.771589
  0
LINE
  8
Default
 62
255
 10
     1095.029850
 20
     1003.580538
 30
       17.792789
 11
     1094.921445
 21
     1003.660956
 31
       17.787477
  0
LINE
  8
Default
 62
255
 10
     1094.921445
 20
     1003.660956
 30
       17.787477
 11
     1094.798475
 21
     1003.738645
 31
       17.777966
  0
LINE
  8
Default
 62
255
 10
     1094.798475
 20
     1003.738645
 30
       17.777966
 11
     1094.739659
 21
     1003.694540
 31
       17.767692
  0
LINE
  8
Default
 62
255
 10
     1094.739659
 20
     1003.694540
 30
       17.767692
 11
     1094.638845
 21
     1003.628994
 31
       17.790800
  0
LINE
  8
Default
 62
255
 10
     1094.638845
 20
     1003.628994
 30
       17.790800
 11
     1094.601695
 21
     1003.592173
 31
       17.776861
  0
LINE
  8
Default
 62
255
 10
     1094.601695
 20
     1003.592173
 30
       17.776861
 11
     1094.566266
 21
     1003.558600
 31
       17.763372
  0
LINE
  8
Default
 62
255
 10
     1094.711803
 20
     1003.028492
 30
       16.965175
 11
     1094.620330
 21
     1003.020627
 31
       16.913180
  0
LINE
  8
Default
 62
255
 10
     1094.620330
 20
     1003.020627
 30
       16.913180
 11
     1094.465313
 21
     1002.993974
 31
       16.879493
  0
LINE
  8
Default
 62
255
 10
     1094.465313
 20
     1002.993974
 30
       16.879493
 11
     1094.360493
 21
     1002.895021
 31
       16.867510
  0
LINE
  8
Default
 62
255
 10
     1094.360493
 20
     1002.895021
 30
       16.867510
 11
     1094.189588
 21
     1002.646428
 31
       16.871035
  0
LINE
  8
Default
 62
255
 10
     1094.118673
 20
     1002.524583
 30
       16.806392
 11
     1094.081069
 21
     1002.453155
 31
       16.795013
  0
LINE
  8
Default
 62
255
 10
     1093.539872
 20
     1001.846586
 30
       17.099301
 11
     1093.526458
 21
     1001.767627
 31
       17.139827
  0
LINE
  8
Default
 62
255
 10
     1093.526458
 20
     1001.767627
 30
       17.139827
 11
     1093.607966
 21
     1001.635315
 31
       17.150269
  0
LINE
  8
Default
 62
255
 10
     1093.607966
 20
     1001.635315
 30
       17.150269
 11
     1093.766185
 21
     1001.519114
 31
       17.171665
  0
LINE
  8
Default
 62
255
 10
     1093.766185
 20
     1001.519114
 30
       17.171665
 11
     1093.986465
 21
     1001.325327
 31
       17.198797
  0
LINE
  8
Default
 62
255
 10
     1093.986465
 20
     1001.325327
 30
       17.198797
 11
     1094.084873
 21
     1001.257925
 31
       17.245554
  0
LINE
  8
Default
 62
255
 10
     1094.084873
 20
     1001.257925
 30
       17.245554
 11
     1094.256748
 21
     1001.192513
 31
       17.300310
  0
LINE
  8
Default
 62
255
 10
     1094.256748
 20
     1001.192513
 30
       17.300310
 11
     1094.378770
 21
     1001.136119
 31
       17.286591
  0
LINE
  8
Default
 62
255
 10
     1094.378770
 20
     1001.136119
 30
       17.286591
 11
     1094.524928
 21
     1001.079786
 31
       17.296591
  0
LINE
  8
Default
 62
255
 10
     1094.524928
 20
     1001.079786
 30
       17.296591
 11
     1094.805076
 21
     1001.065366
 31
       17.316273
  0
LINE
  8
Default
 62
255
 10
     1094.805076
 20
     1001.065366
 30
       17.316273
 11
     1094.870605
 21
     1001.088150
 31
       17.315233
  0
LINE
  8
Default
 62
255
 10
     1094.870605
 20
     1001.088150
 30
       17.315233
 11
     1095.015712
 21
     1001.200560
 31
       17.272200
  0
LINE
  8
Default
 62
255
 10
     1095.015712
 20
     1001.200560
 30
       17.272200
 11
     1095.108141
 21
     1001.263492
 31
       17.251076
  0
LINE
  8
Default
 62
255
 10
     1094.081069
 20
     1002.453155
 30
       16.795013
 11
     1093.989800
 21
     1002.392244
 31
       16.893842
  0
LINE
  8
Default
 62
255
 10
     1093.989800
 20
     1002.392244
 30
       16.893842
 11
     1093.943064
 21
     1002.336493
 31
       16.906740
  0
LINE
  8
Default
 62
255
 10
     1093.943064
 20
     1002.336493
 30
       16.906740
 11
     1093.800643
 21
     1002.132096
 31
       16.895413
  0
LINE
  8
Default
 62
255
 10
     1093.800643
 20
     1002.132096
 30
       16.895413
 11
     1093.728229
 21
     1002.056048
 31
       17.011827
  0
LINE
  8
Default
 62
255
 10
     1093.728229
 20
     1002.056048
 30
       17.011827
 11
     1093.670989
 21
     1001.973198
 31
       17.043567
  0
LINE
  8
Default
 62
255
 10
     1093.670989
 20
     1001.973198
 30
       17.043567
 11
     1093.599730
 21
     1001.896585
 31
       17.071735
  0
LINE
  8
Default
 62
255
 10
     1093.599730
 20
     1001.896585
 30
       17.071735
 11
     1093.539872
 21
     1001.846586
 31
       17.099301
  0
LINE
  8
Default
 62
255
 10
     1094.081069
 20
     1002.453155
 30
       16.795013
 11
     1094.148294
 21
     1002.408545
 31
       16.804645
  0
LINE
  8
Default
 62
255
 10
     1094.148294
 20
     1002.408545
 30
       16.804645
 11
     1094.229314
 21
     1002.343773
 31
       16.838543
  0
LINE
  8
Default
 62
255
 10
     1094.229314
 20
     1002.343773
 30
       16.838543
 11
     1094.338385
 21
     1002.235147
 31
       16.880834
  0
LINE
  8
Default
 62
255
 10
     1094.338385
 20
     1002.235147
 30
       16.880834
 11
     1094.396112
 21
     1002.188892
 31
       16.893049
  0
LINE
  8
Default
 62
255
 10
     1094.396112
 20
     1002.188892
 30
       16.893049
 11
     1094.447561
 21
     1002.157079
 31
       16.873370
  0
LINE
  8
Default
 62
255
 10
     1094.447561
 20
     1002.157079
 30
       16.873370
 11
     1094.476530
 21
     1002.141194
 31
       16.873352
  0
LINE
  8
Default
 62
255
 10
     1094.476530
 20
     1002.141194
 30
       16.873352
 11
     1094.519594
 21
     1002.106730
 31
       16.889264
  0
LINE
  8
Default
 62
255
 10
     1094.519594
 20
     1002.106730
 30
       16.889264
 11
     1094.509503
 21
     1002.058002
 31
       16.914377
  0
LINE
  8
Default
 62
255
 10
     1094.509503
 20
     1002.058002
 30
       16.914377
 11
     1094.471895
 21
     1001.983411
 31
       16.998058
  0
LINE
  8
Default
 62
255
 10
     1094.471895
 20
     1001.983411
 30
       16.998058
 11
     1094.419312
 21
     1001.944826
 31
       16.990658
  0
LINE
  8
Default
 62
255
 10
     1094.419312
 20
     1001.944826
 30
       16.990658
 11
     1094.333886
 21
     1001.872493
 31
       17.013025
  0
LINE
  8
Default
 62
255
 10
     1094.333886
 20
     1001.872493
 30
       17.013025
 11
     1094.273666
 21
     1001.800198
 31
       17.039349
  0
LINE
  8
Default
 62
255
 10
     1094.273666
 20
     1001.800198
 30
       17.039349
 11
     1094.165437
 21
     1001.741519
 31
       17.062543
  0
LINE
  8
Default
 62
255
 10
     1094.165437
 20
     1001.741519
 30
       17.062543
 11
     1094.050907
 21
     1001.700236
 31
       17.039519
  0
LINE
  8
Default
 62
255
 10
     1094.050907
 20
     1001.700236
 30
       17.039519
 11
     1093.999141
 21
     1001.750983
 31
       17.081221
  0
LINE
  8
Default
 62
255
 10
     1093.999141
 20
     1001.750983
 30
       17.081221
 11
     1094.047386
 21
     1001.795817
 31
       17.077207
  0
LINE
  8
Default
 62
255
 10
     1094.047386
 20
     1001.795817
 30
       17.077207
 11
     1094.035413
 21
     1001.854783
 31
       17.060386
  0
LINE
  8
Default
 62
255
 10
     1094.035413
 20
     1001.854783
 30
       17.060386
 11
     1094.005786
 21
     1001.907418
 31
       17.044197
  0
LINE
  8
Default
 62
255
 10
     1094.005786
 20
     1001.907418
 30
       17.044197
 11
     1093.903307
 21
     1001.982542
 31
       17.018704
  0
LINE
  8
Default
 62
255
 10
     1093.903307
 20
     1001.982542
 30
       17.018704
 11
     1093.800360
 21
     1002.007793
 31
       17.002548
  0
LINE
  8
Default
 62
255
 10
     1093.800360
 20
     1002.007793
 30
       17.002548
 11
     1093.728229
 21
     1002.056048
 31
       17.011827
  0
LINE
  8
Default
 62
255
 10
     1094.711803
 20
     1003.028492
 30
       16.965175
 11
     1094.847191
 21
     1003.008994
 31
       16.898730
  0
LINE
  8
Default
 62
255
 10
     1094.847191
 20
     1003.008994
 30
       16.898730
 11
     1095.019221
 21
     1002.888116
 31
       16.843355
  0
LINE
  8
Default
 62
255
 10
     1095.019221
 20
     1002.888116
 30
       16.843355
 11
     1095.266076
 21
     1002.952091
 31
       16.870526
  0
LINE
  8
Default
 62
255
 10
     1095.266076
 20
     1002.952091
 30
       16.870526
 11
     1095.415624
 21
     1003.023645
 31
       16.909874
  0
LINE
  8
Default
 62
255
 10
     1095.415624
 20
     1003.023645
 30
       16.909874
 11
     1095.487001
 21
     1003.033514
 31
       16.936313
  0
LINE
  8
Default
 62
255
 10
     1095.487001
 20
     1003.033514
 30
       16.936313
 11
     1095.767868
 21
     1002.872018
 31
       16.924559
  0
LINE
  8
Default
 62
255
 10
     1095.767868
 20
     1002.872018
 30
       16.924559
 11
     1095.897461
 21
     1002.756839
 31
       16.923697
  0
LINE
  8
Default
 62
255
 10
     1095.897461
 20
     1002.756839
 30
       16.923697
 11
     1096.087563
 21
     1002.624344
 31
       16.956831
  0
LINE
  8
Default
 62
255
 10
     1096.087563
 20
     1002.624344
 30
       16.956831
 11
     1096.163473
 21
     1002.557141
 31
       16.977283
  0
LINE
  8
Default
 62
255
 10
     1096.163473
 20
     1002.557141
 30
       16.977283
 11
     1096.223539
 21
     1002.443922
 31
       17.023790
  0
LINE
  8
Default
 62
255
 10
     1096.223539
 20
     1002.443922
 30
       17.023790
 11
     1096.208535
 21
     1002.374659
 31
       17.027109
  0
LINE
  8
Default
 62
255
 10
     1096.407730
 20
     1002.408773
 30
       17.754818
 11
     1096.398080
 21
     1002.324070
 31
       17.768842
  0
LINE
  8
Default
 62
255
 10
     1096.195193
 20
     1002.052252
 30
       17.835067
 11
     1096.149643
 21
     1001.965811
 31
       17.846298
  0
LINE
  8
Default
 62
255
 10
     1096.149643
 20
     1001.965811
 30
       17.846298
 11
     1096.099244
 21
     1001.862354
 31
       17.842086
  0
LINE
  8
Default
 62
255
 10
     1096.099244
 20
     1001.862354
 30
       17.842086
 11
     1096.014137
 21
     1001.764960
 31
       17.885006
  0
LINE
  8
Default
 62
255
 10
     1095.698909
 20
     1001.321747
 30
       18.026067
 11
     1095.606709
 21
     1001.292446
 31
       18.024477
  0
LINE
  8
Default
 62
255
 10
     1095.606709
 20
     1001.292446
 30
       18.024477
 11
     1095.579749
 21
     1001.202837
 31
       18.044315
  0
LINE
  8
Default
 62
255
 10
     1095.579749
 20
     1001.202837
 30
       18.044315
 11
     1095.516162
 21
     1001.193384
 31
       18.068306
  0
LINE
  8
Default
 62
255
 10
     1095.516162
 20
     1001.193384
 30
       18.068306
 11
     1095.427802
 21
     1001.151852
 31
       18.080005
  0
LINE
  8
Default
 62
255
 10
     1095.427802
 20
     1001.151852
 30
       18.080005
 11
     1095.338018
 21
     1001.047398
 31
       18.103975
  0
LINE
  8
Default
 62
255
 10
     1095.338018
 20
     1001.047398
 30
       18.103975
 11
     1095.318793
 21
     1000.985391
 31
       18.113466
  0
LINE
  8
Default
 62
255
 10
     1095.318793
 20
     1000.985391
 30
       18.113466
 11
     1095.273301
 21
     1000.983781
 31
       18.112092
  0
LINE
  8
Default
 62
255
 10
     1095.273301
 20
     1000.983781
 30
       18.112092
 11
     1095.199322
 21
     1000.929656
 31
       18.127871
  0
LINE
  8
Default
 62
255
 10
     1095.108141
 20
     1001.263492
 30
       17.251076
 11
     1095.207168
 21
     1001.380826
 31
       17.235878
  0
LINE
  8
Default
 62
255
 10
     1095.207168
 20
     1001.380826
 30
       17.235878
 11
     1095.264970
 21
     1001.418561
 31
       17.225849
  0
LINE
  8
Default
 62
255
 10
     1095.264970
 20
     1001.418561
 30
       17.225849
 11
     1095.365857
 21
     1001.501267
 31
       17.202132
  0
LINE
  8
Default
 62
255
 10
     1093.867573
 20
     1002.823048
 30
       18.177026
 11
     1093.801097
 21
     1002.714246
 31
       18.137230
  0
LINE
  8
Default
 62
255
 10
     1093.801097
 20
     1002.714246
 30
       18.137230
 11
     1093.499473
 21
     1002.252253
 31
       18.005256
  0
LINE
  8
Default
 62
255
 10
     1093.499473
 20
     1002.252253
 30
       18.005256
 11
     1093.443454
 21
     1002.202446
 31
       17.966748
  0
LINE
  8
Default
 62
255
 10
     1093.443454
 20
     1002.202446
 30
       17.966748
 11
     1093.249095
 21
     1002.046118
 31
       17.847662
  0
LINE
  8
Default
 62
255
 10
     1093.249095
 20
     1002.046118
 30
       17.847662
 11
     1093.280180
 21
     1001.831761
 31
       17.883715
  0
LINE
  8
Default
 62
255
 10
     1093.280180
 20
     1001.831761
 30
       17.883715
 11
     1093.533454
 21
     1001.584346
 31
       18.048250
  0
LINE
  8
Default
 62
255
 10
     1093.533454
 20
     1001.584346
 30
       18.048250
 11
     1093.664813
 21
     1001.496070
 31
       18.067617
  0
LINE
  8
Default
 62
255
 10
     1096.208535
 20
     1002.374659
 30
       17.027109
 11
     1096.164793
 21
     1002.239705
 31
       17.050570
  0
LINE
  8
Default
 62
255
 10
     1096.164793
 20
     1002.239705
 30
       17.050570
 11
     1096.123451
 21
     1002.175727
 31
       17.059776
  0
LINE
  8
Default
 62
255
 10
     1096.123451
 20
     1002.175727
 30
       17.059776
 11
     1096.078174
 21
     1002.099300
 31
       17.082883
  0
LINE
  8
Default
 62
255
 10
     1096.078174
 20
     1002.099300
 30
       17.082883
 11
     1096.040827
 21
     1002.039659
 31
       17.097030
  0
LINE
  8
Default
 62
255
 10
     1096.040827
 20
     1002.039659
 30
       17.097030
 11
     1095.710698
 21
     1001.745469
 31
       17.157804
  0
LINE
  8
Default
 62
255
 10
     1095.710698
 20
     1001.745469
 30
       17.157804
 11
     1095.562718
 21
     1001.629404
 31
       17.171654
  0
LINE
  8
Default
 62
255
 10
     1095.562718
 20
     1001.629404
 30
       17.171654
 11
     1095.365857
 21
     1001.501267
 31
       17.202132
  0
LINE
  8
Default
 62
255
 10
     1096.217709
 20
     1002.119353
 30
       17.830072
 11
     1096.195193
 21
     1002.052252
 31
       17.835067
  0
LINE
  8
Default
 62
255
 10
     1096.398080
 20
     1002.324070
 30
       17.768842
 11
     1096.310612
 21
     1002.191704
 31
       17.785939
  0
LINE
  8
Default
 62
255
 10
     1096.310612
 20
     1002.191704
 30
       17.785939
 11
     1096.217709
 21
     1002.119353
 31
       17.830072
  0
LINE
  8
Default
 62
255
 10
     1096.014137
 20
     1001.764960
 30
       17.885006
 11
     1095.867864
 21
     1001.586567
 31
       17.969420
  0
LINE
  8
Default
 62
255
 10
     1095.867864
 20
     1001.586567
 30
       17.969420
 11
     1095.698909
 21
     1001.321747
 31
       18.026067
  0
LINE
  8
Default
 62
255
 10
     1096.469304
 20
     1002.558053
 30
       17.759878
 11
     1096.537746
 21
     1002.227452
 31
       17.791615
  0
LINE
  8
Default
 62
255
 10
     1096.537746
 20
     1002.227452
 30
       17.791615
 11
     1096.602149
 21
     1002.168783
 31
       17.805945
  0
LINE
  8
Default
 62
255
 10
     1096.602149
 20
     1002.168783
 30
       17.805945
 11
     1096.648042
 21
     1002.151466
 31
       17.833520
  0
LINE
  8
Default
 62
255
 10
     1096.648042
 20
     1002.151466
 30
       17.833520
 11
     1096.688102
 21
     1002.139218
 31
       17.859454
  0
LINE
  8
Default
 62
255
 10
     1096.688102
 20
     1002.139218
 30
       17.859454
 11
     1096.766774
 21
     1002.129586
 31
       17.937231
  0
LINE
  8
Default
 62
255
 10
     1096.766774
 20
     1002.129586
 30
       17.937231
 11
     1096.839083
 21
     1002.067066
 31
       18.011083
  0
LINE
  8
Default
 62
255
 10
     1096.839083
 20
     1002.067066
 30
       18.011083
 11
     1096.894472
 21
     1002.010485
 31
       18.055138
  0
LINE
  8
Default
 62
255
 10
     1096.894472
 20
     1002.010485
 30
       18.055138
 11
     1096.898173
 21
     1001.900694
 31
       18.083991
  0
LINE
  8
Default
 62
255
 10
     1096.898173
 20
     1001.900694
 30
       18.083991
 11
     1096.845393
 21
     1001.766522
 31
       18.106860
  0
LINE
  8
Default
 62
255
 10
     1096.845393
 20
     1001.766522
 30
       18.106860
 11
     1096.760787
 21
     1001.575547
 31
       18.150272
  0
LINE
  8
Default
 62
255
 10
     1096.760787
 20
     1001.575547
 30
       18.150272
 11
     1096.573348
 21
     1001.310863
 31
       18.195149
  0
LINE
  8
Default
 62
255
 10
     1096.573348
 20
     1001.310863
 30
       18.195149
 11
     1096.482027
 21
     1001.261066
 31
       18.252688
  0
LINE
  8
Default
 62
255
 10
     1096.482027
 20
     1001.261066
 30
       18.252688
 11
     1096.401451
 21
     1001.221954
 31
       18.247059
  0
LINE
  8
Default
 62
255
 10
     1096.401451
 20
     1001.221954
 30
       18.247059
 11
     1096.298449
 21
     1001.193369
 31
       18.257436
  0
LINE
  8
Default
 62
255
 10
     1096.298449
 20
     1001.193369
 30
       18.257436
 11
     1096.171069
 21
     1001.218250
 31
       18.239157
  0
LINE
  8
Default
 62
255
 10
     1096.171069
 20
     1001.218250
 30
       18.239157
 11
     1096.038781
 21
     1001.257325
 31
       18.242046
  0
LINE
  8
Default
 62
255
 10
     1096.038781
 20
     1001.257325
 30
       18.242046
 11
     1096.008009
 21
     1001.298798
 31
       18.163982
  0
LINE
  8
Default
 62
255
 10
     1096.469304
 20
     1002.558053
 30
       17.759878
 11
     1096.482332
 21
     1002.591386
 31
       17.688957
  0
LINE
  8
Default
 62
255
 10
     1096.482332
 20
     1002.591386
 30
       17.688957
 11
     1096.450649
 21
     1002.658731
 31
       17.673487
  0
LINE
  8
Default
 62
255
 10
     1096.450649
 20
     1002.658731
 30
       17.673487
 11
     1096.285706
 21
     1002.884744
 31
       17.552070
  0
LINE
  8
Default
 62
255
 10
     1096.285706
 20
     1002.884744
 30
       17.552070
 11
     1096.188392
 21
     1002.969551
 31
       17.554886
  0
LINE
  8
Default
 62
255
 10
     1096.188392
 20
     1002.969551
 30
       17.554886
 11
     1096.106296
 21
     1003.031432
 31
       17.544721
  0
LINE
  8
Default
 62
255
 10
     1096.106296
 20
     1003.031432
 30
       17.544721
 11
     1096.031893
 21
     1003.056338
 31
       17.514768
  0
LINE
  8
Default
 62
255
 10
     1096.031893
 20
     1003.056338
 30
       17.514768
 11
     1095.902990
 21
     1003.127078
 31
       17.499645
  0
LINE
  8
Default
 62
255
 10
     1095.902990
 20
     1003.127078
 30
       17.499645
 11
     1095.836175
 21
     1003.167993
 31
       17.470641
  0
LINE
  8
Default
 62
255
 10
     1095.836175
 20
     1003.167993
 30
       17.470641
 11
     1095.733670
 21
     1003.226520
 31
       17.432752
  0
LINE
  8
Default
 62
255
 10
     1095.733670
 20
     1003.226520
 30
       17.432752
 11
     1095.654270
 21
     1003.299926
 31
       17.454572
  0
LINE
  8
Default
 62
255
 10
     1095.654270
 20
     1003.299926
 30
       17.454572
 11
     1095.324446
 21
     1003.371903
 31
       17.665717
  0
LINE
  8
Default
 62
255
 10
     1095.324446
 20
     1003.371903
 30
       17.665717
 11
     1095.186916
 21
     1003.483033
 31
       17.749135
  0
LINE
  8
Default
 62
255
 10
     1095.186916
 20
     1003.483033
 30
       17.749135
 11
     1095.029850
 21
     1003.580538
 31
       17.792789
  0
LINE
  8
Default
 62
255
 10
     1093.664813
 20
     1001.496070
 30
       18.067617
 11
     1093.977921
 21
     1001.125984
 31
       18.186318
  0
LINE
  8
Default
 62
255
 10
     1093.977921
 20
     1001.125984
 30
       18.186318
 11
     1093.998586
 21
     1001.091250
 31
       18.203984
  0
LINE
  8
Default
 62
255
 10
     1093.998586
 20
     1001.091250
 30
       18.203984
 11
     1094.494144
 21
     1000.963730
 31
       18.309309
  0
LINE
  8
Default
 62
255
 10
     1094.494144
 20
     1000.963730
 30
       18.309309
 11
     1094.640416
 21
     1000.914230
 31
       18.272005
  0
LINE
  8
Default
 62
255
 10
     1094.640416
 20
     1000.914230
 30
       18.272005
 11
     1095.004217
 21
     1000.770728
 31
       18.268581
  0
LINE
  8
Default
 62
255
 10
     1095.004217
 20
     1000.770728
 30
       18.268581
 11
     1095.328359
 21
     1000.824528
 31
       18.191828
  0
LINE
  8
Default
 62
255
 10
     1095.328359
 20
     1000.824528
 30
       18.191828
 11
     1095.399493
 21
     1000.895466
 31
       18.151874
  0
LINE
  8
Default
 62
255
 10
     1095.399493
 20
     1000.895466
 30
       18.151874
 11
     1095.468226
 21
     1000.965681
 31
       18.166817
  0
LINE
  8
Default
 62
255
 10
     1095.468226
 20
     1000.965681
 30
       18.166817
 11
     1095.630129
 21
     1000.996720
 31
       18.151345
  0
LINE
  8
Default
 62
255
 10
     1095.630129
 20
     1000.996720
 30
       18.151345
 11
     1095.702302
 21
     1001.100411
 31
       18.121753
  0
LINE
  8
Default
 62
255
 10
     1095.702302
 20
     1001.100411
 30
       18.121753
 11
     1095.789186
 21
     1001.169778
 31
       18.101168
  0
LINE
  8
Default
 62
255
 10
     1095.789186
 20
     1001.169778
 30
       18.101168
 11
     1095.822313
 21
     1001.205123
 31
       18.087533
  0
LINE
  8
Default
 62
255
 10
     1095.822313
 20
     1001.205123
 30
       18.087533
 11
     1095.862065
 21
     1001.244085
 31
       18.078976
  0
LINE
  8
Default
 62
255
 10
     1095.862065
 20
     1001.244085
 30
       18.078976
 11
     1095.897769
 21
     1001.278918
 31
       18.067224
  0
LINE
  8
Default
 62
255
 10
     1095.897769
 20
     1001.278918
 30
       18.067224
 11
     1095.936715
 21
     1001.313890
 31
       18.055641
  0
LINE
  8
Default
 62
255
 10
     1093.839745
 20
     1002.007099
 30
       16.700153
 11
     1093.885300
 21
     1001.918450
 31
       16.676983
  0
LINE
  8
Default
 62
255
 10
     1093.885300
 20
     1001.918450
 30
       16.676983
 11
     1094.069292
 21
     1001.776291
 31
       16.722615
  0
LINE
  8
Default
 62
255
 10
     1094.069292
 20
     1001.776291
 30
       16.722615
 11
     1094.170628
 21
     1001.827704
 31
       16.740286
  0
LINE
  8
Default
 62
255
 10
     1094.170628
 20
     1001.827704
 30
       16.740286
 11
     1094.272119
 21
     1001.892718
 31
       16.678221
  0
LINE
  8
Default
 62
255
 10
     1094.272119
 20
     1001.892718
 30
       16.678221
 11
     1094.325049
 21
     1001.926799
 31
       16.818568
  0
LINE
  8
Default
 62
255
 10
     1094.325049
 20
     1001.926799
 30
       16.818568
 11
     1094.392641
 21
     1002.027657
 31
       16.801047
  0
LINE
  8
Default
 62
255
 10
     1094.272119
 20
     1001.892718
 30
       16.678221
 11
     1094.231424
 21
     1001.948946
 31
       16.552610
  0
LINE
  8
Default
 62
255
 10
     1093.839745
 20
     1002.007099
 30
       16.700153
 11
     1093.905919
 21
     1002.098478
 31
       16.554326
  0
LINE
  8
Default
 62
255
 10
     1093.905919
 20
     1002.098478
 30
       16.554326
 11
     1093.988289
 21
     1002.162880
 31
       16.527117
  0
LINE
  8
Default
 62
255
 10
     1094.061633
 20
     1002.275414
 30
       16.601114
 11
     1094.087843
 21
     1002.342461
 31
       16.648861
  0
LINE
  8
Default
 62
255
 10
     1094.455666
 20
     1002.091511
 30
       16.806698
 11
     1094.392641
 21
     1002.027657
 31
       16.801047
  0
LINE
  8
Default
 62
255
 10
     1094.231424
 20
     1001.948946
 30
       16.552610
 11
     1094.254232
 21
     1002.079030
 31
       16.470186
  0
LINE
  8
Default
 62
255
 10
     1094.254232
 20
     1002.079030
 30
       16.470186
 11
     1094.271263
 21
     1002.128169
 31
       16.474436
  0
LINE
  8
Default
 62
255
 10
     1094.189588
 20
     1002.646428
 30
       16.871035
 11
     1094.118673
 21
     1002.524583
 31
       16.806392
  0
LINE
  8
Default
 62
255
 10
     1095.199322
 20
     1000.929656
 30
       18.127871
 11
     1095.192729
 21
     1000.843816
 31
       18.145972
  0
LINE
  8
Default
 62
255
 10
     1095.192729
 20
     1000.843816
 30
       18.145972
 11
     1095.078515
 21
     1000.808115
 31
       18.121951
  0
LINE
  8
Default
 62
255
 10
     1095.078515
 20
     1000.808115
 30
       18.121951
 11
     1094.808148
 21
     1000.829448
 31
       18.112045
  0
LINE
  8
Default
 62
255
 10
     1094.808148
 20
     1000.829448
 30
       18.112045
 11
     1094.604771
 21
     1000.902329
 31
       18.102548
  0
LINE
  8
Default
 62
255
 10
     1094.604771
 20
     1000.902329
 30
       18.102548
 11
     1094.418719
 21
     1001.009100
 31
       18.130959
  0
LINE
  8
Default
 62
255
 10
     1094.220353
 20
     1001.091938
 30
       18.087469
 11
     1094.418719
 21
     1001.009100
 31
       18.130959
  0
LINE
  8
Default
 62
255
 10
     1094.220353
 20
     1001.091938
 30
       18.087469
 11
     1094.049675
 21
     1001.185944
 31
       18.070109
  0
LINE
  8
Default
 62
255
 10
     1094.049675
 20
     1001.185944
 30
       18.070109
 11
     1093.928496
 21
     1001.327204
 31
       18.067991
  0
LINE
  8
Default
 62
255
 10
     1093.928496
 20
     1001.327204
 30
       18.067991
 11
     1093.799347
 21
     1001.383439
 31
       17.988260
  0
LINE
  8
Default
 62
255
 10
     1093.799347
 20
     1001.383439
 30
       17.988260
 11
     1093.677447
 21
     1001.484355
 31
       17.982490
  0
LINE
  8
Default
 62
255
 10
     1093.677447
 20
     1001.484355
 30
       17.982490
 11
     1093.399816
 21
     1001.720426
 31
       17.816066
  0
LINE
  8
Default
 62
255
 10
     1093.399816
 20
     1001.720426
 30
       17.816066
 11
     1093.323763
 21
     1001.819094
 31
       17.795301
  0
LINE
  8
Default
 62
255
 10
     1093.323763
 20
     1001.819094
 30
       17.795301
 11
     1093.357586
 21
     1002.034319
 31
       17.811592
  0
LINE
  8
Default
 62
255
 10
     1093.357586
 20
     1002.034319
 30
       17.811592
 11
     1093.374317
 21
     1002.115464
 31
       17.795371
  0
LINE
  8
Default
 62
255
 10
     1096.407730
 20
     1002.408773
 30
       17.754818
 11
     1096.469304
 21
     1002.558053
 31
       17.759878
  0
LINE
  8
Default
 62
255
 10
     1096.008009
 20
     1001.298798
 30
       18.163982
 11
     1095.936715
 21
     1001.313890
 31
       18.055641
  0
LINE
  8
Default
 62
255
 10
     1093.867573
 20
     1002.823048
 30
       18.177026
 11
     1094.495677
 21
     1003.483357
 31
       17.740150
  0
LINE
  8
Default
 62
255
 10
     1093.988289
 20
     1002.162880
 30
       16.527117
 11
     1094.061633
 21
     1002.275414
 31
       16.601114
  0
ENDSEC
  0
EOF
