  0
SECTION
  2
HEADER
  9
$PDMODE
 70
   34
  9
$PDSIZE
 40
   -3.0
  0
ENDSEC
  0
SECTION
  2
TABLES
  0
TABLE
  2
LTYPE
 70
 1
  0
LTYPE
  2
CONTINUOUS
  70
 64
  3
Solid line
  72
 65
 73
 0
  40
 0.0
  0
ENDTAB
  0
TABLE
  2
LAYER
 70
 1
 0
LAYER
  2
Default
  70
 0
 62
 7
  6
CONTINUOUS
  0
ENDTAB
  0 
ENDSEC
  0
SECTION
  2
ENTITIES
  0
POINT
  8
Default
 62
255
 10
     1093.848334
 20
      998.040938
 30
       18.920440
  0
POINT
  8
Default
 62
255
 10
     1092.864142
 20
      997.174381
 30
       18.939100
  0
POINT
  8
Default
 62
255
 10
     1092.217472
 20
      997.863436
 30
       18.369178
  0
POINT
  8
Default
 62
255
 10
     1092.883052
 20
      998.584245
 30
       18.339282
  0
POINT
  8
Default
 62
255
 10
     1093.531154
 20
      998.030660
 30
       18.353078
  0
POINT
  8
Default
 62
255
 10
     1093.543075
 20
      997.968333
 30
       18.352986
  0
POINT
  8
Default
 62
255
 10
     1092.812322
 20
      997.181279
 30
       18.939102
  0
POINT
  8
Default
 62
255
 10
     1092.831115
 20
      997.291367
 30
       18.944396
  0
POINT
  8
Default
 62
255
 10
     1092.790430
 20
      997.382779
 30
       18.524947
  0
POINT
  8
Default
 62
255
 10
     1092.277138
 20
      997.874821
 30
       18.361122
  0
POINT
  8
Default
 62
255
 10
     1092.547633
 20
      997.958738
 30
       18.470211
  0
POINT
  8
Default
 62
255
 10
     1092.577849
 20
      997.716309
 30
       18.508083
  0
POINT
  8
Default
 62
255
 10
     1092.741803
 20
      997.878483
 30
       18.404180
  0
POINT
  8
Default
 62
255
 10
     1092.469099
 20
      998.076280
 30
       18.347916
  0
POINT
  8
Default
 62
255
 10
     1092.835321
 20
      998.477199
 30
       18.337106
  0
POINT
  8
Default
 62
255
 10
     1092.929791
 20
      998.471705
 30
       18.337266
  0
POINT
  8
Default
 62
255
 10
     1093.271877
 20
      998.122745
 30
       18.334383
  0
POINT
  8
Default
 62
255
 10
     1093.215022
 20
      997.870943
 30
       18.455077
  0
POINT
  8
Default
 62
255
 10
     1092.745915
 20
      998.251385
 30
       18.334267
  0
POINT
  8
Default
 62
255
 10
     1092.890407
 20
      997.647789
 30
       18.421724
  0
POINT
  8
Default
 62
255
 10
     1092.320658
 20
      997.669515
 30
       18.521429
  0
POINT
  8
Default
 62
255
 10
     1092.891604
 20
      997.757055
 30
       18.407278
  0
POINT
  8
Default
 62
255
 10
     1092.975077
 20
      998.280178
 30
       18.320821
  0
POINT
  8
Default
 62
255
 10
     1093.485833
 20
      997.688759
 30
       18.485212
  0
POINT
  8
Default
 62
255
 10
     1093.454501
 20
      997.674372
 30
       18.454523
  0
POINT
  8
Default
 62
255
 10
     1093.419442
 20
      997.685414
 30
       18.420667
  0
POINT
  8
Default
 62
255
 10
     1093.398317
 20
      997.704238
 30
       18.434920
  0
POINT
  8
Default
 62
255
 10
     1093.367491
 20
      997.728470
 30
       18.456242
  0
POINT
  8
Default
 62
255
 10
     1093.326886
 20
      997.753375
 30
       18.454621
  0
POINT
  8
Default
 62
255
 10
     1093.279736
 20
      997.781667
 30
       18.459809
  0
POINT
  8
Default
 62
255
 10
     1093.243412
 20
      997.809000
 30
       18.458605
  0
POINT
  8
Default
 62
255
 10
     1093.201541
 20
      997.840319
 30
       18.461298
  0
POINT
  8
Default
 62
255
 10
     1093.170855
 20
      997.867798
 30
       18.457572
  0
POINT
  8
Default
 62
255
 10
     1093.132133
 20
      997.896179
 30
       18.456874
  0
POINT
  8
Default
 62
255
 10
     1093.097997
 20
      997.928536
 30
       18.457444
  0
POINT
  8
Default
 62
255
 10
     1093.063149
 20
      997.958707
 30
       18.453534
  0
POINT
  8
Default
 62
255
 10
     1093.027514
 20
      997.985804
 30
       18.442025
  0
POINT
  8
Default
 62
255
 10
     1092.984876
 20
      998.006388
 30
       18.426559
  0
POINT
  8
Default
 62
255
 10
     1092.947650
 20
      998.032624
 30
       18.418840
  0
POINT
  8
Default
 62
255
 10
     1092.906808
 20
      998.058186
 30
       18.407360
  0
POINT
  8
Default
 62
255
 10
     1092.878407
 20
      998.084151
 30
       18.394399
  0
POINT
  8
Default
 62
255
 10
     1092.843402
 20
      998.108140
 30
       18.385933
  0
POINT
  8
Default
 62
255
 10
     1092.806379
 20
      998.140962
 30
       18.388066
  0
POINT
  8
Default
 62
255
 10
     1092.762970
 20
      998.172123
 30
       18.388912
  0
POINT
  8
Default
 62
255
 10
     1092.727096
 20
      998.187396
 30
       18.368125
  0
POINT
  8
Default
 62
255
 10
     1092.687699
 20
      998.201316
 30
       18.348229
  0
POINT
  8
Default
 62
255
 10
     1092.649148
 20
      998.220312
 30
       18.342438
  0
POINT
  8
Default
 62
255
 10
     1092.603870
 20
      998.237995
 30
       18.335238
  0
POINT
  8
Default
 62
255
 10
     1092.561407
 20
      998.242468
 30
       18.336353
  0
POINT
  8
Default
 62
255
 10
     1092.514246
 20
      998.232646
 30
       18.341333
  0
POINT
  8
Default
 62
255
 10
     1092.480816
 20
      998.192504
 30
       18.340024
  0
POINT
  8
Default
 62
255
 10
     1092.476471
 20
      998.146626
 30
       18.343082
  0
POINT
  8
Default
 62
255
 10
     1092.497965
 20
      998.105561
 30
       18.349856
  0
POINT
  8
Default
 62
255
 10
     1092.535053
 20
      998.084744
 30
       18.349178
  0
POINT
  8
Default
 62
255
 10
     1092.576290
 20
      998.092339
 30
       18.354513
  0
POINT
  8
Default
 62
255
 10
     1092.617637
 20
      998.095039
 30
       18.370146
  0
POINT
  8
Default
 62
255
 10
     1092.646754
 20
      998.075874
 30
       18.396226
  0
POINT
  8
Default
 62
255
 10
     1092.668223
 20
      998.030377
 30
       18.398038
  0
POINT
  8
Default
 62
255
 10
     1092.688326
 20
      997.985696
 30
       18.385351
  0
POINT
  8
Default
 62
255
 10
     1092.713161
 20
      997.935823
 30
       18.378388
  0
POINT
  8
Default
 62
255
 10
     1092.759516
 20
      997.825087
 30
       18.409319
  0
POINT
  8
Default
 62
255
 10
     1092.783605
 20
      997.778583
 30
       18.410195
  0
POINT
  8
Default
 62
255
 10
     1092.814829
 20
      997.741111
 30
       18.414028
  0
POINT
  8
Default
 62
255
 10
     1092.847080
 20
      997.696270
 30
       18.418866
  0
POINT
  8
Default
 62
255
 10
     1092.873327
 20
      997.664274
 30
       18.420915
  0
POINT
  8
Default
 62
255
 10
     1092.950892
 20
      997.625659
 30
       18.424551
  0
POINT
  8
Default
 62
255
 10
     1093.023923
 20
      997.601147
 30
       18.430846
  0
POINT
  8
Default
 62
255
 10
     1093.078991
 20
      997.570127
 30
       18.440347
  0
POINT
  8
Default
 62
255
 10
     1093.138971
 20
      997.536854
 30
       18.453429
  0
POINT
  8
Default
 62
255
 10
     1093.156408
 20
      997.501517
 30
       18.458945
  0
POINT
  8
Default
 62
255
 10
     1093.148224
 20
      997.445726
 30
       18.467277
  0
POINT
  8
Default
 62
255
 10
     1093.112449
 20
      997.390239
 30
       18.467234
  0
POINT
  8
Default
 62
255
 10
     1093.070138
 20
      997.453149
 30
       18.454666
  0
POINT
  8
Default
 62
255
 10
     1093.024772
 20
      997.416007
 30
       18.461663
  0
POINT
  8
Default
 62
255
 10
     1092.984906
 20
      997.369646
 30
       18.468702
  0
POINT
  8
Default
 62
255
 10
     1092.926736
 20
      997.361707
 30
       18.471926
  0
POINT
  8
Default
 62
255
 10
     1092.884180
 20
      997.381010
 30
       18.465343
  0
POINT
  8
Default
 62
255
 10
     1092.825485
 20
      997.405130
 30
       18.465599
  0
POINT
  8
Default
 62
255
 10
     1092.750555
 20
      997.431430
 30
       18.498000
  0
POINT
  8
Default
 62
255
 10
     1092.717421
 20
      997.437779
 30
       18.528146
  0
POINT
  8
Default
 62
255
 10
     1092.674067
 20
      997.444734
 30
       18.588713
  0
POINT
  8
Default
 62
255
 10
     1092.634407
 20
      997.455717
 30
       18.626769
  0
POINT
  8
Default
 62
255
 10
     1093.518267
 20
      997.724401
 30
       18.499049
  0
POINT
  8
Default
 62
255
 10
     1093.501616
 20
      997.759380
 30
       18.489263
  0
POINT
  8
Default
 62
255
 10
     1093.474128
 20
      997.791679
 30
       18.469711
  0
POINT
  8
Default
 62
255
 10
     1093.471738
 20
      997.831556
 30
       18.456529
  0
POINT
  8
Default
 62
255
 10
     1093.477242
 20
      997.866679
 30
       18.426699
  0
POINT
  8
Default
 62
255
 10
     1093.491638
 20
      997.883196
 30
       18.382703
  0
POINT
  8
Default
 62
255
 10
     1093.517426
 20
      997.915146
 30
       18.361487
  0
POINT
  8
Default
 62
255
 10
     1093.521592
 20
      997.960798
 30
       18.360697
  0
POINT
  8
Default
 62
255
 10
     1093.479359
 20
      997.986527
 30
       18.355012
  0
POINT
  8
Default
 62
255
 10
     1093.445550
 20
      998.014966
 30
       18.347729
  0
POINT
  8
Default
 62
255
 10
     1093.409639
 20
      998.039397
 30
       18.348385
  0
POINT
  8
Default
 62
255
 10
     1093.373141
 20
      998.060402
 30
       18.348431
  0
POINT
  8
Default
 62
255
 10
     1093.326957
 20
      998.084306
 30
       18.346821
  0
POINT
  8
Default
 62
255
 10
     1093.291787
 20
      998.107936
 30
       18.339776
  0
POINT
  8
Default
 62
255
 10
     1093.219946
 20
      998.175526
 30
       18.322847
  0
POINT
  8
Default
 62
255
 10
     1093.183100
 20
      998.218178
 30
       18.326758
  0
POINT
  8
Default
 62
255
 10
     1093.147786
 20
      998.247304
 30
       18.322373
  0
POINT
  8
Default
 62
255
 10
     1093.123081
 20
      998.281857
 30
       18.324321
  0
POINT
  8
Default
 62
255
 10
     1093.090158
 20
      998.314728
 30
       18.328038
  0
POINT
  8
Default
 62
255
 10
     1093.063840
 20
      998.351981
 30
       18.334897
  0
POINT
  8
Default
 62
255
 10
     1093.039700
 20
      998.387039
 30
       18.341252
  0
POINT
  8
Default
 62
255
 10
     1093.008907
 20
      998.425163
 30
       18.344039
  0
POINT
  8
Default
 62
255
 10
     1092.972603
 20
      998.443845
 30
       18.341691
  0
POINT
  8
Default
 62
255
 10
     1092.880915
 20
      998.476319
 30
       18.336539
  0
POINT
  8
Default
 62
255
 10
     1092.802768
 20
      998.493882
 30
       18.339712
  0
POINT
  8
Default
 62
255
 10
     1092.776777
 20
      998.525851
 30
       18.336614
  0
POINT
  8
Default
 62
255
 10
     1093.043168
 20
      998.505125
 30
       18.354022
  0
POINT
  8
Default
 62
255
 10
     1093.005476
 20
      998.494635
 30
       18.343370
  0
POINT
  8
Default
 62
255
 10
     1092.962950
 20
      998.475058
 30
       18.339741
  0
POINT
  8
Default
 62
255
 10
     1092.915361
 20
      998.457333
 30
       18.333239
  0
POINT
  8
Default
 62
255
 10
     1092.878396
 20
      998.432196
 30
       18.327777
  0
POINT
  8
Default
 62
255
 10
     1092.837960
 20
      998.410055
 30
       18.329782
  0
POINT
  8
Default
 62
255
 10
     1092.791423
 20
      998.392803
 30
       18.331690
  0
POINT
  8
Default
 62
255
 10
     1092.751028
 20
      998.383521
 30
       18.334453
  0
POINT
  8
Default
 62
255
 10
     1092.705989
 20
      998.362234
 30
       18.330540
  0
POINT
  8
Default
 62
255
 10
     1092.671917
 20
      998.329314
 30
       18.326777
  0
POINT
  8
Default
 62
255
 10
     1092.646840
 20
      998.289181
 30
       18.327291
  0
POINT
  8
Default
 62
255
 10
     1092.620057
 20
      998.250313
 30
       18.330490
  0
POINT
  8
Default
 62
255
 10
     1092.590232
 20
      998.207941
 30
       18.338332
  0
POINT
  8
Default
 62
255
 10
     1092.568958
 20
      998.177478
 30
       18.341189
  0
POINT
  8
Default
 62
255
 10
     1092.430220
 20
      998.039839
 30
       18.352950
  0
POINT
  8
Default
 62
255
 10
     1092.391273
 20
      998.010561
 30
       18.360133
  0
POINT
  8
Default
 62
255
 10
     1092.366270
 20
      997.976203
 30
       18.362816
  0
POINT
  8
Default
 62
255
 10
     1092.337047
 20
      997.940231
 30
       18.365796
  0
POINT
  8
Default
 62
255
 10
     1092.302312
 20
      997.908675
 30
       18.360328
  0
POINT
  8
Default
 62
255
 10
     1092.293367
 20
      997.797069
 30
       18.383793
  0
POINT
  8
Default
 62
255
 10
     1092.328026
 20
      997.796002
 30
       18.412029
  0
POINT
  8
Default
 62
255
 10
     1092.356752
 20
      997.780557
 30
       18.446093
  0
POINT
  8
Default
 62
255
 10
     1092.377114
 20
      997.744481
 30
       18.474178
  0
POINT
  8
Default
 62
255
 10
     1092.385571
 20
      997.595366
 30
       18.585169
  0
POINT
  8
Default
 62
255
 10
     1092.417631
 20
      997.557357
 30
       18.601119
  0
POINT
  8
Default
 62
255
 10
     1092.453095
 20
      997.526586
 30
       18.605765
  0
POINT
  8
Default
 62
255
 10
     1092.480942
 20
      997.497450
 30
       18.626052
  0
POINT
  8
Default
 62
255
 10
     1092.506244
 20
      997.466320
 30
       18.648229
  0
POINT
  8
Default
 62
255
 10
     1092.549555
 20
      997.461838
 30
       18.647317
  0
POINT
  8
Default
 62
255
 10
     1092.552186
 20
      997.508300
 30
       18.635885
  0
POINT
  8
Default
 62
255
 10
     1092.542260
 20
      997.539405
 30
       18.604362
  0
POINT
  8
Default
 62
255
 10
     1092.552695
 20
      997.558326
 30
       18.571364
  0
POINT
  8
Default
 62
255
 10
     1092.588337
 20
      997.539138
 30
       18.561263
  0
POINT
  8
Default
 62
255
 10
     1092.610122
 20
      997.540807
 30
       18.531788
  0
POINT
  8
Default
 62
255
 10
     1092.616888
 20
      997.561199
 30
       18.488765
  0
POINT
  8
Default
 62
255
 10
     1092.639850
 20
      997.586473
 30
       18.463148
  0
POINT
  8
Default
 62
255
 10
     1092.659560
 20
      997.624060
 30
       18.455657
  0
POINT
  8
Default
 62
255
 10
     1092.689851
 20
      997.652642
 30
       18.444404
  0
POINT
  8
Default
 62
255
 10
     1092.708551
 20
      997.698943
 30
       18.433113
  0
POINT
  8
Default
 62
255
 10
     1092.719866
 20
      997.744559
 30
       18.423920
  0
POINT
  8
Default
 62
255
 10
     1092.740465
 20
      997.784732
 30
       18.416043
  0
POINT
  8
Default
 62
255
 10
     1092.781445
 20
      997.874404
 30
       18.399412
  0
POINT
  8
Default
 62
255
 10
     1092.801398
 20
      997.914906
 30
       18.390816
  0
POINT
  8
Default
 62
255
 10
     1092.827630
 20
      997.957042
 30
       18.390745
  0
POINT
  8
Default
 62
255
 10
     1092.852353
 20
      997.998303
 30
       18.402315
  0
POINT
  8
Default
 62
255
 10
     1092.881370
 20
      998.036243
 30
       18.403877
  0
POINT
  8
Default
 62
255
 10
     1092.919489
 20
      998.071034
 30
       18.399883
  0
POINT
  8
Default
 62
255
 10
     1092.956166
 20
      998.098153
 30
       18.390467
  0
POINT
  8
Default
 62
255
 10
     1092.997100
 20
      998.117352
 30
       18.380312
  0
POINT
  8
Default
 62
255
 10
     1093.018485
 20
      998.137166
 30
       18.342961
  0
POINT
  8
Default
 62
255
 10
     1092.982888
 20
      998.150628
 30
       18.333970
  0
POINT
  8
Default
 62
255
 10
     1092.977502
 20
      998.173031
 30
       18.330867
  0
POINT
  8
Default
 62
255
 10
     1093.020147
 20
      998.190218
 30
       18.325261
  0
POINT
  8
Default
 62
255
 10
     1093.022641
 20
      998.235094
 30
       18.314548
  0
POINT
  8
Default
 62
255
 10
     1093.031716
 20
      998.279354
 30
       18.319105
  0
POINT
  8
Default
 62
255
 10
     1093.055367
 20
      998.321792
 30
       18.324649
  0
POINT
  8
Default
 62
255
 10
     1093.090785
 20
      998.346122
 30
       18.334269
  0
POINT
  8
Default
 62
255
 10
     1093.129744
 20
      998.363179
 30
       18.342286
  0
POINT
  8
Default
 62
255
 10
     1093.162027
 20
      998.368474
 30
       18.375368
  0
POINT
  8
Default
 62
255
 10
     1093.400624
 20
      998.208007
 30
       18.401464
  0
POINT
  8
Default
 62
255
 10
     1093.445072
 20
      998.182886
 30
       18.397468
  0
POINT
  8
Default
 62
255
 10
     1093.396651
 20
      998.164864
 30
       18.359282
  0
POINT
  8
Default
 62
255
 10
     1093.368366
 20
      998.142395
 30
       18.357104
  0
POINT
  8
Default
 62
255
 10
     1093.346690
 20
      998.110898
 30
       18.351612
  0
POINT
  8
Default
 62
255
 10
     1093.296901
 20
      998.036501
 30
       18.351224
  0
POINT
  8
Default
 62
255
 10
     1093.259216
 20
      997.960018
 30
       18.371696
  0
POINT
  8
Default
 62
255
 10
     1093.244047
 20
      997.925658
 30
       18.413507
  0
POINT
  8
Default
 62
255
 10
     1093.231264
 20
      997.901095
 30
       18.440518
  0
POINT
  8
Default
 62
255
 10
     1093.163629
 20
      997.822409
 30
       18.441296
  0
POINT
  8
Default
 62
255
 10
     1093.129006
 20
      997.818557
 30
       18.427728
  0
POINT
  8
Default
 62
255
 10
     1093.072640
 20
      997.822372
 30
       18.413878
  0
POINT
  8
Default
 62
255
 10
     1093.035624
 20
      997.830121
 30
       18.411036
  0
POINT
  8
Default
 62
255
 10
     1092.988911
 20
      997.806536
 30
       18.417139
  0
POINT
  8
Default
 62
255
 10
     1092.985215
 20
      997.769220
 30
       18.426490
  0
POINT
  8
Default
 62
255
 10
     1092.968076
 20
      997.715707
 30
       18.433294
  0
POINT
  8
Default
 62
255
 10
     1092.945880
 20
      997.684162
 30
       18.425921
  0
POINT
  8
Default
 62
255
 10
     1092.917019
 20
      997.660854
 30
       18.421167
  0
POINT
  8
Default
 62
255
 10
     1092.876472
 20
      997.588878
 30
       18.438392
  0
POINT
  8
Default
 62
255
 10
     1092.888672
 20
      997.555317
 30
       18.447719
  0
POINT
  8
Default
 62
255
 10
     1092.896267
 20
      997.499036
 30
       18.446766
  0
POINT
  8
Default
 62
255
 10
     1092.888978
 20
      997.462595
 30
       18.437423
  0
POINT
  8
Default
 62
255
 10
     1092.843145
 20
      997.432760
 30
       18.444017
  0
POINT
  8
Default
 62
255
 10
     1092.797820
 20
      997.389600
 30
       18.490544
  0
POINT
  8
Default
 62
255
 10
     1092.779448
 20
      997.377885
 30
       18.593361
  0
POINT
  8
Default
 62
255
 10
     1092.774646
 20
      997.373900
 30
       18.633670
  0
POINT
  8
Default
 62
255
 10
     1092.769746
 20
      997.370834
 30
       18.688220
  0
POINT
  8
Default
 62
255
 10
     1092.768892
 20
      997.368900
 30
       18.726025
  0
POINT
  8
Default
 62
255
 10
     1092.764009
 20
      997.368815
 30
       18.781616
  0
POINT
  8
Default
 62
255
 10
     1092.763934
 20
      997.366772
 30
       18.821069
  0
POINT
  8
Default
 62
255
 10
     1092.758284
 20
      997.366022
 30
       18.880832
  0
POINT
  8
Default
 62
255
 10
     1092.772976
 20
      997.356138
 30
       18.915378
  0
POINT
  8
Default
 62
255
 10
     1092.806589
 20
      997.323257
 30
       18.942156
  0
POINT
  8
Default
 62
255
 10
     1092.866622
 20
      997.243626
 30
       18.942238
  0
POINT
  8
Default
 62
255
 10
     1092.894729
 20
      997.215664
 30
       18.935618
  0
POINT
  8
Default
 62
255
 10
     1092.908321
 20
      997.173169
 30
       18.920251
  0
POINT
  8
Default
 62
255
 10
     1092.926950
 20
      997.171676
 30
       18.917934
  0
POINT
  8
Default
 62
255
 10
     1092.968214
 20
      997.157398
 30
       18.883639
  0
POINT
  8
Default
 62
255
 10
     1092.991549
 20
      997.153309
 30
       18.855039
  0
POINT
  8
Default
 62
255
 10
     1093.032118
 20
      997.154027
 30
       18.811677
  0
POINT
  8
Default
 62
255
 10
     1093.063907
 20
      997.138722
 30
       18.803469
  0
POINT
  8
Default
 62
255
 10
     1093.095606
 20
      997.139208
 30
       18.786147
  0
POINT
  8
Default
 62
255
 10
     1093.076016
 20
      997.167239
 30
       18.765888
  0
POINT
  8
Default
 62
255
 10
     1093.058317
 20
      997.214334
 30
       18.770132
  0
POINT
  8
Default
 62
255
 10
     1093.054838
 20
      997.255672
 30
       18.778106
  0
POINT
  8
Default
 62
255
 10
     1093.056854
 20
      997.282854
 30
       18.733296
  0
POINT
  8
Default
 62
255
 10
     1093.057590
 20
      997.288906
 30
       18.701066
  0
POINT
  8
Default
 62
255
 10
     1093.062285
 20
      997.301725
 30
       18.652235
  0
POINT
  8
Default
 62
255
 10
     1093.066681
 20
      997.314093
 30
       18.611576
  0
POINT
  8
Default
 62
255
 10
     1093.071844
 20
      997.330530
 30
       18.559799
  0
POINT
  8
Default
 62
255
 10
     1093.076090
 20
      997.347310
 30
       18.525866
  0
POINT
  8
Default
 62
255
 10
     1093.087378
 20
      997.377367
 30
       18.478923
  0
POINT
  8
Default
 62
255
 10
     1093.097316
 20
      997.405092
 30
       18.456068
  0
POINT
  8
Default
 62
255
 10
     1093.103972
 20
      997.457137
 30
       18.450661
  0
POINT
  8
Default
 62
255
 10
     1093.119807
 20
      997.492098
 30
       18.462393
  0
POINT
  8
Default
 62
255
 10
     1093.168276
 20
      997.567387
 30
       18.441666
  0
POINT
  8
Default
 62
255
 10
     1093.205856
 20
      997.601878
 30
       18.430310
  0
POINT
  8
Default
 62
255
 10
     1093.234746
 20
      997.629757
 30
       18.427866
  0
POINT
  8
Default
 62
255
 10
     1093.275697
 20
      997.663578
 30
       18.434036
  0
POINT
  8
Default
 62
255
 10
     1093.303703
 20
      997.689267
 30
       18.445946
  0
POINT
  8
Default
 62
255
 10
     1093.344549
 20
      997.721715
 30
       18.452790
  0
POINT
  8
Default
 62
255
 10
     1093.375899
 20
      997.748592
 30
       18.449813
  0
POINT
  8
Default
 62
255
 10
     1093.402896
 20
      997.784020
 30
       18.418950
  0
POINT
  8
Default
 62
255
 10
     1093.405708
 20
      997.808610
 30
       18.389916
  0
POINT
  8
Default
 62
255
 10
     1093.420934
 20
      997.847534
 30
       18.367334
  0
POINT
  8
Default
 62
255
 10
     1093.425124
 20
      997.891418
 30
       18.356139
  0
POINT
  8
Default
 62
255
 10
     1093.472516
 20
      997.896214
 30
       18.349872
  0
POINT
  8
Default
 62
255
 10
     1093.579856
 20
      997.963532
 30
       18.363301
  0
POINT
  8
Default
 62
255
 10
     1093.550645
 20
      997.932637
 30
       18.391761
  0
POINT
  8
Default
 62
255
 10
     1093.583570
 20
      997.937692
 30
       18.372821
  0
POINT
  8
Default
 62
255
 10
     1093.602726
 20
      997.969987
 30
       18.373274
  0
POINT
  8
Default
 62
255
 10
     1093.625461
 20
      997.997122
 30
       18.405807
  0
POINT
  8
Default
 62
255
 10
     1093.638143
 20
      998.012307
 30
       18.443020
  0
POINT
  8
Default
 62
255
 10
     1093.657700
 20
      998.028079
 30
       18.490624
  0
POINT
  8
Default
 62
255
 10
     1093.665382
 20
      998.039506
 30
       18.529334
  0
POINT
  8
Default
 62
255
 10
     1093.671222
 20
      998.049106
 30
       18.579863
  0
POINT
  8
Default
 62
255
 10
     1093.678088
 20
      998.057611
 30
       18.620798
  0
POINT
  8
Default
 62
255
 10
     1093.685187
 20
      998.063476
 30
       18.673698
  0
POINT
  8
Default
 62
255
 10
     1093.688180
 20
      998.068813
 30
       18.709157
  0
POINT
  8
Default
 62
255
 10
     1093.693337
 20
      998.072854
 30
       18.763460
  0
POINT
  8
Default
 62
255
 10
     1093.696307
 20
      998.079955
 30
       18.803228
  0
POINT
  8
Default
 62
255
 10
     1093.704956
 20
      998.086179
 30
       18.853801
  0
POINT
  8
Default
 62
255
 10
     1093.076039
 20
      998.499362
 30
       18.408836
  0
POINT
  8
Default
 62
255
 10
     1093.093603
 20
      998.499202
 30
       18.453127
  0
POINT
  8
Default
 62
255
 10
     1093.100837
 20
      998.498952
 30
       18.494718
  0
POINT
  8
Default
 62
255
 10
     1093.108607
 20
      998.498316
 30
       18.544911
  0
POINT
  8
Default
 62
255
 10
     1093.107825
 20
      998.504424
 30
       18.587774
  0
POINT
  8
Default
 62
255
 10
     1093.109809
 20
      998.502663
 30
       18.636244
  0
POINT
  8
Default
 62
255
 10
     1093.111504
 20
      998.503481
 30
       18.682015
  0
POINT
  8
Default
 62
255
 10
     1093.113626
 20
      998.506814
 30
       18.734132
  0
POINT
  8
Default
 62
255
 10
     1093.117989
 20
      998.514632
 30
       18.781101
  0
POINT
  8
Default
 62
255
 10
     1093.137304
 20
      998.539601
 30
       18.808639
  0
POINT
  8
Default
 62
255
 10
     1093.160434
 20
      998.582507
 30
       18.810190
  0
POINT
  8
Default
 62
255
 10
     1093.173471
 20
      998.622786
 30
       18.821332
  0
POINT
  8
Default
 62
255
 10
     1093.172311
 20
      998.663353
 30
       18.841942
  0
POINT
  8
Default
 62
255
 10
     1093.167507
 20
      998.704098
 30
       18.858070
  0
POINT
  8
Default
 62
255
 10
     1093.200395
 20
      998.724209
 30
       18.845132
  0
POINT
  8
Default
 62
255
 10
     1093.211390
 20
      998.745034
 30
       18.846049
  0
POINT
  8
Default
 62
255
 10
     1093.253531
 20
      998.699797
 30
       18.826988
  0
POINT
  8
Default
 62
255
 10
     1093.290521
 20
      998.677631
 30
       18.830086
  0
POINT
  8
Default
 62
255
 10
     1093.326164
 20
      998.652872
 30
       18.850348
  0
POINT
  8
Default
 62
255
 10
     1093.347490
 20
      998.616554
 30
       18.853198
  0
POINT
  8
Default
 62
255
 10
     1093.366053
 20
      998.573966
 30
       18.840264
  0
POINT
  8
Default
 62
255
 10
     1093.374358
 20
      998.534035
 30
       18.827845
  0
POINT
  8
Default
 62
255
 10
     1093.365121
 20
      998.491390
 30
       18.832219
  0
POINT
  8
Default
 62
255
 10
     1093.340123
 20
      998.456476
 30
       18.846362
  0
POINT
  8
Default
 62
255
 10
     1093.398908
 20
      998.241352
 30
       18.442518
  0
POINT
  8
Default
 62
255
 10
     1093.395266
 20
      998.254076
 30
       18.471299
  0
POINT
  8
Default
 62
255
 10
     1093.393870
 20
      998.265131
 30
       18.531164
  0
POINT
  8
Default
 62
255
 10
     1093.394796
 20
      998.273887
 30
       18.570890
  0
POINT
  8
Default
 62
255
 10
     1093.169655
 20
      998.400455
 30
       18.403185
  0
POINT
  8
Default
 62
255
 10
     1093.142276
 20
      998.425532
 30
       18.419650
  0
POINT
  8
Default
 62
255
 10
     1093.148429
 20
      998.447610
 30
       18.462582
  0
POINT
  8
Default
 62
255
 10
     1093.147572
 20
      998.466433
 30
       18.505442
  0
POINT
  8
Default
 62
255
 10
     1093.146675
 20
      998.475770
 30
       18.555242
  0
POINT
  8
Default
 62
255
 10
     1093.257926
 20
      997.721129
 30
       18.451265
  0
POINT
  8
Default
 62
255
 10
     1093.194652
 20
      997.662208
 30
       18.437404
  0
POINT
  8
Default
 62
255
 10
     1093.130433
 20
      997.723336
 30
       18.437968
  0
POINT
  8
Default
 62
255
 10
     1093.170216
 20
      997.782994
 30
       18.443776
  0
POINT
  8
Default
 62
255
 10
     1093.083628
 20
      997.706887
 30
       18.428233
  0
POINT
  8
Default
 62
255
 10
     1093.046770
 20
      997.667488
 30
       18.425618
  0
POINT
  8
Default
 62
255
 10
     1093.045460
 20
      997.618568
 30
       18.428323
  0
POINT
  8
Default
 62
255
 10
     1093.114107
 20
      997.590347
 30
       18.440290
  0
POINT
  8
Default
 62
255
 10
     1093.320138
 20
      997.668633
 30
       18.452469
  0
POINT
  8
Default
 62
255
 10
     1093.274108
 20
      997.606228
 30
       18.446045
  0
POINT
  8
Default
 62
255
 10
     1093.241373
 20
      997.555990
 30
       18.443167
  0
POINT
  8
Default
 62
255
 10
     1093.209706
 20
      997.508884
 30
       18.440581
  0
POINT
  8
Default
 62
255
 10
     1093.311180
 20
      997.579765
 30
       18.459003
  0
POINT
  8
Default
 62
255
 10
     1093.402339
 20
      997.650236
 30
       18.428051
  0
POINT
  8
Default
 62
255
 10
     1093.290608
 20
      997.805481
 30
       18.456266
  0
POINT
  8
Default
 62
255
 10
     1093.341144
 20
      997.777840
 30
       18.447262
  0
POINT
  8
Default
 62
255
 10
     1093.324109
 20
      997.871123
 30
       18.403970
  0
POINT
  8
Default
 62
255
 10
     1093.429445
 20
      997.766530
 30
       18.422831
  0
POINT
  8
Default
 62
255
 10
     1093.272243
 20
      997.843018
 30
       18.449119
  0
POINT
  8
Default
 62
255
 10
     1093.196939
 20
      997.902784
 30
       18.453208
  0
POINT
  8
Default
 62
255
 10
     1093.308819
 20
      997.934796
 30
       18.361954
  0
POINT
  8
Default
 62
255
 10
     1092.592057
 20
      997.863344
 30
       18.459036
  0
POINT
  8
Default
 62
255
 10
     1092.502611
 20
      997.848212
 30
       18.457772
  0
POINT
  8
Default
 62
255
 10
     1092.450094
 20
      997.870628
 30
       18.441557
  0
POINT
  8
Default
 62
255
 10
     1092.466707
 20
      997.915995
 30
       18.430422
  0
POINT
  8
Default
 62
255
 10
     1092.613331
 20
      997.925167
 30
       18.449585
  0
POINT
  8
Default
 62
255
 10
     1092.438408
 20
      997.820508
 30
       18.471578
  0
POINT
  8
Default
 62
255
 10
     1092.398124
 20
      997.825328
 30
       18.452918
  0
POINT
  8
Default
 62
255
 10
     1092.527442
 20
      997.799051
 30
       18.484034
  0
POINT
  8
Default
 62
255
 10
     1092.517860
 20
      997.732115
 30
       18.504439
  0
POINT
  8
Default
 62
255
 10
     1092.625435
 20
      997.776296
 30
       18.460562
  0
POINT
  8
Default
 62
255
 10
     1092.633998
 20
      997.873029
 30
       18.445057
  0
POINT
  8
Default
 62
255
 10
     1092.548985
 20
      998.028189
 30
       18.398779
  0
POINT
  8
Default
 62
255
 10
     1092.539042
 20
      997.983417
 30
       18.421529
  0
POINT
  8
Default
 62
255
 10
     1092.610197
 20
      997.956153
 30
       18.392376
  0
POINT
  8
Default
 62
255
 10
     1092.656095
 20
      997.910384
 30
       18.416704
  0
POINT
  8
Default
 62
255
 10
     1092.449946
 20
      997.774798
 30
       18.495755
  0
POINT
  8
Default
 62
255
 10
     1092.508348
 20
      997.605481
 30
       18.610599
  0
POINT
  8
Default
 62
255
 10
     1092.480287
 20
      997.636109
 30
       18.608964
  0
POINT
  8
Default
 62
255
 10
     1092.493188
 20
      997.668797
 30
       18.586769
  0
POINT
  8
Default
 62
255
 10
     1092.530875
 20
      997.667343
 30
       18.549463
  0
POINT
  8
Default
 62
255
 10
     1092.480885
 20
      997.698428
 30
       18.558163
  0
POINT
  8
Default
 62
255
 10
     1092.414250
 20
      997.700818
 30
       18.597928
  0
POINT
  8
Default
 62
255
 10
     1092.436757
 20
      997.590564
 30
       18.621896
  0
POINT
  8
Default
 62
255
 10
     1092.466947
 20
      997.566152
 30
       18.634829
  0
POINT
  8
Default
 62
255
 10
     1092.439923
 20
      997.734468
 30
       18.564493
  0
POINT
  8
Default
 62
255
 10
     1092.437075
 20
      997.773586
 30
       18.526912
  0
POINT
  8
Default
 62
255
 10
     1092.515440
 20
      997.720961
 30
       18.533615
  0
POINT
  8
Default
 62
255
 10
     1092.561424
 20
      997.632088
 30
       18.551735
  0
POINT
  8
Default
 62
255
 10
     1092.576325
 20
      997.661659
 30
       18.493974
  0
POINT
  8
Default
 62
255
 10
     1092.580082
 20
      997.686132
 30
       18.473049
  0
POINT
  8
Default
 62
255
 10
     1092.574272
 20
      997.620938
 30
       18.517941
  0
POINT
  8
Default
 62
255
 10
     1092.443819
 20
      997.643422
 30
       18.627427
  0
POINT
  8
Default
 62
255
 10
     1092.584359
 20
      998.064612
 30
       18.373170
  0
POINT
  8
Default
 62
255
 10
     1092.650981
 20
      998.121912
 30
       18.367789
  0
POINT
  8
Default
 62
255
 10
     1092.723926
 20
      998.155471
 30
       18.386071
  0
POINT
  8
Default
 62
255
 10
     1092.802311
 20
      998.200444
 30
       18.377305
  0
POINT
  8
Default
 62
255
 10
     1092.935519
 20
      998.194721
 30
       18.331658
  0
POINT
  8
Default
 62
255
 10
     1092.891564
 20
      998.133164
 30
       18.381959
  0
POINT
  8
Default
 62
255
 10
     1093.035152
 20
      998.051089
 30
       18.417883
  0
POINT
  8
Default
 62
255
 10
     1093.127161
 20
      998.054201
 30
       18.373035
  0
POINT
  8
Default
 62
255
 10
     1093.139352
 20
      997.978736
 30
       18.432844
  0
POINT
  8
Default
 62
255
 10
     1093.060979
 20
      998.101316
 30
       18.379810
  0
POINT
  8
Default
 62
255
 10
     1093.203812
 20
      997.997423
 30
       18.359267
  0
POINT
  8
Default
 62
255
 10
     1093.347330
 20
      997.889309
 30
       18.401720
  0
POINT
  8
Default
 62
255
 10
     1093.398312
 20
      997.772231
 30
       18.431764
  0
POINT
  8
Default
 62
255
 10
     1093.048336
 20
      997.908917
 30
       18.413295
  0
POINT
  8
Default
 62
255
 10
     1092.875347
 20
      997.888803
 30
       18.377386
  0
POINT
  8
Default
 62
255
 10
     1092.953565
 20
      997.845624
 30
       18.400035
  0
POINT
  8
Default
 62
255
 10
     1092.827760
 20
      997.785440
 30
       18.405130
  0
POINT
  8
Default
 62
255
 10
     1092.950453
 20
      997.768047
 30
       18.419468
  0
POINT
  8
Default
 62
255
 10
     1092.969819
 20
      997.959052
 30
       18.407627
  0
POINT
  8
Default
 62
255
 10
     1092.883621
 20
      997.975333
 30
       18.405990
  0
POINT
  8
Default
 62
255
 10
     1092.716382
 20
      998.065131
 30
       18.393839
  0
POINT
  8
Default
 62
255
 10
     1092.769946
 20
      998.027365
 30
       18.399261
  0
POINT
  8
Default
 62
255
 10
     1092.822326
 20
      998.062549
 30
       18.383001
  0
POINT
  8
Default
 62
255
 10
     1092.761648
 20
      997.934897
 30
       18.353528
  0
POINT
  8
Default
 62
255
 10
     1092.597094
 20
      998.007932
 30
       18.390333
  0
POINT
  8
Default
 62
255
 10
     1092.658371
 20
      997.822291
 30
       18.414376
  0
POINT
  8
Default
 62
255
 10
     1092.626784
 20
      997.743839
 30
       18.432394
  0
POINT
  8
Default
 62
255
 10
     1092.682802
 20
      997.752079
 30
       18.427094
  0
POINT
  8
Default
 62
255
 10
     1092.650812
 20
      997.673308
 30
       18.444740
  0
POINT
  8
Default
 62
255
 10
     1092.600695
 20
      997.618082
 30
       18.468845
  0
POINT
  8
Default
 62
255
 10
     1092.595807
 20
      997.565361
 30
       18.507659
  0
POINT
  8
Default
 62
255
 10
     1092.690003
 20
      997.482286
 30
       18.498202
  0
POINT
  8
Default
 62
255
 10
     1092.652906
 20
      997.536749
 30
       18.516119
  0
POINT
  8
Default
 62
255
 10
     1092.689160
 20
      997.542682
 30
       18.465923
  0
POINT
  8
Default
 62
255
 10
     1092.725896
 20
      997.556116
 30
       18.457177
  0
POINT
  8
Default
 62
255
 10
     1092.786277
 20
      997.578584
 30
       18.443195
  0
POINT
  8
Default
 62
255
 10
     1092.780587
 20
      997.474684
 30
       18.472170
  0
POINT
  8
Default
 62
255
 10
     1092.838581
 20
      997.511503
 30
       18.457711
  0
POINT
  8
Default
 62
255
 10
     1092.755827
 20
      997.705209
 30
       18.416037
  0
POINT
  8
Default
 62
255
 10
     1093.015186
 20
      997.520807
 30
       18.443994
  0
POINT
  8
Default
 62
255
 10
     1092.992265
 20
      997.441715
 30
       18.456183
  0
POINT
  8
Default
 62
255
 10
     1092.964985
 20
      997.545529
 30
       18.431655
  0
POINT
  8
Default
 62
255
 10
     1092.903892
 20
      997.442919
 30
       18.444894
  0
POINT
  8
Default
 62
255
 10
     1093.067573
 20
      997.514904
 30
       18.447289
  0
POINT
  8
Default
 62
255
 10
     1092.847900
 20
      997.359095
 30
       18.474956
  0
POINT
  8
Default
 62
255
 10
     1092.910872
 20
      997.331432
 30
       18.476729
  0
POINT
  8
Default
 62
255
 10
     1093.006732
 20
      997.336159
 30
       18.471842
  0
POINT
  8
Default
 62
255
 10
     1093.031368
 20
      997.296843
 30
       18.555408
  0
POINT
  8
Default
 62
255
 10
     1092.974035
 20
      997.284863
 30
       18.591399
  0
POINT
  8
Default
 62
255
 10
     1092.865771
 20
      997.331378
 30
       18.598701
  0
POINT
  8
Default
 62
255
 10
     1092.774586
 20
      997.396484
 30
       18.501707
  0
POINT
  8
Default
 62
255
 10
     1092.740220
 20
      997.393003
 30
       18.607291
  0
POINT
  8
Default
 62
255
 10
     1092.699198
 20
      997.412274
 30
       18.637379
  0
POINT
  8
Default
 62
255
 10
     1092.841158
 20
      997.344798
 30
       18.534843
  0
POINT
  8
Default
 62
255
 10
     1093.065290
 20
      998.603571
 30
       18.884870
  0
POINT
  8
Default
 62
255
 10
     1093.057750
 20
      998.570617
 30
       18.870319
  0
POINT
  8
Default
 62
255
 10
     1093.110094
 20
      998.553743
 30
       18.829426
  0
POINT
  8
Default
 62
255
 10
     1093.198956
 20
      998.445736
 30
       18.912290
  0
POINT
  8
Default
 62
255
 10
     1093.223671
 20
      998.496715
 30
       18.908065
  0
POINT
  8
Default
 62
255
 10
     1093.257113
 20
      998.458998
 30
       18.883846
  0
POINT
  8
Default
 62
255
 10
     1093.237021
 20
      998.383427
 30
       18.843490
  0
POINT
  8
Default
 62
255
 10
     1093.285028
 20
      998.362913
 30
       18.813059
  0
POINT
  8
Default
 62
255
 10
     1093.332469
 20
      998.401642
 30
       18.835687
  0
POINT
  8
Default
 62
255
 10
     1093.330540
 20
      998.334001
 30
       18.770581
  0
POINT
  8
Default
 62
255
 10
     1093.398225
 20
      998.425898
 30
       18.811514
  0
POINT
  8
Default
 62
255
 10
     1093.382634
 20
      998.308674
 30
       18.720125
  0
POINT
  8
Default
 62
255
 10
     1093.411372
 20
      998.338396
 30
       18.751857
  0
POINT
  8
Default
 62
255
 10
     1093.439581
 20
      998.311022
 30
       18.779234
  0
POINT
  8
Default
 62
255
 10
     1093.501496
 20
      998.260813
 30
       18.772830
  0
POINT
  8
Default
 62
255
 10
     1093.491857
 20
      998.379136
 30
       18.824559
  0
POINT
  8
Default
 62
255
 10
     1093.560432
 20
      998.268664
 30
       18.822445
  0
POINT
  8
Default
 62
255
 10
     1093.583131
 20
      998.315337
 30
       18.840891
  0
POINT
  8
Default
 62
255
 10
     1093.554484
 20
      998.351660
 30
       18.836662
  0
POINT
  8
Default
 62
255
 10
     1093.583828
 20
      998.235015
 30
       18.804481
  0
POINT
  8
Default
 62
255
 10
     1093.623368
 20
      998.288634
 30
       18.832868
  0
POINT
  8
Default
 62
255
 10
     1093.545420
 20
      998.211990
 30
       18.705563
  0
POINT
  8
Default
 62
255
 10
     1093.461060
 20
      998.238826
 30
       18.621572
  0
POINT
  8
Default
 62
255
 10
     1093.499911
 20
      998.333822
 30
       18.827249
  0
POINT
  8
Default
 62
255
 10
     1093.638051
 20
      998.123206
 30
       18.876374
  0
POINT
  8
Default
 62
255
 10
     1093.641822
 20
      998.230869
 30
       18.866288
  0
POINT
  8
Default
 62
255
 10
     1093.595031
 20
      998.145127
 30
       18.834207
  0
POINT
  8
Default
 62
255
 10
     1093.615055
 20
      998.182166
 30
       18.875241
  0
POINT
  8
Default
 62
255
 10
     1093.695123
 20
      998.174412
 30
       18.873229
  0
POINT
  8
Default
 62
255
 10
     1093.714369
 20
      998.133098
 30
       18.853683
  0
POINT
  8
Default
 62
255
 10
     1093.658989
 20
      998.198286
 30
       18.885316
  0
POINT
  8
Default
 62
255
 10
     1093.589851
 20
      998.175825
 30
       18.763328
  0
POINT
  8
Default
 62
255
 10
     1093.764851
 20
      997.986788
 30
       18.807451
  0
POINT
  8
Default
 62
255
 10
     1093.749299
 20
      998.030994
 30
       18.884531
  0
POINT
  8
Default
 62
255
 10
     1093.710467
 20
      998.059350
 30
       18.861035
  0
POINT
  8
Default
 62
255
 10
     1093.772627
 20
      998.095548
 30
       18.895074
  0
POINT
  8
Default
 62
255
 10
     1093.787039
 20
      998.061517
 30
       18.901748
  0
POINT
  8
Default
 62
255
 10
     1093.788785
 20
      997.989904
 30
       18.883297
  0
POINT
  8
Default
 62
255
 10
     1093.792322
 20
      997.974775
 30
       18.811223
  0
POINT
  8
Default
 62
255
 10
     1093.811103
 20
      997.951360
 30
       18.882692
  0
POINT
  8
Default
 62
255
 10
     1093.846888
 20
      997.979854
 30
       18.913752
  0
POINT
  8
Default
 62
255
 10
     1093.811060
 20
      998.043757
 30
       18.913103
  0
POINT
  8
Default
 62
255
 10
     1092.925247
 20
      998.714142
 30
       18.769334
  0
POINT
  8
Default
 62
255
 10
     1092.976101
 20
      998.727791
 30
       18.766143
  0
POINT
  8
Default
 62
255
 10
     1092.982646
 20
      998.659219
 30
       18.821774
  0
POINT
  8
Default
 62
255
 10
     1093.001954
 20
      998.573993
 30
       18.834595
  0
POINT
  8
Default
 62
255
 10
     1093.090155
 20
      998.700541
 30
       18.887631
  0
POINT
  8
Default
 62
255
 10
     1093.006933
 20
      998.778877
 30
       18.790398
  0
POINT
  8
Default
 62
255
 10
     1092.859972
 20
      998.651010
 30
       18.372155
  0
POINT
  8
Default
 62
255
 10
     1092.928197
 20
      998.614346
 30
       18.344021
  0
POINT
  8
Default
 62
255
 10
     1093.000856
 20
      998.562877
 30
       18.346271
  0
POINT
  8
Default
 62
255
 10
     1093.075037
 20
      998.451560
 30
       18.350029
  0
POINT
  8
Default
 62
255
 10
     1093.110807
 20
      998.428120
 30
       18.359181
  0
POINT
  8
Default
 62
255
 10
     1093.143666
 20
      998.324585
 30
       18.328739
  0
POINT
  8
Default
 62
255
 10
     1093.216741
 20
      998.287676
 30
       18.355284
  0
POINT
  8
Default
 62
255
 10
     1093.246497
 20
      998.198365
 30
       18.336793
  0
POINT
  8
Default
 62
255
 10
     1093.289007
 20
      998.239653
 30
       18.386318
  0
POINT
  8
Default
 62
255
 10
     1093.352440
 20
      998.214993
 30
       18.384417
  0
POINT
  8
Default
 62
255
 10
     1093.311390
 20
      998.196324
 30
       18.358163
  0
POINT
  8
Default
 62
255
 10
     1093.342589
 20
      998.167597
 30
       18.346420
  0
POINT
  8
Default
 62
255
 10
     1093.295162
 20
      998.153270
 30
       18.342222
  0
POINT
  8
Default
 62
255
 10
     1093.423809
 20
      998.120245
 30
       18.353140
  0
POINT
  8
Default
 62
255
 10
     1093.469153
 20
      998.065642
 30
       18.352964
  0
POINT
  8
Default
 62
255
 10
     1093.497355
 20
      998.046724
 30
       18.352955
  0
POINT
  8
Default
 62
255
 10
     1093.571871
 20
      998.022911
 30
       18.357394
  0
POINT
  8
Default
 62
255
 10
     1093.457610
 20
      998.111633
 30
       18.360972
  0
POINT
  8
Default
 62
255
 10
     1093.436792
 20
      998.157312
 30
       18.370602
  0
POINT
  8
Default
 62
255
 10
     1093.614674
 20
      997.928658
 30
       18.434578
  0
POINT
  8
Default
 62
255
 10
     1093.651186
 20
      997.970753
 30
       18.430358
  0
POINT
  8
Default
 62
255
 10
     1093.586004
 20
      997.903636
 30
       18.436957
  0
POINT
  8
Default
 62
255
 10
     1093.502230
 20
      997.886672
 30
       18.421804
  0
POINT
  8
Default
 62
255
 10
     1093.594289
 20
      997.836548
 30
       18.509315
  0
POINT
  8
Default
 62
255
 10
     1093.561293
 20
      997.799044
 30
       18.505524
  0
POINT
  8
Default
 62
255
 10
     1093.541740
 20
      997.861063
 30
       18.504887
  0
POINT
  8
Default
 62
255
 10
     1093.484004
 20
      997.807328
 30
       18.492105
  0
POINT
  8
Default
 62
255
 10
     1093.508972
 20
      997.865870
 30
       18.498749
  0
POINT
  8
Default
 62
255
 10
     1093.594457
 20
      997.765138
 30
       18.509532
  0
POINT
  8
Default
 62
255
 10
     1093.639533
 20
      997.874115
 30
       18.498074
  0
POINT
  8
Default
 62
255
 10
     1093.542906
 20
      997.731584
 30
       18.513033
  0
POINT
  8
Default
 62
255
 10
     1093.443999
 20
      997.698395
 30
       18.418853
  0
POINT
  8
Default
 62
255
 10
     1093.482765
 20
      997.705510
 30
       18.465097
  0
POINT
  8
Default
 62
255
 10
     1093.362130
 20
      997.613677
 30
       18.439355
  0
POINT
  8
Default
 62
255
 10
     1093.348998
 20
      997.587978
 30
       18.495685
  0
POINT
  8
Default
 62
255
 10
     1093.385606
 20
      997.602231
 30
       18.485926
  0
POINT
  8
Default
 62
255
 10
     1093.419865
 20
      997.625671
 30
       18.482406
  0
POINT
  8
Default
 62
255
 10
     1093.447380
 20
      997.610399
 30
       18.508499
  0
POINT
  8
Default
 62
255
 10
     1093.455918
 20
      997.653563
 30
       18.490023
  0
POINT
  8
Default
 62
255
 10
     1093.273565
 20
      997.554725
 30
       18.511445
  0
POINT
  8
Default
 62
255
 10
     1093.511297
 20
      997.648393
 30
       18.576462
  0
POINT
  8
Default
 62
255
 10
     1093.611217
 20
      997.777360
 30
       18.598663
  0
POINT
  8
Default
 62
255
 10
     1093.411995
 20
      997.534142
 30
       18.629434
  0
POINT
  8
Default
 62
255
 10
     1093.343931
 20
      997.537978
 30
       18.618633
  0
POINT
  8
Default
 62
255
 10
     1093.298145
 20
      997.496056
 30
       18.642825
  0
POINT
  8
Default
 62
255
 10
     1093.322469
 20
      997.440289
 30
       18.737235
  0
POINT
  8
Default
 62
255
 10
     1093.187370
 20
      997.417416
 30
       18.761951
  0
POINT
  8
Default
 62
255
 10
     1093.093962
 20
      997.383253
 30
       18.633291
  0
POINT
  8
Default
 62
255
 10
     1093.139299
 20
      997.393784
 30
       18.554170
  0
POINT
  8
Default
 62
255
 10
     1093.212648
 20
      997.434193
 30
       18.523217
  0
POINT
  8
Default
 62
255
 10
     1093.138557
 20
      997.293490
 30
       18.742708
  0
POINT
  8
Default
 62
255
 10
     1093.086814
 20
      997.297284
 30
       18.713438
  0
POINT
  8
Default
 62
255
 10
     1093.114374
 20
      997.259781
 30
       18.732200
  0
POINT
  8
Default
 62
255
 10
     1093.163235
 20
      997.232465
 30
       18.765734
  0
POINT
  8
Default
 62
255
 10
     1093.136320
 20
      997.359126
 30
       18.799148
  0
POINT
  8
Default
 62
255
 10
     1093.062118
 20
      997.291248
 30
       18.615930
  0
POINT
  8
Default
 62
255
 10
     1093.066109
 20
      997.255402
 30
       18.646324
  0
POINT
  8
Default
 62
255
 10
     1092.265584
 20
      997.734769
 30
       18.420109
  0
POINT
  8
Default
 62
255
 10
     1092.348281
 20
      997.841176
 30
       18.382333
  0
POINT
  8
Default
 62
255
 10
     1092.393830
 20
      997.883086
 30
       18.379430
  0
POINT
  8
Default
 62
255
 10
     1092.469819
 20
      997.964596
 30
       18.371523
  0
POINT
  8
Default
 62
255
 10
     1092.480374
 20
      997.991803
 30
       18.365628
  0
POINT
  8
Default
 62
255
 10
     1092.526084
 20
      998.041937
 30
       18.352851
  0
POINT
  8
Default
 62
255
 10
     1092.654244
 20
      998.158226
 30
       18.350626
  0
POINT
  8
Default
 62
255
 10
     1092.618039
 20
      998.159441
 30
       18.340515
  0
POINT
  8
Default
 62
255
 10
     1092.760929
 20
      998.208307
 30
       18.344495
  0
POINT
  8
Default
 62
255
 10
     1092.825778
 20
      998.234098
 30
       18.326406
  0
POINT
  8
Default
 62
255
 10
     1092.825240
 20
      998.302276
 30
       18.328957
  0
POINT
  8
Default
 62
255
 10
     1092.902665
 20
      998.219098
 30
       18.330302
  0
POINT
  8
Default
 62
255
 10
     1092.904869
 20
      998.421202
 30
       18.329518
  0
POINT
  8
Default
 62
255
 10
     1093.017863
 20
      998.363655
 30
       18.322548
  0
POINT
  8
Default
 62
255
 10
     1092.948059
 20
      998.247185
 30
       18.316369
  0
POINT
  8
Default
 62
255
 10
     1092.891406
 20
      998.287080
 30
       18.322943
  0
POINT
  8
Default
 62
255
 10
     1093.037859
 20
      998.157124
 30
       18.316296
  0
POINT
  8
Default
 62
255
 10
     1093.079690
 20
      998.183809
 30
       18.314358
  0
POINT
  8
Default
 62
255
 10
     1093.123168
 20
      998.178246
 30
       18.312193
  0
POINT
  8
Default
 62
255
 10
     1093.164032
 20
      998.172635
 30
       18.314514
  0
POINT
  8
Default
 62
255
 10
     1093.220225
 20
      998.123820
 30
       18.313915
  0
POINT
  8
Default
 62
255
 10
     1093.123957
 20
      998.087939
 30
       18.341795
  0
POINT
  8
Default
 62
255
 10
     1093.271413
 20
      998.071289
 30
       18.343066
  0
POINT
  8
Default
 62
255
 10
     1093.355020
 20
      997.971020
 30
       18.351735
  0
POINT
  8
Default
 62
255
 10
     1093.460120
 20
      997.965453
 30
       18.348968
  0
POINT
  8
Default
 62
255
 10
     1093.395146
 20
      997.921463
 30
       18.346425
  0
POINT
  8
Default
 62
255
 10
     1092.797596
 20
      997.389248
 30
       18.899877
  0
POINT
  8
Default
 62
255
 10
     1092.813683
 20
      997.373237
 30
       18.930508
  0
POINT
  8
Default
 62
255
 10
     1092.840036
 20
      997.332801
 30
       18.932502
  0
POINT
  8
Default
 62
255
 10
     1092.849876
 20
      997.314911
 30
       18.936545
  0
POINT
  8
Default
 62
255
 10
     1092.868083
 20
      997.278436
 30
       18.939566
  0
POINT
  8
Default
 62
255
 10
     1092.885573
 20
      997.253400
 30
       18.936473
  0
POINT
  8
Default
 62
255
 10
     1092.929011
 20
      997.219489
 30
       18.894194
  0
POINT
  8
Default
 62
255
 10
     1092.970609
 20
      997.208296
 30
       18.881133
  0
POINT
  8
Default
 62
255
 10
     1092.977830
 20
      997.251395
 30
       18.864244
  0
POINT
  8
Default
 62
255
 10
     1092.907474
 20
      997.333529
 30
       18.892173
  0
POINT
  8
Default
 62
255
 10
     1092.871498
 20
      997.362121
 30
       18.909186
  0
POINT
  8
Default
 62
255
 10
     1092.974924
 20
      997.311175
 30
       18.851263
  0
POINT
  8
Default
 62
255
 10
     1092.996569
 20
      997.286487
 30
       18.845451
  0
POINT
  8
Default
 62
255
 10
     1092.769651
 20
      997.314333
 30
       18.920639
  0
POINT
  8
Default
 62
255
 10
     1092.774837
 20
      997.253892
 30
       18.948230
  0
POINT
  8
Default
 62
255
 10
     1092.900807
 20
      997.322901
 30
       18.791359
  0
POINT
  8
Default
 62
255
 10
     1092.811053
 20
      997.341032
 30
       18.788174
  0
POINT
  8
Default
 62
255
 10
     1092.773916
 20
      997.348041
 30
       18.736046
  0
POINT
  8
Default
 62
255
 10
     1092.884202
 20
      997.351629
 30
       18.770791
  0
POINT
  8
Default
 62
255
 10
     1092.898922
 20
      997.354424
 30
       18.706520
  0
POINT
  8
Default
 62
255
 10
     1092.998603
 20
      997.300382
 30
       18.772800
  0
POINT
  8
Default
 62
255
 10
     1092.940025
 20
      997.329162
 30
       18.782853
  0
POINT
  8
Default
 62
255
 10
     1092.942778
 20
      997.341662
 30
       18.691884
  0
POINT
  8
Default
 62
255
 10
     1092.900706
 20
      997.269086
 30
       18.897854
  0
POINT
  8
Default
 62
255
 10
     1092.922487
 20
      997.309647
 30
       18.890171
  0
POINT
  8
Default
 62
255
 10
     1092.880191
 20
      997.311731
 30
       18.903580
  0
POINT
  8
Default
 62
255
 10
     1093.752691
 20
      997.859206
 30
       18.944912
  0
POINT
  8
Default
 62
255
 10
     1093.652737
 20
      997.748596
 30
       18.890981
  0
POINT
  8
Default
 62
255
 10
     1093.556017
 20
      997.639544
 30
       18.915269
  0
POINT
  8
Default
 62
255
 10
     1093.457316
 20
      997.489428
 30
       18.889953
  0
POINT
  8
Default
 62
255
 10
     1093.296914
 20
      997.356242
 30
       18.991646
  0
POINT
  8
Default
 62
255
 10
     1093.161494
 20
      997.159393
 30
       18.942090
  0
POINT
  8
Default
 62
255
 10
     1093.113245
 20
      997.168664
 30
       18.842275
  0
POINT
  8
Default
 62
255
 10
     1093.193037
 20
      997.257461
 30
       18.873315
  0
POINT
  8
Default
 62
255
 10
     1092.967468
 20
      998.660265
 30
       18.459574
  0
POINT
  8
Default
 62
255
 10
     1093.081695
 20
      998.560963
 30
       18.474004
  0
POINT
  8
Default
 62
255
 10
     1092.900907
 20
      998.712611
 30
       18.449802
  0
POINT
  8
Default
 62
255
 10
     1093.000224
 20
      998.620604
 30
       18.429504
  0
POINT
  8
Default
 62
255
 10
     1093.046974
 20
      998.540230
 30
       18.761413
  0
POINT
  8
Default
 62
255
 10
     1092.991707
 20
      998.561907
 30
       18.786067
  0
POINT
  8
Default
 62
255
 10
     1093.073208
 20
      998.529893
 30
       18.742316
  0
POINT
  8
Default
 62
255
 10
     1093.070607
 20
      998.521845
 30
       18.657213
  0
POINT
  8
Default
 62
255
 10
     1093.064347
 20
      998.544326
 30
       18.422020
  0
POINT
  8
Default
 62
255
 10
     1092.890103
 20
      998.659814
 30
       18.413022
  0
POINT
  8
Default
 62
255
 10
     1093.032201
 20
      998.584234
 30
       18.416265
  0
POINT
  8
Default
 62
255
 10
     1093.115432
 20
      998.500039
 30
       18.437456
  0
POINT
  8
Default
 62
255
 10
     1093.117010
 20
      998.509295
 30
       18.653134
  0
POINT
  8
Default
 62
255
 10
     1093.201760
 20
      998.470762
 30
       18.604095
  0
POINT
  8
Default
 62
255
 10
     1093.143175
 20
      998.521512
 30
       18.791561
  0
POINT
  8
Default
 62
255
 10
     1093.140040
 20
      998.497277
 30
       18.726894
  0
POINT
  8
Default
 62
255
 10
     1093.189365
 20
      998.343431
 30
       18.420578
  0
POINT
  8
Default
 62
255
 10
     1093.223199
 20
      998.401377
 30
       18.486117
  0
POINT
  8
Default
 62
255
 10
     1093.301949
 20
      998.341030
 30
       18.513522
  0
POINT
  8
Default
 62
255
 10
     1093.310420
 20
      998.301612
 30
       18.568668
  0
POINT
  8
Default
 62
255
 10
     1093.357626
 20
      998.319775
 30
       18.597280
  0
POINT
  8
Default
 62
255
 10
     1093.324164
 20
      998.369088
 30
       18.625917
  0
POINT
  8
Default
 62
255
 10
     1093.254810
 20
      998.443835
 30
       18.583574
  0
POINT
  8
Default
 62
255
 10
     1093.283016
 20
      998.324872
 30
       18.457940
  0
POINT
  8
Default
 62
255
 10
     1093.201368
 20
      998.448911
 30
       18.528638
  0
POINT
  8
Default
 62
255
 10
     1093.362837
 20
      998.284267
 30
       18.466520
  0
POINT
  8
Default
 62
255
 10
     1093.252048
 20
      998.346972
 30
       18.438766
  0
POINT
  8
Default
 62
255
 10
     1093.268175
 20
      998.282261
 30
       18.394195
  0
POINT
  8
Default
 62
255
 10
     1093.288737
 20
      998.390444
 30
       18.669404
  0
POINT
  8
Default
 62
255
 10
     1093.503509
 20
      998.147994
 30
       18.422088
  0
POINT
  8
Default
 62
255
 10
     1093.512472
 20
      998.087613
 30
       18.416491
  0
POINT
  8
Default
 62
255
 10
     1093.591598
 20
      998.098840
 30
       18.521318
  0
POINT
  8
Default
 62
255
 10
     1093.485884
 20
      998.207018
 30
       18.469877
  0
POINT
  8
Default
 62
255
 10
     1093.624707
 20
      998.095490
 30
       18.563155
  0
POINT
  8
Default
 62
255
 10
     1093.555134
 20
      998.180673
 30
       18.582273
  0
POINT
  8
Default
 62
255
 10
     1093.466481
 20
      998.229230
 30
       18.555656
  0
POINT
  8
Default
 62
255
 10
     1093.542662
 20
      998.163605
 30
       18.527222
  0
POINT
  8
Default
 62
255
 10
     1093.598811
 20
      998.155643
 30
       18.599763
  0
POINT
  8
Default
 62
255
 10
     1093.655585
 20
      998.111724
 30
       18.608936
  0
POINT
  8
Default
 62
255
 10
     1093.632959
 20
      998.125594
 30
       18.753060
  0
POINT
  8
Default
 62
255
 10
     1093.550791
 20
      998.105167
 30
       18.440565
  0
POINT
  8
Default
 62
255
 10
     1093.593973
 20
      998.050531
 30
       18.415089
  0
POINT
  8
Default
 62
255
 10
     1093.616618
 20
      998.160658
 30
       18.667059
  0
POINT
  8
Default
 62
255
 10
     1093.750906
 20
      998.007336
 30
       18.591817
  0
POINT
  8
Default
 62
255
 10
     1093.788745
 20
      997.968285
 30
       18.676864
  0
POINT
  8
Default
 62
255
 10
     1093.771432
 20
      997.932077
 30
       18.637529
  0
POINT
  8
Default
 62
255
 10
     1093.751361
 20
      997.883065
 30
       18.564992
  0
POINT
  8
Default
 62
255
 10
     1093.739035
 20
      997.963447
 30
       18.562357
  0
POINT
  8
Default
 62
255
 10
     1093.702330
 20
      997.945622
 30
       18.507943
  0
POINT
  8
Default
 62
255
 10
     1093.709186
 20
      998.017212
 30
       18.534087
  0
POINT
  8
Default
 62
255
 10
     1093.721334
 20
      998.048061
 30
       18.606481
  0
POINT
  8
Default
 62
255
 10
     1093.737151
 20
      998.067324
 30
       18.672906
  0
POINT
  8
Default
 62
255
 10
     1093.695102
 20
      997.967057
 30
       18.461573
  0
POINT
  8
Default
 62
255
 10
     1093.755023
 20
      998.052952
 30
       18.776477
  0
POINT
  8
Default
 62
255
 10
     1093.200383
 20
      998.403280
 30
       18.859624
  0
POINT
  8
Default
 62
255
 10
     1093.635909
 20
      998.126102
 30
       18.831388
  0
POINT
  8
Default
 62
255
 10
     1093.676618
 20
      998.097225
 30
       18.783534
  0
POINT
  8
Default
 62
255
 10
     1093.746394
 20
      998.012609
 30
       18.802177
  0
POINT
  8
Default
 62
255
 10
     1093.473736
 20
      998.265850
 30
       18.745912
  0
POINT
  8
Default
 62
255
 10
     1093.464065
 20
      998.264634
 30
       18.688988
  0
POINT
  8
Default
 62
255
 10
     1093.496435
 20
      998.246396
 30
       18.735899
  0
POINT
  8
Default
 62
255
 10
     1093.532479
 20
      998.226527
 30
       18.743223
  0
POINT
  8
Default
 62
255
 10
     1093.562051
 20
      998.219983
 30
       18.762755
  0
POINT
  8
Default
 62
255
 10
     1093.577351
 20
      998.195216
 30
       18.718263
  0
POINT
  8
Default
 62
255
 10
     1093.572659
 20
      998.202674
 30
       18.645260
  0
POINT
  8
Default
 62
255
 10
     1093.620022
 20
      998.136397
 30
       18.719995
  0
POINT
  8
Default
 62
255
 10
     1093.594785
 20
      998.165487
 30
       18.717283
  0
POINT
  8
Default
 62
255
 10
     1093.692366
 20
      998.097289
 30
       18.823687
  0
POINT
  8
Default
 62
255
 10
     1093.428287
 20
      998.275088
 30
       18.590699
  0
POINT
  8
Default
 62
255
 10
     1093.314839
 20
      998.346616
 30
       18.587625
  0
POINT
  8
Default
 62
255
 10
     1093.458855
 20
      998.208658
 30
       18.420435
  0
POINT
  8
Default
 62
255
 10
     1093.534428
 20
      998.203032
 30
       18.558567
  0
POINT
  8
Default
 62
255
 10
     1093.562839
 20
      998.205216
 30
       18.600271
  0
POINT
  8
Default
 62
255
 10
     1093.662708
 20
      998.079620
 30
       18.573444
  0
POINT
  8
Default
 62
255
 10
     1093.626037
 20
      998.050906
 30
       18.443388
  0
POINT
  8
Default
 62
255
 10
     1093.596800
 20
      998.029898
 30
       18.370717
  0
POINT
  8
Default
 62
255
 10
     1093.478992
 20
      998.144742
 30
       18.393150
  0
POINT
  8
Default
 62
255
 10
     1093.562705
 20
      998.126320
 30
       18.464901
  0
POINT
  8
Default
 62
255
 10
     1093.592877
 20
      998.131048
 30
       18.561766
  0
POINT
  8
Default
 62
255
 10
     1093.498324
 20
      998.241642
 30
       18.650608
  0
POINT
  8
Default
 62
255
 10
     1093.429189
 20
      998.297740
 30
       18.689573
  0
POINT
  8
Default
 62
255
 10
     1093.509962
 20
      998.230053
 30
       18.605042
  0
POINT
  8
Default
 62
255
 10
     1093.433584
 20
      998.238088
 30
       18.488278
  0
POINT
  8
Default
 62
255
 10
     1093.227162
 20
      998.317150
 30
       18.394810
  0
POINT
  8
Default
 62
255
 10
     1093.324142
 20
      998.248145
 30
       18.398194
  0
POINT
  8
Default
 62
255
 10
     1093.325719
 20
      998.286178
 30
       18.430571
  0
POINT
  8
Default
 62
255
 10
     1093.368568
 20
      998.252434
 30
       18.418048
  0
POINT
  8
Default
 62
255
 10
     1093.191325
 20
      998.379986
 30
       18.421930
  0
POINT
  8
Default
 62
255
 10
     1093.168614
 20
      998.422226
 30
       18.449047
  0
POINT
  8
Default
 62
255
 10
     1093.199313
 20
      998.421930
 30
       18.498250
  0
POINT
  8
Default
 62
255
 10
     1093.372895
 20
      998.300546
 30
       18.584832
  0
POINT
  8
Default
 62
255
 10
     1093.238704
 20
      998.421739
 30
       18.549324
  0
POINT
  8
Default
 62
255
 10
     1093.260088
 20
      998.378520
 30
       18.491584
  0
POINT
  8
Default
 62
255
 10
     1093.275764
 20
      998.405399
 30
       18.560178
  0
POINT
  8
Default
 62
255
 10
     1093.296891
 20
      998.361013
 30
       18.556970
  0
POINT
  8
Default
 62
255
 10
     1093.161373
 20
      998.475860
 30
       18.593855
  0
POINT
  8
Default
 62
255
 10
     1093.177362
 20
      998.442672
 30
       18.510769
  0
POINT
  8
Default
 62
255
 10
     1093.160669
 20
      998.478482
 30
       18.512828
  0
POINT
  8
Default
 62
255
 10
     1093.127318
 20
      998.476596
 30
       18.445994
  0
POINT
  8
Default
 62
255
 10
     1093.047525
 20
      998.540688
 30
       18.669241
  0
POINT
  8
Default
 62
255
 10
     1092.989897
 20
      998.646203
 30
       18.542547
  0
POINT
  8
Default
 62
255
 10
     1093.020731
 20
      998.636109
 30
       18.506041
  0
POINT
  8
Default
 62
255
 10
     1093.003179
 20
      998.648263
 30
       18.486665
  0
POINT
  8
Default
 62
255
 10
     1093.050888
 20
      998.592131
 30
       18.468898
  0
POINT
  8
Default
 62
255
 10
     1093.566332
 20
      997.671013
 30
       18.792066
  0
POINT
  8
Default
 62
255
 10
     1093.693906
 20
      997.790219
 30
       18.790547
  0
POINT
  8
Default
 62
255
 10
     1093.717823
 20
      997.857902
 30
       18.734127
  0
POINT
  8
Default
 62
255
 10
     1093.766129
 20
      997.855424
 30
       18.803059
  0
POINT
  8
Default
 62
255
 10
     1093.455462
 20
      997.547403
 30
       18.835351
  0
POINT
  8
Default
 62
255
 10
     1093.495404
 20
      997.592051
 30
       18.738281
  0
POINT
  8
Default
 62
255
 10
     1093.239292
 20
      997.341452
 30
       18.813511
  0
POINT
  8
Default
 62
255
 10
     1093.357108
 20
      997.440107
 30
       18.820563
  0
POINT
  8
Default
 62
255
 10
     1093.266421
 20
      997.276390
 30
       18.947671
  0
POINT
  8
Default
 62
255
 10
     1092.963760
 20
      997.076674
 30
       18.910750
  0
POINT
  8
Default
 62
255
 10
     1093.018817
 20
      997.137352
 30
       18.870230
  0
POINT
  8
Default
 62
255
 10
     1093.028950
 20
      997.099310
 30
       18.963314
  0
POINT
  8
Default
 62
255
 10
     1092.992821
 20
      997.057263
 30
       18.972009
  0
POINT
  8
Default
 62
255
 10
     1093.081804
 20
      997.115070
 30
       18.980260
  0
POINT
  8
Default
 62
255
 10
     1093.046849
 20
      997.062897
 30
       19.001112
  0
POINT
  8
Default
 62
255
 10
     1093.061494
 20
      997.133770
 30
       18.926928
  0
POINT
  8
Default
 62
255
 10
     1093.092702
 20
      997.118600
 30
       18.957803
  0
POINT
  8
Default
 62
255
 10
     1092.962238
 20
      997.099240
 30
       18.882868
  0
POINT
  8
Default
 62
255
 10
     1092.924077
 20
      997.063624
 30
       18.911748
  0
POINT
  8
Default
 62
255
 10
     1093.001706
 20
      997.096529
 30
       18.912539
  0
POINT
  8
Default
 62
255
 10
     1093.113600
 20
      997.133033
 30
       18.921022
  0
POINT
  8
Default
 62
255
 10
     1093.168510
 20
      997.170216
 30
       18.842233
  0
POINT
  8
Default
 62
255
 10
     1093.210299
 20
      997.255773
 30
       18.810425
  0
POINT
  8
Default
 62
255
 10
     1093.177210
 20
      997.194082
 30
       18.804430
  0
POINT
  8
Default
 62
255
 10
     1093.093017
 20
      997.120474
 30
       18.874217
  0
POINT
  8
Default
 62
255
 10
     1093.079607
 20
      997.134401
 30
       18.836563
  0
POINT
  8
Default
 62
255
 10
     1093.256560
 20
      997.305895
 30
       18.867543
  0
POINT
  8
Default
 62
255
 10
     1092.823432
 20
      997.349880
 30
       18.739434
  0
POINT
  8
Default
 62
255
 10
     1092.974360
 20
      997.313347
 30
       18.503197
  0
POINT
  8
Default
 62
255
 10
     1093.014652
 20
      997.302405
 30
       18.475958
  0
POINT
  8
Default
 62
255
 10
     1093.052969
 20
      997.318968
 30
       18.468144
  0
POINT
  8
Default
 62
255
 10
     1093.030546
 20
      997.246680
 30
       18.609597
  0
POINT
  8
Default
 62
255
 10
     1092.974528
 20
      997.318543
 30
       18.724634
  0
POINT
  8
Default
 62
255
 10
     1092.910783
 20
      997.345016
 30
       18.744826
  0
POINT
  8
Default
 62
255
 10
     1092.902376
 20
      997.311125
 30
       18.809748
  0
POINT
  8
Default
 62
255
 10
     1092.846987
 20
      997.332608
 30
       18.777637
  0
POINT
  8
Default
 62
255
 10
     1092.996038
 20
      997.237523
 30
       18.838315
  0
POINT
  8
Default
 62
255
 10
     1092.946154
 20
      997.309612
 30
       18.848892
  0
POINT
  8
Default
 62
255
 10
     1093.022818
 20
      997.228218
 30
       18.795735
  0
POINT
  8
Default
 62
255
 10
     1093.013582
 20
      997.277380
 30
       18.768970
  0
POINT
  8
Default
 62
255
 10
     1093.019253
 20
      997.171659
 30
       18.778094
  0
POINT
  8
Default
 62
255
 10
     1092.654311
 20
      997.390220
 30
       18.659682
  0
POINT
  8
Default
 62
255
 10
     1092.618004
 20
      997.399955
 30
       18.671754
  0
POINT
  8
Default
 62
255
 10
     1092.665282
 20
      997.479350
 30
       18.551019
  0
POINT
  8
Default
 62
255
 10
     1092.578314
 20
      997.502476
 30
       18.617691
  0
POINT
  8
Default
 62
255
 10
     1092.631678
 20
      997.498767
 30
       18.563124
  0
POINT
  8
Default
 62
255
 10
     1092.582935
 20
      997.462049
 30
       18.628940
  0
POINT
  8
Default
 62
255
 10
     1092.727069
 20
      997.418874
 30
       18.550536
  0
POINT
  8
Default
 62
255
 10
     1092.547733
 20
      997.589213
 30
       18.559913
  0
POINT
  8
Default
 62
255
 10
     1092.485895
 20
      997.541628
 30
       18.580811
  0
LINE
  8
Default
 62
255
 10
     1092.928197
 20
      998.614346
 30
       18.344021
 11
     1093.000856
 21
      998.562877
 31
       18.346271
  0
LINE
  8
Default
 62
255
 10
     1093.000856
 20
      998.562877
 30
       18.346271
 11
     1093.043168
 21
      998.505125
 31
       18.354022
  0
LINE
  8
Default
 62
255
 10
     1093.043168
 20
      998.505125
 30
       18.354022
 11
     1093.110807
 21
      998.428120
 31
       18.359181
  0
LINE
  8
Default
 62
255
 10
     1093.110807
 20
      998.428120
 30
       18.359181
 11
     1093.162027
 21
      998.368474
 31
       18.375368
  0
LINE
  8
Default
 62
255
 10
     1093.162027
 20
      998.368474
 30
       18.375368
 11
     1093.216741
 21
      998.287676
 31
       18.355284
  0
LINE
  8
Default
 62
255
 10
     1093.216741
 20
      998.287676
 30
       18.355284
 11
     1093.311390
 21
      998.196324
 31
       18.358163
  0
LINE
  8
Default
 62
255
 10
     1093.311390
 20
      998.196324
 30
       18.358163
 11
     1093.368366
 21
      998.142395
 31
       18.357104
  0
LINE
  8
Default
 62
255
 10
     1093.368366
 20
      998.142395
 30
       18.357104
 11
     1093.423809
 21
      998.120245
 31
       18.353140
  0
LINE
  8
Default
 62
255
 10
     1093.423809
 20
      998.120245
 30
       18.353140
 11
     1093.457610
 21
      998.111633
 31
       18.360972
  0
LINE
  8
Default
 62
255
 10
     1093.457610
 20
      998.111633
 30
       18.360972
 11
     1093.571871
 21
      998.022911
 31
       18.357394
  0
LINE
  8
Default
 62
255
 10
     1093.571871
 20
      998.022911
 30
       18.357394
 11
     1093.602726
 21
      997.969987
 31
       18.373274
  0
LINE
  8
Default
 62
255
 10
     1093.602726
 20
      997.969987
 30
       18.373274
 11
     1093.583570
 21
      997.937692
 31
       18.372821
  0
LINE
  8
Default
 62
255
 10
     1093.583570
 20
      997.937692
 30
       18.372821
 11
     1093.550645
 21
      997.932637
 31
       18.391761
  0
LINE
  8
Default
 62
255
 10
     1093.550645
 20
      997.932637
 30
       18.391761
 11
     1093.517426
 21
      997.915146
 31
       18.361487
  0
LINE
  8
Default
 62
255
 10
     1093.517426
 20
      997.915146
 30
       18.361487
 11
     1093.491638
 21
      997.883196
 31
       18.382703
  0
LINE
  8
Default
 62
255
 10
     1093.491638
 20
      997.883196
 30
       18.382703
 11
     1093.405708
 21
      997.808610
 31
       18.389916
  0
LINE
  8
Default
 62
255
 10
     1093.405708
 20
      997.808610
 30
       18.389916
 11
     1093.429445
 21
      997.766530
 31
       18.422831
  0
LINE
  8
Default
 62
255
 10
     1093.429445
 20
      997.766530
 30
       18.422831
 11
     1093.443999
 21
      997.698395
 31
       18.418853
  0
LINE
  8
Default
 62
255
 10
     1093.443999
 20
      997.698395
 30
       18.418853
 11
     1093.402339
 21
      997.650236
 31
       18.428051
  0
LINE
  8
Default
 62
255
 10
     1093.402339
 20
      997.650236
 30
       18.428051
 11
     1093.362130
 21
      997.613677
 31
       18.439355
  0
LINE
  8
Default
 62
255
 10
     1093.362130
 20
      997.613677
 30
       18.439355
 11
     1093.311180
 21
      997.579765
 31
       18.459003
  0
LINE
  8
Default
 62
255
 10
     1093.311180
 20
      997.579765
 30
       18.459003
 11
     1093.148224
 21
      997.445726
 31
       18.467277
  0
LINE
  8
Default
 62
255
 10
     1093.148224
 20
      997.445726
 30
       18.467277
 11
     1093.097316
 21
      997.405092
 31
       18.456068
  0
LINE
  8
Default
 62
255
 10
     1093.097316
 20
      997.405092
 30
       18.456068
 11
     1093.006732
 21
      997.336159
 31
       18.471842
  0
LINE
  8
Default
 62
255
 10
     1093.006732
 20
      997.336159
 30
       18.471842
 11
     1092.910872
 21
      997.331432
 31
       18.476729
  0
LINE
  8
Default
 62
255
 10
     1092.910872
 20
      997.331432
 30
       18.476729
 11
     1092.847900
 21
      997.359095
 31
       18.474956
  0
LINE
  8
Default
 62
255
 10
     1092.847900
 20
      997.359095
 30
       18.474956
 11
     1092.750555
 21
      997.431430
 31
       18.498000
  0
LINE
  8
Default
 62
255
 10
     1092.750555
 20
      997.431430
 30
       18.498000
 11
     1092.690003
 21
      997.482286
 31
       18.498202
  0
LINE
  8
Default
 62
255
 10
     1092.616888
 20
      997.561199
 30
       18.488765
 11
     1092.600695
 21
      997.618082
 31
       18.468845
  0
LINE
  8
Default
 62
255
 10
     1092.600695
 20
      997.618082
 30
       18.468845
 11
     1092.626784
 21
      997.743839
 31
       18.432394
  0
LINE
  8
Default
 62
255
 10
     1092.626784
 20
      997.743839
 30
       18.432394
 11
     1092.658371
 21
      997.822291
 31
       18.414376
  0
LINE
  8
Default
 62
255
 10
     1092.690003
 20
      997.482286
 30
       18.498202
 11
     1092.652906
 21
      997.536749
 31
       18.516119
  0
LINE
  8
Default
 62
255
 10
     1092.652906
 20
      997.536749
 30
       18.516119
 11
     1092.616888
 21
      997.561199
 31
       18.488765
  0
LINE
  8
Default
 62
255
 10
     1092.293367
 20
      997.797069
 30
       18.383793
 11
     1092.348281
 21
      997.841176
 31
       18.382333
  0
LINE
  8
Default
 62
255
 10
     1092.348281
 20
      997.841176
 30
       18.382333
 11
     1092.393830
 21
      997.883086
 31
       18.379430
  0
LINE
  8
Default
 62
255
 10
     1092.393830
 20
      997.883086
 30
       18.379430
 11
     1092.469819
 21
      997.964596
 31
       18.371523
  0
LINE
  8
Default
 62
255
 10
     1092.469819
 20
      997.964596
 30
       18.371523
 11
     1092.480374
 21
      997.991803
 31
       18.365628
  0
LINE
  8
Default
 62
255
 10
     1092.480374
 20
      997.991803
 30
       18.365628
 11
     1092.526084
 21
      998.041937
 31
       18.352851
  0
LINE
  8
Default
 62
255
 10
     1092.526084
 20
      998.041937
 30
       18.352851
 11
     1092.576290
 21
      998.092339
 31
       18.354513
  0
LINE
  8
Default
 62
255
 10
     1092.576290
 20
      998.092339
 30
       18.354513
 11
     1092.687699
 21
      998.201316
 31
       18.348229
  0
LINE
  8
Default
 62
255
 10
     1092.687699
 20
      998.201316
 30
       18.348229
 11
     1092.745915
 21
      998.251385
 31
       18.334267
  0
LINE
  8
Default
 62
255
 10
     1092.745915
 20
      998.251385
 30
       18.334267
 11
     1092.825778
 21
      998.234098
 31
       18.326406
  0
LINE
  8
Default
 62
255
 10
     1092.825778
 20
      998.234098
 30
       18.326406
 11
     1092.902665
 21
      998.219098
 31
       18.330302
  0
LINE
  8
Default
 62
255
 10
     1092.902665
 20
      998.219098
 30
       18.330302
 11
     1093.037859
 21
      998.157124
 31
       18.316296
  0
LINE
  8
Default
 62
255
 10
     1093.037859
 20
      998.157124
 30
       18.316296
 11
     1093.123957
 21
      998.087939
 31
       18.341795
  0
LINE
  8
Default
 62
255
 10
     1093.123957
 20
      998.087939
 30
       18.341795
 11
     1093.203812
 21
      997.997423
 31
       18.359267
  0
LINE
  8
Default
 62
255
 10
     1093.203812
 20
      997.997423
 30
       18.359267
 11
     1093.259216
 21
      997.960018
 31
       18.371696
  0
LINE
  8
Default
 62
255
 10
     1093.259216
 20
      997.960018
 30
       18.371696
 11
     1093.308819
 21
      997.934796
 31
       18.361954
  0
LINE
  8
Default
 62
255
 10
     1093.308819
 20
      997.934796
 30
       18.361954
 11
     1093.420934
 21
      997.847534
 31
       18.367334
  0
LINE
  8
Default
 62
255
 10
     1093.420934
 20
      997.847534
 30
       18.367334
 11
     1093.405708
 21
      997.808610
 31
       18.389916
  0
LINE
  8
Default
 62
255
 10
     1092.625435
 20
      997.776296
 30
       18.460562
 11
     1092.633998
 21
      997.873029
 31
       18.445057
  0
LINE
  8
Default
 62
255
 10
     1092.633998
 20
      997.873029
 30
       18.445057
 11
     1092.613331
 21
      997.925167
 31
       18.449585
  0
LINE
  8
Default
 62
255
 10
     1092.613331
 20
      997.925167
 30
       18.449585
 11
     1092.547633
 21
      997.958738
 31
       18.470211
  0
LINE
  8
Default
 62
255
 10
     1092.547633
 20
      997.958738
 30
       18.470211
 11
     1092.466707
 21
      997.915995
 31
       18.430422
  0
LINE
  8
Default
 62
255
 10
     1092.466707
 20
      997.915995
 30
       18.430422
 11
     1092.450094
 21
      997.870628
 31
       18.441557
  0
LINE
  8
Default
 62
255
 10
     1092.450094
 20
      997.870628
 30
       18.441557
 11
     1092.438408
 21
      997.820508
 31
       18.471578
  0
LINE
  8
Default
 62
255
 10
     1092.438408
 20
      997.820508
 30
       18.471578
 11
     1092.449946
 21
      997.774798
 31
       18.495755
  0
LINE
  8
Default
 62
255
 10
     1092.449946
 20
      997.774798
 30
       18.495755
 11
     1092.437075
 21
      997.773586
 31
       18.526912
  0
LINE
  8
Default
 62
255
 10
     1092.437075
 20
      997.773586
 30
       18.526912
 11
     1092.439923
 21
      997.734468
 31
       18.564493
  0
LINE
  8
Default
 62
255
 10
     1092.439923
 20
      997.734468
 30
       18.564493
 11
     1092.414250
 21
      997.700818
 31
       18.597928
  0
LINE
  8
Default
 62
255
 10
     1092.414250
 20
      997.700818
 30
       18.597928
 11
     1092.385571
 21
      997.595366
 31
       18.585169
  0
LINE
  8
Default
 62
255
 10
     1092.625435
 20
      997.776296
 30
       18.460562
 11
     1092.577849
 21
      997.716309
 31
       18.508083
  0
LINE
  8
Default
 62
255
 10
     1092.577849
 20
      997.716309
 30
       18.508083
 11
     1092.561424
 21
      997.632088
 31
       18.551735
  0
LINE
  8
Default
 62
255
 10
     1092.561424
 20
      997.632088
 30
       18.551735
 11
     1092.508348
 21
      997.605481
 31
       18.610599
  0
LINE
  8
Default
 62
255
 10
     1092.508348
 20
      997.605481
 30
       18.610599
 11
     1092.466947
 21
      997.566152
 31
       18.634829
  0
LINE
  8
Default
 62
255
 10
     1092.859972
 20
      998.651010
 30
       18.372155
 11
     1092.928197
 21
      998.614346
 31
       18.344021
  0
LINE
  8
Default
 62
255
 10
     1093.710467
 20
      998.059350
 30
       18.861035
 11
     1093.704956
 21
      998.086179
 31
       18.853801
  0
LINE
  8
Default
 62
255
 10
     1093.704956
 20
      998.086179
 30
       18.853801
 11
     1093.638051
 21
      998.123206
 31
       18.876374
  0
LINE
  8
Default
 62
255
 10
     1093.439581
 20
      998.311022
 30
       18.779234
 11
     1093.411372
 21
      998.338396
 31
       18.751857
  0
LINE
  8
Default
 62
255
 10
     1093.411372
 20
      998.338396
 30
       18.751857
 11
     1093.330540
 21
      998.334001
 31
       18.770581
  0
LINE
  8
Default
 62
255
 10
     1093.330540
 20
      998.334001
 30
       18.770581
 11
     1093.285028
 21
      998.362913
 31
       18.813059
  0
LINE
  8
Default
 62
255
 10
     1093.285028
 20
      998.362913
 30
       18.813059
 11
     1093.237021
 21
      998.383427
 31
       18.843490
  0
LINE
  8
Default
 62
255
 10
     1093.237021
 20
      998.383427
 30
       18.843490
 11
     1093.198956
 21
      998.445736
 31
       18.912290
  0
LINE
  8
Default
 62
255
 10
     1093.198956
 20
      998.445736
 30
       18.912290
 11
     1093.137304
 21
      998.539601
 31
       18.808639
  0
LINE
  8
Default
 62
255
 10
     1093.137304
 20
      998.539601
 30
       18.808639
 11
     1093.110094
 21
      998.553743
 31
       18.829426
  0
LINE
  8
Default
 62
255
 10
     1093.110094
 20
      998.553743
 30
       18.829426
 11
     1093.057750
 21
      998.570617
 31
       18.870319
  0
LINE
  8
Default
 62
255
 10
     1093.057750
 20
      998.570617
 30
       18.870319
 11
     1093.001954
 21
      998.573993
 31
       18.834595
  0
LINE
  8
Default
 62
255
 10
     1093.001954
 20
      998.573993
 30
       18.834595
 11
     1092.925247
 21
      998.714142
 31
       18.769334
  0
LINE
  8
Default
 62
255
 10
     1093.583828
 20
      998.235015
 30
       18.804481
 11
     1093.501496
 21
      998.260813
 31
       18.772830
  0
LINE
  8
Default
 62
255
 10
     1093.501496
 20
      998.260813
 30
       18.772830
 11
     1093.439581
 21
      998.311022
 31
       18.779234
  0
LINE
  8
Default
 62
255
 10
     1093.638051
 20
      998.123206
 30
       18.876374
 11
     1093.595031
 21
      998.145127
 31
       18.834207
  0
LINE
  8
Default
 62
255
 10
     1093.595031
 20
      998.145127
 30
       18.834207
 11
     1093.583828
 21
      998.235015
 31
       18.804481
  0
LINE
  8
Default
 62
255
 10
     1093.749299
 20
      998.030994
 30
       18.884531
 11
     1093.710467
 21
      998.059350
 31
       18.861035
  0
LINE
  8
Default
 62
255
 10
     1093.749299
 20
      998.030994
 30
       18.884531
 11
     1093.846888
 21
      997.979854
 31
       18.913752
  0
LINE
  8
Default
 62
255
 10
     1093.846888
 20
      997.979854
 30
       18.913752
 11
     1093.752691
 21
      997.859206
 31
       18.944912
  0
LINE
  8
Default
 62
255
 10
     1093.752691
 20
      997.859206
 30
       18.944912
 11
     1093.652737
 21
      997.748596
 31
       18.890981
  0
LINE
  8
Default
 62
255
 10
     1093.652737
 20
      997.748596
 30
       18.890981
 11
     1093.556017
 21
      997.639544
 31
       18.915269
  0
LINE
  8
Default
 62
255
 10
     1093.556017
 20
      997.639544
 30
       18.915269
 11
     1093.296914
 21
      997.356242
 31
       18.991646
  0
LINE
  8
Default
 62
255
 10
     1093.296914
 20
      997.356242
 30
       18.991646
 11
     1093.266421
 21
      997.276390
 31
       18.947671
  0
LINE
  8
Default
 62
255
 10
     1093.266421
 20
      997.276390
 30
       18.947671
 11
     1093.161494
 21
      997.159393
 31
       18.942090
  0
LINE
  8
Default
 62
255
 10
     1093.161494
 20
      997.159393
 30
       18.942090
 11
     1093.046849
 21
      997.062897
 31
       19.001112
  0
LINE
  8
Default
 62
255
 10
     1093.046849
 20
      997.062897
 30
       19.001112
 11
     1092.992821
 21
      997.057263
 31
       18.972009
  0
ENDSEC
  0
EOF
