  0
SECTION
  2
HEADER
  9
$PDMODE
 70
   34
  9
$PDSIZE
 40
   -3.0
  0
ENDSEC
  0
SECTION
  2
TABLES
  0
TABLE
  2
LTYPE
 70
 1
  0
LTYPE
  2
CONTINUOUS
  70
 64
  3
Solid line
  72
 65
 73
 0
  40
 0.0
  0
ENDTAB
  0
TABLE
  2
LAYER
 70
 1
 0
LAYER
  2
Default
  70
 0
 62
 7
  6
CONTINUOUS
  0
ENDTAB
  0 
ENDSEC
  0
SECTION
  2
ENTITIES
  0
POINT
  8
Default
 62
255
 10
     1101.854650
 20
     1000.187454
 30
       19.148566
  0
POINT
  8
Default
 62
255
 10
     1101.848599
 20
     1001.072528
 30
       19.352271
  0
POINT
  8
Default
 62
255
 10
     1102.801812
 20
     1000.351741
 30
       19.322048
  0
POINT
  8
Default
 62
255
 10
     1102.338938
 20
      999.682278
 30
       19.422115
  0
POINT
  8
Default
 62
255
 10
     1101.832056
 20
     1000.294118
 30
       19.133182
  0
POINT
  8
Default
 62
255
 10
     1101.729636
 20
     1000.162164
 30
       19.144769
  0
POINT
  8
Default
 62
255
 10
     1101.850204
 20
     1000.472216
 30
       19.156092
  0
POINT
  8
Default
 62
255
 10
     1101.673309
 20
     1000.668144
 30
       19.428290
  0
POINT
  8
Default
 62
255
 10
     1101.820914
 20
     1000.857785
 30
       19.350972
  0
POINT
  8
Default
 62
255
 10
     1101.985675
 20
     1000.920347
 30
       19.125626
  0
POINT
  8
Default
 62
255
 10
     1102.276774
 20
     1000.724962
 30
       19.109136
  0
POINT
  8
Default
 62
255
 10
     1102.447580
 20
     1000.461983
 30
       19.133301
  0
POINT
  8
Default
 62
255
 10
     1102.632353
 20
     1000.129074
 30
       19.346833
  0
POINT
  8
Default
 62
255
 10
     1102.445345
 20
      999.892208
 30
       19.406298
  0
POINT
  8
Default
 62
255
 10
     1102.059967
 20
      999.988619
 30
       19.130549
  0
POINT
  8
Default
 62
255
 10
     1102.209132
 20
     1000.479188
 30
       19.108124
  0
POINT
  8
Default
 62
255
 10
     1102.308355
 20
     1000.076914
 30
       19.138161
  0
POINT
  8
Default
 62
255
 10
     1102.094179
 20
     1000.277006
 30
       19.131680
  0
POINT
  8
Default
 62
255
 10
     1102.298564
 20
     1000.278827
 30
       19.120171
  0
POINT
  8
Default
 62
255
 10
     1102.014063
 20
     1000.569532
 30
       19.119815
  0
POINT
  8
Default
 62
255
 10
     1101.931731
 20
     1000.501395
 30
       19.136449
  0
POINT
  8
Default
 62
255
 10
     1101.973044
 20
     1000.464449
 30
       19.133934
  0
POINT
  8
Default
 62
255
 10
     1102.022294
 20
     1000.406155
 30
       19.136050
  0
POINT
  8
Default
 62
255
 10
     1102.078038
 20
     1000.358551
 30
       19.134988
  0
POINT
  8
Default
 62
255
 10
     1102.136895
 20
     1000.302376
 30
       19.135219
  0
POINT
  8
Default
 62
255
 10
     1102.185350
 20
     1000.260690
 30
       19.129289
  0
POINT
  8
Default
 62
255
 10
     1102.222508
 20
     1000.228156
 30
       19.129848
  0
POINT
  8
Default
 62
255
 10
     1102.265759
 20
     1000.179736
 30
       19.137365
  0
POINT
  8
Default
 62
255
 10
     1102.301396
 20
     1000.129957
 30
       19.138500
  0
POINT
  8
Default
 62
255
 10
     1102.340939
 20
     1000.084298
 30
       19.143601
  0
POINT
  8
Default
 62
255
 10
     1102.384684
 20
     1000.011726
 30
       19.193811
  0
POINT
  8
Default
 62
255
 10
     1102.375818
 20
      999.958503
 30
       19.241272
  0
POINT
  8
Default
 62
255
 10
     1102.393519
 20
      999.959180
 30
       19.286712
  0
POINT
  8
Default
 62
255
 10
     1102.413785
 20
      999.988006
 30
       19.303818
  0
POINT
  8
Default
 62
255
 10
     1102.458510
 20
     1000.013463
 30
       19.349355
  0
POINT
  8
Default
 62
255
 10
     1102.502946
 20
      999.993520
 30
       19.386353
  0
POINT
  8
Default
 62
255
 10
     1102.572801
 20
      999.963698
 30
       19.385456
  0
POINT
  8
Default
 62
255
 10
     1102.612701
 20
      999.951539
 30
       19.378359
  0
POINT
  8
Default
 62
255
 10
     1102.656343
 20
      999.956833
 30
       19.376985
  0
POINT
  8
Default
 62
255
 10
     1102.666958
 20
      999.994562
 30
       19.371447
  0
POINT
  8
Default
 62
255
 10
     1102.638609
 20
     1000.036962
 30
       19.372844
  0
POINT
  8
Default
 62
255
 10
     1102.595925
 20
     1000.066610
 30
       19.371327
  0
POINT
  8
Default
 62
255
 10
     1102.563624
 20
     1000.091405
 30
       19.363495
  0
POINT
  8
Default
 62
255
 10
     1102.541839
 20
     1000.119324
 30
       19.337058
  0
POINT
  8
Default
 62
255
 10
     1102.534450
 20
     1000.134276
 30
       19.297612
  0
POINT
  8
Default
 62
255
 10
     1102.535990
 20
     1000.156445
 30
       19.253074
  0
POINT
  8
Default
 62
255
 10
     1102.530280
 20
     1000.187053
 30
       19.210541
  0
POINT
  8
Default
 62
255
 10
     1102.523286
 20
     1000.200786
 30
       19.159537
  0
POINT
  8
Default
 62
255
 10
     1102.498438
 20
     1000.229593
 30
       19.134447
  0
POINT
  8
Default
 62
255
 10
     1102.471975
 20
     1000.266955
 30
       19.134515
  0
POINT
  8
Default
 62
255
 10
     1102.446859
 20
     1000.304551
 30
       19.132514
  0
POINT
  8
Default
 62
255
 10
     1102.418813
 20
     1000.342172
 30
       19.127411
  0
POINT
  8
Default
 62
255
 10
     1102.391937
 20
     1000.376870
 30
       19.119548
  0
POINT
  8
Default
 62
255
 10
     1102.364445
 20
     1000.419001
 30
       19.114751
  0
POINT
  8
Default
 62
255
 10
     1102.336756
 20
     1000.457916
 30
       19.110709
  0
POINT
  8
Default
 62
255
 10
     1102.297922
 20
     1000.498229
 30
       19.110873
  0
POINT
  8
Default
 62
255
 10
     1102.269414
 20
     1000.536072
 30
       19.105349
  0
POINT
  8
Default
 62
255
 10
     1102.237576
 20
     1000.574069
 30
       19.102518
  0
POINT
  8
Default
 62
255
 10
     1102.202340
 20
     1000.603093
 30
       19.100294
  0
POINT
  8
Default
 62
255
 10
     1102.166176
 20
     1000.634694
 30
       19.098220
  0
POINT
  8
Default
 62
255
 10
     1102.127710
 20
     1000.658099
 30
       19.104439
  0
POINT
  8
Default
 62
255
 10
     1102.086416
 20
     1000.680834
 30
       19.112005
  0
POINT
  8
Default
 62
255
 10
     1102.044496
 20
     1000.709464
 30
       19.109836
  0
POINT
  8
Default
 62
255
 10
     1101.998325
 20
     1000.733447
 30
       19.112823
  0
POINT
  8
Default
 62
255
 10
     1101.963538
 20
     1000.753673
 30
       19.119355
  0
POINT
  8
Default
 62
255
 10
     1101.924195
 20
     1000.768989
 30
       19.132834
  0
POINT
  8
Default
 62
255
 10
     1101.897997
 20
     1000.796496
 30
       19.154209
  0
POINT
  8
Default
 62
255
 10
     1101.875226
 20
     1000.824480
 30
       19.184882
  0
POINT
  8
Default
 62
255
 10
     1101.865419
 20
     1000.842910
 30
       19.223491
  0
POINT
  8
Default
 62
255
 10
     1101.858684
 20
     1000.869266
 30
       19.262647
  0
POINT
  8
Default
 62
255
 10
     1101.843578
 20
     1000.894691
 30
       19.296122
  0
POINT
  8
Default
 62
255
 10
     1101.833041
 20
     1000.924676
 30
       19.330822
  0
POINT
  8
Default
 62
255
 10
     1101.849703
 20
     1000.950173
 30
       19.339571
  0
POINT
  8
Default
 62
255
 10
     1101.817732
 20
     1000.938164
 30
       19.352639
  0
POINT
  8
Default
 62
255
 10
     1101.776700
 20
     1000.954405
 30
       19.361340
  0
POINT
  8
Default
 62
255
 10
     1101.741075
 20
     1000.982180
 30
       19.358759
  0
POINT
  8
Default
 62
255
 10
     1101.715654
 20
     1001.031999
 30
       19.350115
  0
POINT
  8
Default
 62
255
 10
     1101.722712
 20
     1001.067963
 30
       19.360349
  0
POINT
  8
Default
 62
255
 10
     1101.735248
 20
     1001.106368
 30
       19.359019
  0
POINT
  8
Default
 62
255
 10
     1101.729813
 20
     1001.141782
 30
       19.361620
  0
POINT
  8
Default
 62
255
 10
     1101.737846
 20
     1001.186241
 30
       19.355396
  0
POINT
  8
Default
 62
255
 10
     1101.780847
 20
     1001.207939
 30
       19.353075
  0
POINT
  8
Default
 62
255
 10
     1101.817857
 20
     1001.213514
 30
       19.325276
  0
POINT
  8
Default
 62
255
 10
     1101.845811
 20
     1001.172087
 30
       19.338121
  0
POINT
  8
Default
 62
255
 10
     1101.802241
 20
     1001.183846
 30
       19.336103
  0
POINT
  8
Default
 62
255
 10
     1101.886636
 20
     1001.135887
 30
       19.344284
  0
POINT
  8
Default
 62
255
 10
     1101.906452
 20
     1001.157231
 30
       19.339340
  0
POINT
  8
Default
 62
255
 10
     1101.858815
 20
     1001.197134
 30
       19.333076
  0
POINT
  8
Default
 62
255
 10
     1101.844794
 20
     1001.233748
 30
       19.353696
  0
POINT
  8
Default
 62
255
 10
     1102.595842
 20
     1000.538984
 30
       19.064807
  0
POINT
  8
Default
 62
255
 10
     1102.576404
 20
     1000.507133
 30
       19.086266
  0
POINT
  8
Default
 62
255
 10
     1102.552348
 20
     1000.473558
 30
       19.105658
  0
POINT
  8
Default
 62
255
 10
     1102.525432
 20
     1000.429733
 30
       19.117345
  0
POINT
  8
Default
 62
255
 10
     1102.500119
 20
     1000.389671
 30
       19.117564
  0
POINT
  8
Default
 62
255
 10
     1102.466536
 20
     1000.354432
 30
       19.122975
  0
POINT
  8
Default
 62
255
 10
     1102.438349
 20
     1000.321484
 30
       19.128489
  0
POINT
  8
Default
 62
255
 10
     1102.400971
 20
     1000.292358
 30
       19.136821
  0
POINT
  8
Default
 62
255
 10
     1102.382001
 20
     1000.246631
 30
       19.144608
  0
POINT
  8
Default
 62
255
 10
     1102.371451
 20
     1000.201730
 30
       19.135930
  0
POINT
  8
Default
 62
255
 10
     1102.349576
 20
     1000.162497
 30
       19.141016
  0
POINT
  8
Default
 62
255
 10
     1102.319215
 20
     1000.119799
 30
       19.140071
  0
POINT
  8
Default
 62
255
 10
     1102.288422
 20
     1000.080662
 30
       19.143582
  0
POINT
  8
Default
 62
255
 10
     1102.262665
 20
     1000.043002
 30
       19.145650
  0
POINT
  8
Default
 62
255
 10
     1102.258531
 20
      999.998564
 30
       19.144740
  0
POINT
  8
Default
 62
255
 10
     1102.240242
 20
      999.951445
 30
       19.147003
  0
POINT
  8
Default
 62
255
 10
     1102.203147
 20
      999.932924
 30
       19.134249
  0
POINT
  8
Default
 62
255
 10
     1102.151970
 20
      999.924439
 30
       19.119798
  0
POINT
  8
Default
 62
255
 10
     1102.103947
 20
      999.922569
 30
       19.106837
  0
POINT
  8
Default
 62
255
 10
     1102.054592
 20
      999.918332
 30
       19.104156
  0
POINT
  8
Default
 62
255
 10
     1102.010803
 20
      999.928610
 30
       19.099020
  0
POINT
  8
Default
 62
255
 10
     1102.007296
 20
      999.973299
 30
       19.103710
  0
POINT
  8
Default
 62
255
 10
     1102.033832
 20
     1000.000408
 30
       19.122508
  0
POINT
  8
Default
 62
255
 10
     1102.061118
 20
     1000.037331
 30
       19.134689
  0
POINT
  8
Default
 62
255
 10
     1102.087412
 20
     1000.074366
 30
       19.136550
  0
POINT
  8
Default
 62
255
 10
     1102.111620
 20
     1000.116512
 30
       19.139140
  0
POINT
  8
Default
 62
255
 10
     1102.133369
 20
     1000.153703
 30
       19.146670
  0
POINT
  8
Default
 62
255
 10
     1102.159710
 20
     1000.196261
 30
       19.147377
  0
POINT
  8
Default
 62
255
 10
     1102.184087
 20
     1000.240860
 30
       19.137263
  0
POINT
  8
Default
 62
255
 10
     1102.202754
 20
     1000.288678
 30
       19.126827
  0
POINT
  8
Default
 62
255
 10
     1102.223213
 20
     1000.325667
 30
       19.123839
  0
POINT
  8
Default
 62
255
 10
     1102.244205
 20
     1000.371049
 30
       19.120158
  0
POINT
  8
Default
 62
255
 10
     1102.262259
 20
     1000.412137
 30
       19.115267
  0
POINT
  8
Default
 62
255
 10
     1102.284047
 20
     1000.458526
 30
       19.116963
  0
POINT
  8
Default
 62
255
 10
     1102.309047
 20
     1000.505503
 30
       19.109904
  0
POINT
  8
Default
 62
255
 10
     1102.336569
 20
     1000.545873
 30
       19.110629
  0
POINT
  8
Default
 62
255
 10
     1102.361069
 20
     1000.581231
 30
       19.087852
  0
POINT
  8
Default
 62
255
 10
     1102.366386
 20
     1000.617415
 30
       19.069159
  0
POINT
  8
Default
 62
255
 10
     1102.360252
 20
     1000.665760
 30
       19.048470
  0
POINT
  8
Default
 62
255
 10
     1102.331101
 20
     1000.704387
 30
       19.043364
  0
POINT
  8
Default
 62
255
 10
     1102.306552
 20
     1000.738129
 30
       19.058792
  0
POINT
  8
Default
 62
255
 10
     1102.283365
 20
     1000.742141
 30
       19.098663
  0
POINT
  8
Default
 62
255
 10
     1102.244000
 20
     1000.712852
 30
       19.112974
  0
POINT
  8
Default
 62
255
 10
     1102.243719
 20
     1000.666309
 30
       19.100738
  0
POINT
  8
Default
 62
255
 10
     1102.202701
 20
     1000.650604
 30
       19.100959
  0
POINT
  8
Default
 62
255
 10
     1102.176524
 20
     1000.634625
 30
       19.106767
  0
POINT
  8
Default
 62
255
 10
     1102.152339
 20
     1000.585913
 30
       19.108941
  0
POINT
  8
Default
 62
255
 10
     1102.125220
 20
     1000.545011
 30
       19.111815
  0
POINT
  8
Default
 62
255
 10
     1102.097154
 20
     1000.508489
 30
       19.123887
  0
POINT
  8
Default
 62
255
 10
     1102.071862
 20
     1000.467215
 30
       19.132007
  0
POINT
  8
Default
 62
255
 10
     1102.046012
 20
     1000.422297
 30
       19.138342
  0
POINT
  8
Default
 62
255
 10
     1102.021919
 20
     1000.382589
 30
       19.144725
  0
POINT
  8
Default
 62
255
 10
     1101.990842
 20
     1000.347722
 30
       19.148556
  0
POINT
  8
Default
 62
255
 10
     1101.968308
 20
     1000.305202
 30
       19.153432
  0
POINT
  8
Default
 62
255
 10
     1101.957725
 20
     1000.261731
 30
       19.149714
  0
POINT
  8
Default
 62
255
 10
     1101.974841
 20
     1000.211681
 30
       19.147282
  0
POINT
  8
Default
 62
255
 10
     1101.974735
 20
     1000.167959
 30
       19.139999
  0
POINT
  8
Default
 62
255
 10
     1101.966559
 20
     1000.127818
 30
       19.141751
  0
POINT
  8
Default
 62
255
 10
     1101.956210
 20
     1000.074927
 30
       19.137146
  0
POINT
  8
Default
 62
255
 10
     1101.925810
 20
     1000.042185
 30
       19.126237
  0
POINT
  8
Default
 62
255
 10
     1101.884550
 20
     1000.046416
 30
       19.108492
  0
POINT
  8
Default
 62
255
 10
     1101.847294
 20
     1000.076300
 30
       19.106960
  0
POINT
  8
Default
 62
255
 10
     1101.809061
 20
     1000.104079
 30
       19.119057
  0
POINT
  8
Default
 62
255
 10
     1101.786723
 20
     1000.140858
 30
       19.136873
  0
POINT
  8
Default
 62
255
 10
     1101.780743
 20
     1000.188443
 30
       19.153814
  0
POINT
  8
Default
 62
255
 10
     1101.789439
 20
     1000.230721
 30
       19.158651
  0
POINT
  8
Default
 62
255
 10
     1101.811461
 20
     1000.277826
 30
       19.145330
  0
POINT
  8
Default
 62
255
 10
     1101.828237
 20
     1000.313810
 30
       19.140608
  0
POINT
  8
Default
 62
255
 10
     1101.851470
 20
     1000.357642
 30
       19.149163
  0
POINT
  8
Default
 62
255
 10
     1101.884340
 20
     1000.396679
 30
       19.152199
  0
POINT
  8
Default
 62
255
 10
     1101.919943
 20
     1000.425737
 30
       19.141022
  0
POINT
  8
Default
 62
255
 10
     1101.959241
 20
     1000.457442
 30
       19.135484
  0
POINT
  8
Default
 62
255
 10
     1101.977035
 20
     1000.496175
 30
       19.134671
  0
POINT
  8
Default
 62
255
 10
     1101.990151
 20
     1000.544286
 30
       19.129264
  0
POINT
  8
Default
 62
255
 10
     1101.998086
 20
     1000.589259
 30
       19.122100
  0
POINT
  8
Default
 62
255
 10
     1102.010636
 20
     1000.639132
 30
       19.118114
  0
POINT
  8
Default
 62
255
 10
     1102.023936
 20
     1000.681828
 30
       19.117124
  0
POINT
  8
Default
 62
255
 10
     1102.044476
 20
     1000.729830
 30
       19.110621
  0
POINT
  8
Default
 62
255
 10
     1102.056170
 20
     1000.776557
 30
       19.107261
  0
POINT
  8
Default
 62
255
 10
     1102.074373
 20
     1000.819755
 30
       19.108637
  0
POINT
  8
Default
 62
255
 10
     1102.089669
 20
     1000.853664
 30
       19.084274
  0
POINT
  8
Default
 62
255
 10
     1102.106248
 20
     1000.909429
 30
       19.011282
  0
POINT
  8
Default
 62
255
 10
     1102.120392
 20
     1000.950476
 30
       19.012282
  0
POINT
  8
Default
 62
255
 10
     1102.132352
 20
     1000.997435
 30
       19.011896
  0
POINT
  8
Default
 62
255
 10
     1101.681416
 20
     1000.212186
 30
       19.195219
  0
POINT
  8
Default
 62
255
 10
     1101.664115
 20
     1000.129120
 30
       19.100143
  0
POINT
  8
Default
 62
255
 10
     1101.732944
 20
     1000.058816
 30
       19.086899
  0
POINT
  8
Default
 62
255
 10
     1101.790851
 20
     1000.048649
 30
       19.086344
  0
POINT
  8
Default
 62
255
 10
     1101.793204
 20
      999.989870
 30
       19.086537
  0
POINT
  8
Default
 62
255
 10
     1101.754197
 20
     1000.108949
 30
       19.097127
  0
POINT
  8
Default
 62
255
 10
     1101.660348
 20
     1000.165665
 30
       19.136422
  0
POINT
  8
Default
 62
255
 10
     1101.747983
 20
     1000.182467
 30
       19.149464
  0
POINT
  8
Default
 62
255
 10
     1101.821531
 20
     1000.146673
 30
       19.147273
  0
POINT
  8
Default
 62
255
 10
     1101.873303
 20
     1000.108440
 30
       19.143282
  0
POINT
  8
Default
 62
255
 10
     1101.928415
 20
     1000.092904
 30
       19.139231
  0
POINT
  8
Default
 62
255
 10
     1101.825432
 20
     1000.063242
 30
       19.086323
  0
POINT
  8
Default
 62
255
 10
     1101.828561
 20
     1000.009730
 30
       19.074858
  0
POINT
  8
Default
 62
255
 10
     1101.891240
 20
     1000.011857
 30
       19.092684
  0
POINT
  8
Default
 62
255
 10
     1101.865311
 20
      999.957732
 30
       19.076728
  0
POINT
  8
Default
 62
255
 10
     1101.921514
 20
      999.907416
 30
       19.084379
  0
POINT
  8
Default
 62
255
 10
     1101.933969
 20
      999.967261
 30
       19.078937
  0
POINT
  8
Default
 62
255
 10
     1101.954421
 20
      999.994530
 30
       19.098808
  0
POINT
  8
Default
 62
255
 10
     1101.989743
 20
     1000.029485
 30
       19.122195
  0
POINT
  8
Default
 62
255
 10
     1101.995845
 20
     1000.071026
 30
       19.135749
  0
POINT
  8
Default
 62
255
 10
     1101.982438
 20
      999.906017
 30
       19.089840
  0
POINT
  8
Default
 62
255
 10
     1102.038607
 20
      999.890768
 30
       19.088569
  0
POINT
  8
Default
 62
255
 10
     1102.100838
 20
      999.852778
 30
       19.085484
  0
POINT
  8
Default
 62
255
 10
     1102.109834
 20
      999.773366
 30
       19.090431
  0
POINT
  8
Default
 62
255
 10
     1102.165458
 20
      999.819781
 30
       19.076625
  0
POINT
  8
Default
 62
255
 10
     1102.198066
 20
      999.861482
 30
       19.094364
  0
POINT
  8
Default
 62
255
 10
     1102.210990
 20
      999.782339
 30
       19.080831
  0
POINT
  8
Default
 62
255
 10
     1102.246625
 20
      999.816263
 30
       19.093562
  0
POINT
  8
Default
 62
255
 10
     1102.244023
 20
      999.896973
 30
       19.112111
  0
POINT
  8
Default
 62
255
 10
     1102.021538
 20
      999.822690
 30
       19.176713
  0
POINT
  8
Default
 62
255
 10
     1101.989507
 20
      999.866767
 30
       19.104178
  0
POINT
  8
Default
 62
255
 10
     1102.068509
 20
      999.821270
 30
       19.092106
  0
POINT
  8
Default
 62
255
 10
     1102.131978
 20
      999.973907
 30
       19.127963
  0
POINT
  8
Default
 62
255
 10
     1102.170713
 20
      999.975141
 30
       19.135757
  0
POINT
  8
Default
 62
255
 10
     1102.163461
 20
     1000.020176
 30
       19.136955
  0
POINT
  8
Default
 62
255
 10
     1102.101008
 20
     1000.036578
 30
       19.135842
  0
POINT
  8
Default
 62
255
 10
     1102.223655
 20
      999.980747
 30
       19.141377
  0
POINT
  8
Default
 62
255
 10
     1102.308947
 20
      999.871574
 30
       19.210384
  0
POINT
  8
Default
 62
255
 10
     1102.301323
 20
      999.907849
 30
       19.167449
  0
POINT
  8
Default
 62
255
 10
     1102.284134
 20
      999.930337
 30
       19.143999
  0
POINT
  8
Default
 62
255
 10
     1102.320043
 20
      999.962684
 30
       19.145716
  0
POINT
  8
Default
 62
255
 10
     1102.332829
 20
      999.897774
 30
       19.268125
  0
POINT
  8
Default
 62
255
 10
     1102.360589
 20
      999.987812
 30
       19.207464
  0
POINT
  8
Default
 62
255
 10
     1102.212024
 20
      999.698831
 30
       19.242078
  0
POINT
  8
Default
 62
255
 10
     1102.228380
 20
      999.718309
 30
       19.180498
  0
POINT
  8
Default
 62
255
 10
     1102.180023
 20
      999.704171
 30
       19.179860
  0
POINT
  8
Default
 62
255
 10
     1102.214239
 20
      999.744883
 30
       19.096324
  0
POINT
  8
Default
 62
255
 10
     1102.163495
 20
      999.750321
 30
       19.087627
  0
POINT
  8
Default
 62
255
 10
     1102.289473
 20
      999.804162
 30
       19.112725
  0
POINT
  8
Default
 62
255
 10
     1102.304553
 20
      999.826767
 30
       19.135652
  0
POINT
  8
Default
 62
255
 10
     1102.292295
 20
      999.782863
 30
       19.234676
  0
POINT
  8
Default
 62
255
 10
     1102.267411
 20
      999.758579
 30
       19.165935
  0
POINT
  8
Default
 62
255
 10
     1102.256887
 20
      999.733583
 30
       19.363079
  0
POINT
  8
Default
 62
255
 10
     1102.234911
 20
      999.696222
 30
       19.385817
  0
POINT
  8
Default
 62
255
 10
     1102.239235
 20
      999.655657
 30
       19.439379
  0
POINT
  8
Default
 62
255
 10
     1102.307115
 20
      999.748687
 30
       19.409379
  0
POINT
  8
Default
 62
255
 10
     1102.285547
 20
      999.716167
 30
       19.427783
  0
POINT
  8
Default
 62
255
 10
     1102.326939
 20
      999.766191
 30
       19.405650
  0
POINT
  8
Default
 62
255
 10
     1102.327441
 20
      999.810874
 30
       19.400900
  0
POINT
  8
Default
 62
255
 10
     1102.369997
 20
      999.842448
 30
       19.409702
  0
POINT
  8
Default
 62
255
 10
     1102.451170
 20
      999.960184
 30
       19.402762
  0
POINT
  8
Default
 62
255
 10
     1102.396429
 20
      999.926727
 30
       19.377513
  0
POINT
  8
Default
 62
255
 10
     1102.394637
 20
      999.878045
 30
       19.407744
  0
POINT
  8
Default
 62
255
 10
     1102.435792
 20
      999.834781
 30
       19.404247
  0
POINT
  8
Default
 62
255
 10
     1102.233821
 20
     1000.122299
 30
       19.128728
  0
POINT
  8
Default
 62
255
 10
     1102.200184
 20
     1000.097678
 30
       19.139705
  0
POINT
  8
Default
 62
255
 10
     1102.217285
 20
     1000.166407
 30
       19.127778
  0
POINT
  8
Default
 62
255
 10
     1102.140117
 20
     1000.098758
 30
       19.136428
  0
POINT
  8
Default
 62
255
 10
     1102.039162
 20
     1000.131021
 30
       19.137425
  0
POINT
  8
Default
 62
255
 10
     1102.023141
 20
     1000.219402
 30
       19.137389
  0
POINT
  8
Default
 62
255
 10
     1102.062887
 20
     1000.171606
 30
       19.135681
  0
POINT
  8
Default
 62
255
 10
     1102.035459
 20
     1000.280162
 30
       19.152186
  0
POINT
  8
Default
 62
255
 10
     1102.093878
 20
     1000.197573
 30
       19.137434
  0
POINT
  8
Default
 62
255
 10
     1101.942860
 20
     1000.368156
 30
       19.144088
  0
POINT
  8
Default
 62
255
 10
     1101.909993
 20
     1000.326888
 30
       19.141530
  0
POINT
  8
Default
 62
255
 10
     1101.902764
 20
     1000.272223
 30
       19.147301
  0
POINT
  8
Default
 62
255
 10
     1101.916538
 20
     1000.157334
 30
       19.139901
  0
POINT
  8
Default
 62
255
 10
     1101.739569
 20
     1000.228919
 30
       19.158775
  0
POINT
  8
Default
 62
255
 10
     1101.741114
 20
     1000.271262
 30
       19.188690
  0
POINT
  8
Default
 62
255
 10
     1101.763753
 20
     1000.320828
 30
       19.177851
  0
POINT
  8
Default
 62
255
 10
     1101.814161
 20
     1000.398229
 30
       19.168315
  0
POINT
  8
Default
 62
255
 10
     1101.877957
 20
     1000.451222
 30
       19.141158
  0
POINT
  8
Default
 62
255
 10
     1101.850758
 20
     1000.550282
 30
       19.157091
  0
POINT
  8
Default
 62
255
 10
     1101.768576
 20
     1000.538601
 30
       19.406908
  0
POINT
  8
Default
 62
255
 10
     1101.586007
 20
     1000.677385
 30
       19.402567
  0
POINT
  8
Default
 62
255
 10
     1101.635402
 20
     1000.619302
 30
       19.389505
  0
POINT
  8
Default
 62
255
 10
     1101.614607
 20
     1000.726788
 30
       19.395217
  0
POINT
  8
Default
 62
255
 10
     1101.723790
 20
     1000.613429
 30
       19.359733
  0
POINT
  8
Default
 62
255
 10
     1101.931695
 20
     1000.613928
 30
       19.118592
  0
POINT
  8
Default
 62
255
 10
     1101.863790
 20
     1000.597353
 30
       19.131709
  0
POINT
  8
Default
 62
255
 10
     1101.819481
 20
     1000.669112
 30
       19.136652
  0
POINT
  8
Default
 62
255
 10
     1101.865944
 20
     1000.735655
 30
       19.123851
  0
POINT
  8
Default
 62
255
 10
     1101.899047
 20
     1000.675851
 30
       19.119599
  0
POINT
  8
Default
 62
255
 10
     1101.968903
 20
     1000.675690
 30
       19.115081
  0
POINT
  8
Default
 62
255
 10
     1101.959735
 20
     1000.729876
 30
       19.113753
  0
POINT
  8
Default
 62
255
 10
     1101.764478
 20
     1000.675346
 30
       19.218653
  0
POINT
  8
Default
 62
255
 10
     1101.781912
 20
     1000.726372
 30
       19.204274
  0
POINT
  8
Default
 62
255
 10
     1101.731039
 20
     1000.704459
 30
       19.318484
  0
POINT
  8
Default
 62
255
 10
     1101.811469
 20
     1000.796087
 30
       19.226309
  0
POINT
  8
Default
 62
255
 10
     1101.838342
 20
     1000.766145
 30
       19.153455
  0
POINT
  8
Default
 62
255
 10
     1101.765561
 20
     1000.789412
 30
       19.339703
  0
POINT
  8
Default
 62
255
 10
     1101.710006
 20
     1000.777815
 30
       19.377683
  0
POINT
  8
Default
 62
255
 10
     1101.787232
 20
     1000.773351
 30
       19.267524
  0
POINT
  8
Default
 62
255
 10
     1102.062630
 20
     1000.602330
 30
       19.109606
  0
POINT
  8
Default
 62
255
 10
     1102.060663
 20
     1000.538265
 30
       19.118824
  0
POINT
  8
Default
 62
255
 10
     1102.028951
 20
     1000.483578
 30
       19.128916
  0
POINT
  8
Default
 62
255
 10
     1102.113153
 20
     1000.624231
 30
       19.100125
  0
POINT
  8
Default
 62
255
 10
     1102.147569
 20
     1000.336981
 30
       19.127055
  0
POINT
  8
Default
 62
255
 10
     1102.092040
 20
     1000.390028
 30
       19.131561
  0
POINT
  8
Default
 62
255
 10
     1102.107726
 20
     1000.446780
 30
       19.124758
  0
POINT
  8
Default
 62
255
 10
     1102.188550
 20
     1000.373324
 30
       19.119699
  0
POINT
  8
Default
 62
255
 10
     1102.199213
 20
     1000.421033
 30
       19.120504
  0
POINT
  8
Default
 62
255
 10
     1102.149782
 20
     1000.474014
 30
       19.120989
  0
POINT
  8
Default
 62
255
 10
     1102.193587
 20
     1000.535365
 30
       19.103586
  0
POINT
  8
Default
 62
255
 10
     1102.382063
 20
     1000.332339
 30
       19.119208
  0
POINT
  8
Default
 62
255
 10
     1102.330886
 20
     1000.354285
 30
       19.113485
  0
POINT
  8
Default
 62
255
 10
     1102.326980
 20
     1000.411229
 30
       19.113035
  0
POINT
  8
Default
 62
255
 10
     1102.305174
 20
     1000.196697
 30
       19.135460
  0
POINT
  8
Default
 62
255
 10
     1102.407604
 20
     1000.425735
 30
       19.117382
  0
POINT
  8
Default
 62
255
 10
     1102.380539
 20
     1000.517794
 30
       19.110447
  0
POINT
  8
Default
 62
255
 10
     1102.456150
 20
     1000.225056
 30
       19.133345
  0
POINT
  8
Default
 62
255
 10
     1102.390093
 20
     1000.181362
 30
       19.127619
  0
POINT
  8
Default
 62
255
 10
     1102.457590
 20
     1000.175086
 30
       19.136948
  0
POINT
  8
Default
 62
255
 10
     1102.422720
 20
     1000.137976
 30
       19.139875
  0
POINT
  8
Default
 62
255
 10
     1102.380128
 20
     1000.125982
 30
       19.140267
  0
POINT
  8
Default
 62
255
 10
     1102.390834
 20
     1000.093124
 30
       19.143906
  0
POINT
  8
Default
 62
255
 10
     1102.399366
 20
     1000.068655
 30
       19.140624
  0
POINT
  8
Default
 62
255
 10
     1102.514564
 20
     1000.316597
 30
       19.119086
  0
POINT
  8
Default
 62
255
 10
     1102.527626
 20
     1000.264873
 30
       19.133760
  0
POINT
  8
Default
 62
255
 10
     1102.532440
 20
     1000.360041
 30
       19.116758
  0
POINT
  8
Default
 62
255
 10
     1102.573783
 20
     1000.312399
 30
       19.126489
  0
POINT
  8
Default
 62
255
 10
     1102.576723
 20
     1000.410400
 30
       19.113016
  0
POINT
  8
Default
 62
255
 10
     1102.632471
 20
     1000.400206
 30
       19.123484
  0
POINT
  8
Default
 62
255
 10
     1102.612419
 20
     1000.454248
 30
       19.098302
  0
POINT
  8
Default
 62
255
 10
     1102.642117
 20
     1000.446704
 30
       19.125491
  0
POINT
  8
Default
 62
255
 10
     1102.653509
 20
     1000.480115
 30
       19.095988
  0
POINT
  8
Default
 62
255
 10
     1102.611081
 20
     1000.504593
 30
       19.079465
  0
POINT
  8
Default
 62
255
 10
     1102.422971
 20
     1000.512647
 30
       19.111937
  0
POINT
  8
Default
 62
255
 10
     1102.542726
 20
     1000.562415
 30
       19.040876
  0
POINT
  8
Default
 62
255
 10
     1102.312428
 20
     1000.575780
 30
       19.094604
  0
POINT
  8
Default
 62
255
 10
     1102.306842
 20
     1000.671983
 30
       19.072908
  0
POINT
  8
Default
 62
255
 10
     1102.345384
 20
     1000.636250
 30
       19.070813
  0
POINT
  8
Default
 62
255
 10
     1102.275980
 20
     1000.652685
 30
       19.085673
  0
POINT
  8
Default
 62
255
 10
     1102.262854
 20
     1000.627899
 30
       19.093089
  0
POINT
  8
Default
 62
255
 10
     1102.241972
 20
     1000.591223
 30
       19.100665
  0
POINT
  8
Default
 62
255
 10
     1102.294192
 20
     1000.629233
 30
       19.090474
  0
POINT
  8
Default
 62
255
 10
     1102.311060
 20
     1000.639774
 30
       19.081473
  0
POINT
  8
Default
 62
255
 10
     1102.115857
 20
     1000.725934
 30
       19.091458
  0
POINT
  8
Default
 62
255
 10
     1102.206326
 20
     1000.704963
 30
       19.092644
  0
POINT
  8
Default
 62
255
 10
     1102.191980
 20
     1000.758804
 30
       19.099000
  0
POINT
  8
Default
 62
255
 10
     1102.130539
 20
     1000.775074
 30
       19.099017
  0
POINT
  8
Default
 62
255
 10
     1102.172405
 20
     1000.687717
 30
       19.105135
  0
POINT
  8
Default
 62
255
 10
     1102.050648
 20
     1000.876447
 30
       19.107527
  0
POINT
  8
Default
 62
255
 10
     1101.942861
 20
     1000.821190
 30
       19.121614
  0
POINT
  8
Default
 62
255
 10
     1101.907916
 20
     1000.836221
 30
       19.152992
  0
POINT
  8
Default
 62
255
 10
     1101.955098
 20
     1000.872970
 30
       19.130041
  0
POINT
  8
Default
 62
255
 10
     1101.901853
 20
     1000.882509
 30
       19.180378
  0
POINT
  8
Default
 62
255
 10
     1101.926151
 20
     1000.915341
 30
       19.180948
  0
POINT
  8
Default
 62
255
 10
     1101.931839
 20
     1000.953289
 30
       19.201524
  0
POINT
  8
Default
 62
255
 10
     1101.977017
 20
     1001.005243
 30
       19.111637
  0
POINT
  8
Default
 62
255
 10
     1101.889788
 20
     1000.897368
 30
       19.237327
  0
POINT
  8
Default
 62
255
 10
     1101.937398
 20
     1000.995179
 30
       19.247263
  0
POINT
  8
Default
 62
255
 10
     1101.984397
 20
     1001.052842
 30
       19.162824
  0
POINT
  8
Default
 62
255
 10
     1101.959023
 20
     1001.050199
 30
       19.264742
  0
POINT
  8
Default
 62
255
 10
     1101.864751
 20
     1000.985344
 30
       19.350688
  0
POINT
  8
Default
 62
255
 10
     1101.933616
 20
     1001.062510
 30
       19.339113
  0
POINT
  8
Default
 62
255
 10
     1101.924888
 20
     1001.121798
 30
       19.339111
  0
POINT
  8
Default
 62
255
 10
     1102.131221
 20
      999.720566
 30
       19.187494
  0
POINT
  8
Default
 62
255
 10
     1102.092705
 20
      999.749481
 30
       19.204917
  0
POINT
  8
Default
 62
255
 10
     1102.097525
 20
      999.757997
 30
       19.139816
  0
POINT
  8
Default
 62
255
 10
     1102.147019
 20
      999.728195
 30
       19.117749
  0
POINT
  8
Default
 62
255
 10
     1102.062332
 20
      999.767267
 30
       19.125556
  0
POINT
  8
Default
 62
255
 10
     1102.166789
 20
      999.682898
 30
       19.225903
  0
POINT
  8
Default
 62
255
 10
     1102.035539
 20
      999.763454
 30
       19.295428
  0
POINT
  8
Default
 62
255
 10
     1102.019058
 20
      999.774745
 30
       19.243384
  0
POINT
  8
Default
 62
255
 10
     1102.114441
 20
      999.729226
 30
       19.255194
  0
POINT
  8
Default
 62
255
 10
     1102.157491
 20
      999.683624
 30
       19.299909
  0
POINT
  8
Default
 62
255
 10
     1102.118996
 20
      999.708794
 30
       19.317701
  0
POINT
  8
Default
 62
255
 10
     1102.072154
 20
      999.745084
 30
       19.327724
  0
POINT
  8
Default
 62
255
 10
     1102.150962
 20
      999.658660
 30
       19.373504
  0
POINT
  8
Default
 62
255
 10
     1102.025927
 20
      999.762578
 30
       19.342786
  0
POINT
  8
Default
 62
255
 10
     1102.055470
 20
      999.737175
 30
       19.344906
  0
POINT
  8
Default
 62
255
 10
     1102.091132
 20
      999.733351
 30
       19.384702
  0
POINT
  8
Default
 62
255
 10
     1102.113103
 20
      999.678876
 30
       19.360868
  0
POINT
  8
Default
 62
255
 10
     1101.943225
 20
      999.861682
 30
       19.121721
  0
POINT
  8
Default
 62
255
 10
     1101.975309
 20
      999.802495
 30
       19.244411
  0
POINT
  8
Default
 62
255
 10
     1101.962663
 20
      999.842165
 30
       19.204217
  0
POINT
  8
Default
 62
255
 10
     1101.975904
 20
      999.789520
 30
       19.277909
  0
POINT
  8
Default
 62
255
 10
     1101.930301
 20
      999.867579
 30
       19.301460
  0
POINT
  8
Default
 62
255
 10
     1101.927252
 20
      999.869280
 30
       19.356228
  0
POINT
  8
Default
 62
255
 10
     1101.957007
 20
      999.833330
 30
       19.318912
  0
POINT
  8
Default
 62
255
 10
     1101.858368
 20
      999.910079
 30
       19.341963
  0
POINT
  8
Default
 62
255
 10
     1101.870734
 20
      999.910970
 30
       19.169054
  0
POINT
  8
Default
 62
255
 10
     1101.873918
 20
      999.922742
 30
       19.088660
  0
POINT
  8
Default
 62
255
 10
     1101.922245
 20
      999.865352
 30
       19.391906
  0
POINT
  8
Default
 62
255
 10
     1101.837550
 20
      999.949311
 30
       19.333398
  0
POINT
  8
Default
 62
255
 10
     1101.759625
 20
      999.994005
 30
       19.309950
  0
POINT
  8
Default
 62
255
 10
     1101.815029
 20
      999.948449
 30
       19.210327
  0
POINT
  8
Default
 62
255
 10
     1101.774177
 20
      999.987647
 30
       19.198139
  0
POINT
  8
Default
 62
255
 10
     1101.805509
 20
      999.962825
 30
       19.142355
  0
POINT
  8
Default
 62
255
 10
     1101.724566
 20
     1000.025756
 30
       19.114158
  0
POINT
  8
Default
 62
255
 10
     1101.699579
 20
     1000.035238
 30
       19.199704
  0
POINT
  8
Default
 62
255
 10
     1101.740336
 20
     1000.014749
 30
       19.174555
  0
POINT
  8
Default
 62
255
 10
     1101.726733
 20
     1000.008180
 30
       19.222045
  0
POINT
  8
Default
 62
255
 10
     1101.612574
 20
     1000.136206
 30
       19.168034
  0
POINT
  8
Default
 62
255
 10
     1101.627504
 20
     1000.088666
 30
       19.141970
  0
POINT
  8
Default
 62
255
 10
     1101.661941
 20
     1000.063262
 30
       19.111027
  0
POINT
  8
Default
 62
255
 10
     1101.686186
 20
     1000.034384
 30
       19.336450
  0
POINT
  8
Default
 62
255
 10
     1101.650130
 20
     1000.044611
 30
       19.205679
  0
POINT
  8
Default
 62
255
 10
     1101.741979
 20
      999.980020
 30
       19.370349
  0
POINT
  8
Default
 62
255
 10
     1101.701068
 20
      999.994906
 30
       19.403334
  0
POINT
  8
Default
 62
255
 10
     1101.625120
 20
     1000.052809
 30
       19.339614
  0
POINT
  8
Default
 62
255
 10
     1101.620241
 20
     1000.074715
 30
       19.188910
  0
POINT
  8
Default
 62
255
 10
     1101.813730
 20
     1000.486326
 30
       19.229362
  0
POINT
  8
Default
 62
255
 10
     1101.795093
 20
     1000.461001
 30
       19.355930
  0
POINT
  8
Default
 62
255
 10
     1101.794819
 20
     1000.432652
 30
       19.330767
  0
POINT
  8
Default
 62
255
 10
     1101.754859
 20
     1000.369426
 30
       19.402437
  0
POINT
  8
Default
 62
255
 10
     1101.769528
 20
     1000.351887
 30
       19.319173
  0
POINT
  8
Default
 62
255
 10
     1101.772397
 20
     1000.359624
 30
       19.249824
  0
POINT
  8
Default
 62
255
 10
     1101.785488
 20
     1000.405298
 30
       19.254001
  0
POINT
  8
Default
 62
255
 10
     1101.771674
 20
     1000.404612
 30
       19.388007
  0
POINT
  8
Default
 62
255
 10
     1101.746141
 20
     1000.323966
 30
       19.264179
  0
POINT
  8
Default
 62
255
 10
     1101.678791
 20
     1000.240838
 30
       19.329909
  0
POINT
  8
Default
 62
255
 10
     1101.710535
 20
     1000.274944
 30
       19.276638
  0
POINT
  8
Default
 62
255
 10
     1101.706052
 20
     1000.278690
 30
       19.428977
  0
POINT
  8
Default
 62
255
 10
     1101.723323
 20
     1000.309610
 30
       19.314517
  0
POINT
  8
Default
 62
255
 10
     1101.785340
 20
     1000.467083
 30
       19.392379
  0
POINT
  8
Default
 62
255
 10
     1101.635363
 20
     1000.155387
 30
       19.146654
  0
POINT
  8
Default
 62
255
 10
     1101.662866
 20
     1000.201155
 30
       19.261006
  0
POINT
  8
Default
 62
255
 10
     1101.627036
 20
     1000.116908
 30
       19.389208
  0
POINT
  8
Default
 62
255
 10
     1101.649742
 20
     1000.160067
 30
       19.399133
  0
POINT
  8
Default
 62
255
 10
     1101.645384
 20
     1000.187000
 30
       19.293898
  0
POINT
  8
Default
 62
255
 10
     1101.667246
 20
     1000.203314
 30
       19.397743
  0
POINT
  8
Default
 62
255
 10
     1101.632833
 20
     1000.119563
 30
       19.126747
  0
POINT
  8
Default
 62
255
 10
     1101.641840
 20
     1000.189302
 30
       19.172672
  0
POINT
  8
Default
 62
255
 10
     1101.610725
 20
     1000.090408
 30
       19.322388
  0
POINT
  8
Default
 62
255
 10
     1101.602427
 20
     1000.067119
 30
       19.469381
  0
POINT
  8
Default
 62
255
 10
     1101.778884
 20
     1000.615560
 30
       19.213298
  0
POINT
  8
Default
 62
255
 10
     1101.801860
 20
     1000.607223
 30
       19.163145
  0
POINT
  8
Default
 62
255
 10
     1101.776064
 20
     1000.646535
 30
       19.173004
  0
POINT
  8
Default
 62
255
 10
     1101.727556
 20
     1000.657591
 30
       19.253303
  0
POINT
  8
Default
 62
255
 10
     1101.743615
 20
     1000.615060
 30
       19.272680
  0
POINT
  8
Default
 62
255
 10
     1101.790689
 20
     1000.551482
 30
       19.246453
  0
POINT
  8
Default
 62
255
 10
     1101.703560
 20
     1000.651050
 30
       19.291082
  0
POINT
  8
Default
 62
255
 10
     1101.675498
 20
     1000.682899
 30
       19.353480
  0
POINT
  8
Default
 62
255
 10
     1101.691138
 20
     1000.731981
 30
       19.375346
  0
POINT
  8
Default
 62
255
 10
     1101.695206
 20
     1000.634260
 30
       19.357130
  0
POINT
  8
Default
 62
255
 10
     1101.837427
 20
     1000.544379
 30
       19.179386
  0
POINT
  8
Default
 62
255
 10
     1101.815317
 20
     1000.587892
 30
       19.168216
  0
POINT
  8
Default
 62
255
 10
     1101.775898
 20
     1000.566646
 30
       19.272313
  0
POINT
  8
Default
 62
255
 10
     1101.762079
 20
     1000.508617
 30
       19.425042
  0
POINT
  8
Default
 62
255
 10
     1101.739370
 20
     1000.524274
 30
       19.434004
  0
POINT
  8
Default
 62
255
 10
     1101.727404
 20
     1000.563940
 30
       19.404252
  0
POINT
  8
Default
 62
255
 10
     1101.702467
 20
     1000.609065
 30
       19.388628
  0
POINT
  8
Default
 62
255
 10
     1101.689196
 20
     1000.562071
 30
       19.438506
  0
POINT
  8
Default
 62
255
 10
     1101.620895
 20
     1000.576129
 30
       19.453617
  0
POINT
  8
Default
 62
255
 10
     1101.599578
 20
     1000.636712
 30
       19.406302
  0
POINT
  8
Default
 62
255
 10
     1101.666089
 20
     1000.726548
 30
       19.393885
  0
POINT
  8
Default
 62
255
 10
     1101.587269
 20
     1000.574336
 30
       19.451221
  0
POINT
  8
Default
 62
255
 10
     1101.583464
 20
     1000.616907
 30
       19.441938
  0
POINT
  8
Default
 62
255
 10
     1101.543241
 20
     1000.662570
 30
       19.427576
  0
POINT
  8
Default
 62
255
 10
     1101.701124
 20
     1000.492489
 30
       19.542466
  0
POINT
  8
Default
 62
255
 10
     1101.741922
 20
     1000.465887
 30
       19.571692
  0
POINT
  8
Default
 62
255
 10
     1101.733056
 20
     1000.463761
 30
       19.586002
  0
POINT
  8
Default
 62
255
 10
     1101.691293
 20
     1000.488653
 30
       19.581269
  0
POINT
  8
Default
 62
255
 10
     1101.731885
 20
     1000.492929
 30
       19.514154
  0
POINT
  8
Default
 62
255
 10
     1101.762494
 20
     1000.470297
 30
       19.525932
  0
POINT
  8
Default
 62
255
 10
     1101.769606
 20
     1000.474053
 30
       19.509275
  0
POINT
  8
Default
 62
255
 10
     1101.636886
 20
     1000.529326
 30
       19.559756
  0
POINT
  8
Default
 62
255
 10
     1101.658550
 20
     1000.538048
 30
       19.456829
  0
POINT
  8
Default
 62
255
 10
     1101.742432
 20
     1000.360787
 30
       19.530552
  0
POINT
  8
Default
 62
255
 10
     1101.724525
 20
     1000.360624
 30
       19.599398
  0
POINT
  8
Default
 62
255
 10
     1101.757995
 20
     1000.421485
 30
       19.562210
  0
POINT
  8
Default
 62
255
 10
     1101.759224
 20
     1000.404467
 30
       19.508167
  0
POINT
  8
Default
 62
255
 10
     1101.673656
 20
     1000.232869
 30
       19.539406
  0
POINT
  8
Default
 62
255
 10
     1101.665611
 20
     1000.208423
 30
       19.531671
  0
POINT
  8
Default
 62
255
 10
     1101.708304
 20
     1000.288973
 30
       19.524721
  0
POINT
  8
Default
 62
255
 10
     1101.683709
 20
     1000.264153
 30
       19.561802
  0
POINT
  8
Default
 62
255
 10
     1101.703070
 20
     1000.271620
 30
       19.477535
  0
POINT
  8
Default
 62
255
 10
     1101.679921
 20
     1000.220625
 30
       19.478066
  0
POINT
  8
Default
 62
255
 10
     1101.660315
 20
     1000.170324
 30
       19.488224
  0
POINT
  8
Default
 62
255
 10
     1101.644775
 20
     1000.175693
 30
       19.542879
  0
POINT
  8
Default
 62
255
 10
     1101.726404
 20
     1000.331712
 30
       19.540437
  0
POINT
  8
Default
 62
255
 10
     1101.704832
 20
     1000.314279
 30
       19.592236
  0
POINT
  8
Default
 62
255
 10
     1101.717749
 20
     1000.307356
 30
       19.461371
  0
POINT
  8
Default
 62
255
 10
     1101.609483
 20
     1000.097062
 30
       19.542788
  0
POINT
  8
Default
 62
255
 10
     1101.613671
 20
     1000.115952
 30
       19.546655
  0
POINT
  8
Default
 62
255
 10
     1101.631990
 20
     1000.126310
 30
       19.517720
  0
POINT
  8
Default
 62
255
 10
     1101.578764
 20
     1000.110505
 30
       19.533263
  0
POINT
  8
Default
 62
255
 10
     1101.562310
 20
     1000.132870
 30
       19.539513
  0
POINT
  8
Default
 62
255
 10
     1101.670645
 20
     1000.447292
 30
       19.603983
  0
POINT
  8
Default
 62
255
 10
     1101.645351
 20
     1000.470378
 30
       19.593032
  0
POINT
  8
Default
 62
255
 10
     1101.676511
 20
     1000.486698
 30
       19.600884
  0
POINT
  8
Default
 62
255
 10
     1101.698411
 20
     1000.458397
 30
       19.602239
  0
POINT
  8
Default
 62
255
 10
     1101.710694
 20
     1000.411197
 30
       19.625710
  0
POINT
  8
Default
 62
255
 10
     1101.740299
 20
     1000.429185
 30
       19.613871
  0
POINT
  8
Default
 62
255
 10
     1101.643276
 20
     1000.417283
 30
       19.603732
  0
POINT
  8
Default
 62
255
 10
     1101.681778
 20
     1000.396644
 30
       19.625405
  0
POINT
  8
Default
 62
255
 10
     1101.686936
 20
     1000.298736
 30
       19.615594
  0
POINT
  8
Default
 62
255
 10
     1101.682703
 20
     1000.349113
 30
       19.624459
  0
POINT
  8
Default
 62
255
 10
     1101.649899
 20
     1000.351719
 30
       19.614154
  0
POINT
  8
Default
 62
255
 10
     1101.631393
 20
     1000.387974
 30
       19.610328
  0
POINT
  8
Default
 62
255
 10
     1101.664113
 20
     1000.256069
 30
       19.595254
  0
POINT
  8
Default
 62
255
 10
     1101.601266
 20
     1000.272918
 30
       19.573158
  0
POINT
  8
Default
 62
255
 10
     1101.592520
 20
     1000.326403
 30
       19.595576
  0
POINT
  8
Default
 62
255
 10
     1101.562623
 20
     1000.234857
 30
       19.560812
  0
POINT
  8
Default
 62
255
 10
     1101.643330
 20
     1000.297544
 30
       19.600640
  0
POINT
  8
Default
 62
255
 10
     1101.512868
 20
     1000.279761
 30
       19.567577
  0
POINT
  8
Default
 62
255
 10
     1101.583252
 20
     1000.185832
 30
       19.555966
  0
POINT
  8
Default
 62
255
 10
     1101.505071
 20
     1000.207919
 30
       19.545463
  0
POINT
  8
Default
 62
255
 10
     1101.530442
 20
     1000.187576
 30
       19.545982
  0
POINT
  8
Default
 62
255
 10
     1101.617526
 20
     1000.151784
 30
       19.551236
  0
POINT
  8
Default
 62
255
 10
     1101.553297
 20
     1000.163032
 30
       19.542478
  0
POINT
  8
Default
 62
255
 10
     1101.623724
 20
     1000.863914
 30
       19.372178
  0
POINT
  8
Default
 62
255
 10
     1101.628156
 20
     1000.776283
 30
       19.387256
  0
POINT
  8
Default
 62
255
 10
     1101.652268
 20
     1000.818972
 30
       19.376926
  0
POINT
  8
Default
 62
255
 10
     1101.690743
 20
     1000.887913
 30
       19.356148
  0
POINT
  8
Default
 62
255
 10
     1101.758782
 20
     1001.030751
 30
       19.348250
  0
POINT
  8
Default
 62
255
 10
     1101.674454
 20
     1000.931233
 30
       19.358751
  0
POINT
  8
Default
 62
255
 10
     1102.891412
 20
     1000.380538
 30
       19.298527
  0
POINT
  8
Default
 62
255
 10
     1102.855151
 20
     1000.447538
 30
       19.305431
  0
POINT
  8
Default
 62
255
 10
     1102.804962
 20
     1000.437392
 30
       19.327005
  0
POINT
  8
Default
 62
255
 10
     1102.742111
 20
     1000.404588
 30
       19.317473
  0
POINT
  8
Default
 62
255
 10
     1102.976929
 20
     1000.442085
 30
       19.287688
  0
POINT
  8
Default
 62
255
 10
     1102.812041
 20
     1000.546775
 30
       19.292160
  0
POINT
  8
Default
 62
255
 10
     1102.760420
 20
     1000.482047
 30
       19.283658
  0
POINT
  8
Default
 62
255
 10
     1102.717198
 20
     1000.403460
 30
       19.264092
  0
POINT
  8
Default
 62
255
 10
     1102.720254
 20
     1000.300236
 30
       19.330535
  0
POINT
  8
Default
 62
255
 10
     1102.764308
 20
     1000.257608
 30
       19.335255
  0
POINT
  8
Default
 62
255
 10
     1102.883328
 20
     1000.219019
 30
       19.331098
  0
POINT
  8
Default
 62
255
 10
     1102.824366
 20
     1000.175220
 30
       19.332200
  0
POINT
  8
Default
 62
255
 10
     1102.733535
 20
     1000.204875
 30
       19.328686
  0
POINT
  8
Default
 62
255
 10
     1102.699726
 20
     1000.238903
 30
       19.329925
  0
POINT
  8
Default
 62
255
 10
     1102.654898
 20
     1000.284116
 30
       19.274939
  0
POINT
  8
Default
 62
255
 10
     1102.764097
 20
     1000.137503
 30
       19.337806
  0
POINT
  8
Default
 62
255
 10
     1102.710845
 20
     1000.088446
 30
       19.346783
  0
POINT
  8
Default
 62
255
 10
     1102.688388
 20
     1000.158750
 30
       19.338089
  0
POINT
  8
Default
 62
255
 10
     1102.645296
 20
     1000.223726
 30
       19.330782
  0
POINT
  8
Default
 62
255
 10
     1102.575624
 20
     1000.180184
 30
       19.344364
  0
POINT
  8
Default
 62
255
 10
     1102.595253
 20
     1000.254675
 30
       19.224716
  0
POINT
  8
Default
 62
255
 10
     1102.697953
 20
     1000.032235
 30
       19.353012
  0
POINT
  8
Default
 62
255
 10
     1102.524600
 20
      999.908826
 30
       19.395610
  0
POINT
  8
Default
 62
255
 10
     1102.536633
 20
      999.813767
 30
       19.382148
  0
POINT
  8
Default
 62
255
 10
     1102.472334
 20
      999.764561
 30
       19.400367
  0
POINT
  8
Default
 62
255
 10
     1102.452487
 20
      999.676327
 30
       19.407798
  0
POINT
  8
Default
 62
255
 10
     1102.405466
 20
      999.612340
 30
       19.421453
  0
POINT
  8
Default
 62
255
 10
     1102.386503
 20
      999.740856
 30
       19.420580
  0
POINT
  8
Default
 62
255
 10
     1102.334590
 20
      999.605947
 30
       19.431319
  0
POINT
  8
Default
 62
255
 10
     1102.369017
 20
      999.544986
 30
       19.444347
  0
POINT
  8
Default
 62
255
 10
     1102.278520
 20
      999.603299
 30
       19.444558
  0
POINT
  8
Default
 62
255
 10
     1102.489919
 20
     1000.523251
 30
       19.065572
  0
POINT
  8
Default
 62
255
 10
     1102.446823
 20
     1000.596029
 30
       19.015483
  0
POINT
  8
Default
 62
255
 10
     1102.401085
 20
     1000.569201
 30
       19.070055
  0
POINT
  8
Default
 62
255
 10
     1102.519612
 20
     1000.597899
 30
       19.049667
  0
POINT
  8
Default
 62
255
 10
     1102.482144
 20
     1000.496979
 30
       19.126777
  0
POINT
  8
Default
 62
255
 10
     1102.448779
 20
     1000.537486
 30
       19.068192
  0
POINT
  8
Default
 62
255
 10
     1102.457070
 20
     1000.641250
 30
       18.964266
  0
POINT
  8
Default
 62
255
 10
     1102.382406
 20
     1000.597690
 30
       19.066018
  0
POINT
  8
Default
 62
255
 10
     1102.380819
 20
     1000.638610
 30
       19.025255
  0
POINT
  8
Default
 62
255
 10
     1102.379316
 20
     1000.678907
 30
       18.970764
  0
POINT
  8
Default
 62
255
 10
     1102.135816
 20
     1000.841339
 30
       19.001476
  0
POINT
  8
Default
 62
255
 10
     1102.203940
 20
     1000.821180
 30
       19.022497
  0
POINT
  8
Default
 62
255
 10
     1102.160965
 20
     1000.883292
 30
       18.998454
  0
POINT
  8
Default
 62
255
 10
     1102.016359
 20
     1000.962119
 30
       19.021027
  0
POINT
  8
Default
 62
255
 10
     1102.381079
 20
     1000.743275
 30
       18.988368
  0
POINT
  8
Default
 62
255
 10
     1102.472295
 20
     1000.736355
 30
       18.955139
  0
POINT
  8
Default
 62
255
 10
     1102.462556
 20
     1000.680104
 30
       18.984344
  0
POINT
  8
Default
 62
255
 10
     1102.575259
 20
     1000.614349
 30
       18.954538
  0
POINT
  8
Default
 62
255
 10
     1102.522204
 20
     1000.656174
 30
       18.971522
  0
POINT
  8
Default
 62
255
 10
     1102.639261
 20
     1000.590483
 30
       18.946440
  0
LINE
  8
Default
 62
255
 10
     1102.308947
 20
      999.871574
 30
       19.210384
 11
     1102.301323
 21
      999.907849
 31
       19.167449
  0
LINE
  8
Default
 62
255
 10
     1102.301323
 20
      999.907849
 30
       19.167449
 11
     1102.284134
 21
      999.930337
 31
       19.143999
  0
LINE
  8
Default
 62
255
 10
     1102.284134
 20
      999.930337
 30
       19.143999
 11
     1102.240242
 21
      999.951445
 31
       19.147003
  0
LINE
  8
Default
 62
255
 10
     1102.240242
 20
      999.951445
 30
       19.147003
 11
     1102.223655
 21
      999.980747
 31
       19.141377
  0
LINE
  8
Default
 62
255
 10
     1102.223655
 20
      999.980747
 30
       19.141377
 11
     1102.163461
 21
     1000.020176
 31
       19.136955
  0
LINE
  8
Default
 62
255
 10
     1102.163461
 20
     1000.020176
 30
       19.136955
 11
     1102.101008
 21
     1000.036578
 31
       19.135842
  0
LINE
  8
Default
 62
255
 10
     1102.101008
 20
     1000.036578
 30
       19.135842
 11
     1102.061118
 21
     1000.037331
 31
       19.134689
  0
LINE
  8
Default
 62
255
 10
     1102.061118
 20
     1000.037331
 30
       19.134689
 11
     1101.956210
 21
     1000.074927
 31
       19.137146
  0
LINE
  8
Default
 62
255
 10
     1101.956210
 20
     1000.074927
 30
       19.137146
 11
     1101.928415
 21
     1000.092904
 31
       19.139231
  0
LINE
  8
Default
 62
255
 10
     1101.928415
 20
     1000.092904
 30
       19.139231
 11
     1101.873303
 21
     1000.108440
 31
       19.143282
  0
LINE
  8
Default
 62
255
 10
     1101.873303
 20
     1000.108440
 30
       19.143282
 11
     1101.821531
 21
     1000.146673
 31
       19.147273
  0
LINE
  8
Default
 62
255
 10
     1101.821531
 20
     1000.146673
 30
       19.147273
 11
     1101.747983
 21
     1000.182467
 31
       19.149464
  0
LINE
  8
Default
 62
255
 10
     1101.747983
 20
     1000.182467
 30
       19.149464
 11
     1101.681416
 21
     1000.212186
 31
       19.195219
  0
LINE
  8
Default
 62
255
 10
     1101.681416
 20
     1000.212186
 30
       19.195219
 11
     1101.741114
 21
     1000.271262
 31
       19.188690
  0
LINE
  8
Default
 62
255
 10
     1101.741114
 20
     1000.271262
 30
       19.188690
 11
     1101.763753
 21
     1000.320828
 31
       19.177851
  0
LINE
  8
Default
 62
255
 10
     1101.763753
 20
     1000.320828
 30
       19.177851
 11
     1101.814161
 21
     1000.398229
 31
       19.168315
  0
LINE
  8
Default
 62
255
 10
     1101.814161
 20
     1000.398229
 30
       19.168315
 11
     1101.850204
 21
     1000.472216
 31
       19.156092
  0
LINE
  8
Default
 62
255
 10
     1101.850204
 20
     1000.472216
 30
       19.156092
 11
     1101.850758
 21
     1000.550282
 31
       19.157091
  0
LINE
  8
Default
 62
255
 10
     1101.850758
 20
     1000.550282
 30
       19.157091
 11
     1101.863790
 21
     1000.597353
 31
       19.131709
  0
LINE
  8
Default
 62
255
 10
     1101.676511
 20
     1000.486698
 30
       19.600884
 11
     1101.740299
 21
     1000.429185
 31
       19.613871
  0
LINE
  8
Default
 62
255
 10
     1101.740299
 20
     1000.429185
 30
       19.613871
 11
     1101.686936
 21
     1000.298736
 31
       19.615594
  0
LINE
  8
Default
 62
255
 10
     1101.686936
 20
     1000.298736
 30
       19.615594
 11
     1101.664113
 21
     1000.256069
 31
       19.595254
  0
LINE
  8
Default
 62
255
 10
     1101.664113
 20
     1000.256069
 30
       19.595254
 11
     1101.617526
 21
     1000.151784
 31
       19.551236
  0
LINE
  8
Default
 62
255
 10
     1101.617526
 20
     1000.151784
 30
       19.551236
 11
     1101.613671
 21
     1000.115952
 31
       19.546655
  0
LINE
  8
Default
 62
255
 10
     1101.613671
 20
     1000.115952
 30
       19.546655
 11
     1101.609483
 21
     1000.097062
 31
       19.542788
  0
LINE
  8
Default
 62
255
 10
     1101.609483
 20
     1000.097062
 30
       19.542788
 11
     1101.602427
 21
     1000.067119
 31
       19.469381
  0
LINE
  8
Default
 62
255
 10
     1101.985675
 20
     1000.920347
 30
       19.125626
 11
     1102.050648
 21
     1000.876447
 31
       19.107527
  0
LINE
  8
Default
 62
255
 10
     1102.050648
 20
     1000.876447
 30
       19.107527
 11
     1102.130539
 21
     1000.775074
 31
       19.099017
  0
LINE
  8
Default
 62
255
 10
     1102.130539
 20
     1000.775074
 30
       19.099017
 11
     1102.191980
 21
     1000.758804
 31
       19.099000
  0
LINE
  8
Default
 62
255
 10
     1102.191980
 20
     1000.758804
 30
       19.099000
 11
     1102.283365
 21
     1000.742141
 31
       19.098663
  0
LINE
  8
Default
 62
255
 10
     1102.283365
 20
     1000.742141
 30
       19.098663
 11
     1102.306552
 21
     1000.738129
 31
       19.058792
  0
LINE
  8
Default
 62
255
 10
     1102.306552
 20
     1000.738129
 30
       19.058792
 11
     1102.306842
 21
     1000.671983
 31
       19.072908
  0
LINE
  8
Default
 62
255
 10
     1102.306842
 20
     1000.671983
 30
       19.072908
 11
     1102.345384
 21
     1000.636250
 31
       19.070813
  0
LINE
  8
Default
 62
255
 10
     1102.345384
 20
     1000.636250
 30
       19.070813
 11
     1102.366386
 21
     1000.617415
 31
       19.069159
  0
LINE
  8
Default
 62
255
 10
     1102.366386
 20
     1000.617415
 30
       19.069159
 11
     1102.382406
 21
     1000.597690
 31
       19.066018
  0
LINE
  8
Default
 62
255
 10
     1102.382406
 20
     1000.597690
 30
       19.066018
 11
     1102.380539
 21
     1000.517794
 31
       19.110447
  0
LINE
  8
Default
 62
255
 10
     1102.380539
 20
     1000.517794
 30
       19.110447
 11
     1102.482144
 21
     1000.496979
 31
       19.126777
  0
LINE
  8
Default
 62
255
 10
     1102.482144
 20
     1000.496979
 30
       19.126777
 11
     1102.576723
 21
     1000.410400
 31
       19.113016
  0
LINE
  8
Default
 62
255
 10
     1102.576723
 20
     1000.410400
 30
       19.113016
 11
     1102.642117
 21
     1000.446704
 31
       19.125491
  0
LINE
  8
Default
 62
255
 10
     1102.642117
 20
     1000.446704
 30
       19.125491
 11
     1102.573783
 21
     1000.312399
 31
       19.126489
  0
LINE
  8
Default
 62
255
 10
     1102.573783
 20
     1000.312399
 30
       19.126489
 11
     1102.527626
 21
     1000.264873
 31
       19.133760
  0
LINE
  8
Default
 62
255
 10
     1102.527626
 20
     1000.264873
 30
       19.133760
 11
     1102.498438
 21
     1000.229593
 31
       19.134447
  0
LINE
  8
Default
 62
255
 10
     1102.498438
 20
     1000.229593
 30
       19.134447
 11
     1102.399366
 21
     1000.068655
 31
       19.140624
  0
LINE
  8
Default
 62
255
 10
     1102.399366
 20
     1000.068655
 30
       19.140624
 11
     1102.320043
 21
      999.962684
 31
       19.145716
  0
LINE
  8
Default
 62
255
 10
     1102.320043
 20
      999.962684
 30
       19.145716
 11
     1102.284134
 21
      999.930337
 31
       19.143999
  0
LINE
  8
Default
 62
255
 10
     1101.985675
 20
     1000.920347
 30
       19.125626
 11
     1101.955098
 21
     1000.872970
 31
       19.130041
  0
LINE
  8
Default
 62
255
 10
     1101.955098
 20
     1000.872970
 30
       19.130041
 11
     1101.942861
 21
     1000.821190
 31
       19.121614
  0
LINE
  8
Default
 62
255
 10
     1101.942861
 20
     1000.821190
 30
       19.121614
 11
     1101.865944
 21
     1000.735655
 31
       19.123851
  0
LINE
  8
Default
 62
255
 10
     1101.865944
 20
     1000.735655
 30
       19.123851
 11
     1101.819481
 21
     1000.669112
 31
       19.136652
  0
LINE
  8
Default
 62
255
 10
     1101.819481
 20
     1000.669112
 30
       19.136652
 11
     1101.776064
 21
     1000.646535
 31
       19.173004
  0
LINE
  8
Default
 62
255
 10
     1101.776064
 20
     1000.646535
 30
       19.173004
 11
     1101.863790
 21
     1000.597353
 31
       19.131709
  0
LINE
  8
Default
 62
255
 10
     1101.933616
 20
     1001.062510
 30
       19.339113
 11
     1101.849703
 21
     1000.950173
 31
       19.339571
  0
LINE
  8
Default
 62
255
 10
     1101.849703
 20
     1000.950173
 30
       19.339571
 11
     1101.833041
 21
     1000.924676
 31
       19.330822
  0
LINE
  8
Default
 62
255
 10
     1101.833041
 20
     1000.924676
 30
       19.330822
 11
     1101.691138
 21
     1000.731981
 31
       19.375346
  0
LINE
  8
Default
 62
255
 10
     1101.691138
 20
     1000.731981
 30
       19.375346
 11
     1101.675498
 21
     1000.682899
 31
       19.353480
  0
LINE
  8
Default
 62
255
 10
     1101.675498
 20
     1000.682899
 30
       19.353480
 11
     1101.727556
 21
     1000.657591
 31
       19.253303
  0
LINE
  8
Default
 62
255
 10
     1101.727556
 20
     1000.657591
 30
       19.253303
 11
     1101.776064
 21
     1000.646535
 31
       19.173004
  0
LINE
  8
Default
 62
255
 10
     1102.369017
 20
      999.544986
 30
       19.444347
 11
     1102.239235
 21
      999.655657
 31
       19.439379
  0
LINE
  8
Default
 62
255
 10
     1102.239235
 20
      999.655657
 30
       19.439379
 11
     1101.602427
 21
     1000.067119
 31
       19.469381
  0
LINE
  8
Default
 62
255
 10
     1102.369017
 20
      999.544986
 30
       19.444347
 11
     1102.405466
 21
      999.612340
 31
       19.421453
  0
LINE
  8
Default
 62
255
 10
     1102.405466
 20
      999.612340
 30
       19.421453
 11
     1102.452487
 21
      999.676327
 31
       19.407798
  0
LINE
  8
Default
 62
255
 10
     1102.452487
 20
      999.676327
 30
       19.407798
 11
     1102.536633
 21
      999.813767
 31
       19.382148
  0
LINE
  8
Default
 62
255
 10
     1102.536633
 20
      999.813767
 30
       19.382148
 11
     1102.656343
 21
      999.956833
 31
       19.376985
  0
LINE
  8
Default
 62
255
 10
     1102.656343
 20
      999.956833
 30
       19.376985
 11
     1102.666958
 21
      999.994562
 31
       19.371447
  0
LINE
  8
Default
 62
255
 10
     1102.666958
 20
      999.994562
 30
       19.371447
 11
     1102.697953
 21
     1000.032235
 31
       19.353012
  0
LINE
  8
Default
 62
255
 10
     1102.697953
 20
     1000.032235
 30
       19.353012
 11
     1102.710845
 21
     1000.088446
 31
       19.346783
  0
LINE
  8
Default
 62
255
 10
     1102.710845
 20
     1000.088446
 30
       19.346783
 11
     1102.764097
 21
     1000.137503
 31
       19.337806
  0
LINE
  8
Default
 62
255
 10
     1102.764097
 20
     1000.137503
 30
       19.337806
 11
     1102.824366
 21
     1000.175220
 31
       19.332200
  0
LINE
  8
Default
 62
255
 10
     1102.824366
 20
     1000.175220
 30
       19.332200
 11
     1102.883328
 21
     1000.219019
 31
       19.331098
  0
LINE
  8
Default
 62
255
 10
     1102.883328
 20
     1000.219019
 30
       19.331098
 11
     1102.976929
 21
     1000.442085
 31
       19.287688
  0
LINE
  8
Default
 62
255
 10
     1102.812041
 20
     1000.546775
 30
       19.292160
 11
     1102.760420
 21
     1000.482047
 31
       19.283658
  0
LINE
  8
Default
 62
255
 10
     1102.760420
 20
     1000.482047
 30
       19.283658
 11
     1102.645296
 21
     1000.223726
 31
       19.330782
  0
LINE
  8
Default
 62
255
 10
     1102.645296
 20
     1000.223726
 30
       19.330782
 11
     1102.575624
 21
     1000.180184
 31
       19.344364
  0
LINE
  8
Default
 62
255
 10
     1102.575624
 20
     1000.180184
 30
       19.344364
 11
     1102.563624
 21
     1000.091405
 31
       19.363495
  0
LINE
  8
Default
 62
255
 10
     1102.563624
 20
     1000.091405
 30
       19.363495
 11
     1102.502946
 21
      999.993520
 31
       19.386353
  0
LINE
  8
Default
 62
255
 10
     1102.502946
 20
      999.993520
 30
       19.386353
 11
     1102.451170
 21
      999.960184
 31
       19.402762
  0
LINE
  8
Default
 62
255
 10
     1102.451170
 20
      999.960184
 30
       19.402762
 11
     1102.394637
 21
      999.878045
 31
       19.407744
  0
LINE
  8
Default
 62
255
 10
     1102.394637
 20
      999.878045
 30
       19.407744
 11
     1102.369997
 21
      999.842448
 31
       19.409702
  0
LINE
  8
Default
 62
255
 10
     1102.369997
 20
      999.842448
 30
       19.409702
 11
     1102.327441
 21
      999.810874
 31
       19.400900
  0
LINE
  8
Default
 62
255
 10
     1102.327441
 20
      999.810874
 30
       19.400900
 11
     1102.326939
 21
      999.766191
 31
       19.405650
  0
LINE
  8
Default
 62
255
 10
     1102.326939
 20
      999.766191
 30
       19.405650
 11
     1102.307115
 21
      999.748687
 31
       19.409379
  0
LINE
  8
Default
 62
255
 10
     1102.307115
 20
      999.748687
 30
       19.409379
 11
     1102.285547
 21
      999.716167
 31
       19.427783
  0
LINE
  8
Default
 62
255
 10
     1102.285547
 20
      999.716167
 30
       19.427783
 11
     1102.239235
 21
      999.655657
 31
       19.439379
  0
LINE
  8
Default
 62
255
 10
     1101.664115
 20
     1000.129120
 30
       19.100143
 11
     1101.632833
 21
     1000.119563
 31
       19.126747
  0
LINE
  8
Default
 62
255
 10
     1101.632833
 20
     1000.119563
 30
       19.126747
 11
     1101.627504
 21
     1000.088666
 31
       19.141970
  0
LINE
  8
Default
 62
255
 10
     1101.627504
 20
     1000.088666
 30
       19.141970
 11
     1101.661941
 21
     1000.063262
 31
       19.111027
  0
LINE
  8
Default
 62
255
 10
     1101.661941
 20
     1000.063262
 30
       19.111027
 11
     1101.724566
 21
     1000.025756
 31
       19.114158
  0
LINE
  8
Default
 62
255
 10
     1101.724566
 20
     1000.025756
 30
       19.114158
 11
     1101.873918
 21
      999.922742
 31
       19.088660
  0
LINE
  8
Default
 62
255
 10
     1101.873918
 20
      999.922742
 30
       19.088660
 11
     1101.989507
 21
      999.866767
 31
       19.104178
  0
LINE
  8
Default
 62
255
 10
     1101.989507
 20
      999.866767
 30
       19.104178
 11
     1102.109834
 21
      999.773366
 31
       19.090431
  0
LINE
  8
Default
 62
255
 10
     1102.109834
 20
      999.773366
 30
       19.090431
 11
     1102.163495
 21
      999.750321
 31
       19.087627
  0
LINE
  8
Default
 62
255
 10
     1101.664115
 20
     1000.129120
 30
       19.100143
 11
     1101.790851
 21
     1000.048649
 31
       19.086344
  0
LINE
  8
Default
 62
255
 10
     1101.790851
 20
     1000.048649
 30
       19.086344
 11
     1101.891240
 21
     1000.011857
 31
       19.092684
  0
LINE
  8
Default
 62
255
 10
     1101.891240
 20
     1000.011857
 30
       19.092684
 11
     1101.933969
 21
      999.967261
 31
       19.078937
  0
LINE
  8
Default
 62
255
 10
     1101.933969
 20
      999.967261
 30
       19.078937
 11
     1102.010803
 21
      999.928610
 31
       19.099020
  0
LINE
  8
Default
 62
255
 10
     1102.010803
 20
      999.928610
 30
       19.099020
 11
     1102.198066
 21
      999.861482
 31
       19.094364
  0
LINE
  8
Default
 62
255
 10
     1102.198066
 20
      999.861482
 30
       19.094364
 11
     1102.246625
 21
      999.816263
 31
       19.093562
  0
LINE
  8
Default
 62
255
 10
     1102.246625
 20
      999.816263
 30
       19.093562
 11
     1102.214239
 21
      999.744883
 31
       19.096324
  0
LINE
  8
Default
 62
255
 10
     1102.214239
 20
      999.744883
 30
       19.096324
 11
     1102.163495
 21
      999.750321
 31
       19.087627
  0
LINE
  8
Default
 62
255
 10
     1101.636886
 20
     1000.529326
 30
       19.559756
 11
     1101.645351
 21
     1000.470378
 31
       19.593032
  0
LINE
  8
Default
 62
255
 10
     1101.505071
 20
     1000.207919
 30
       19.545463
 11
     1101.530442
 21
     1000.187576
 31
       19.545982
  0
LINE
  8
Default
 62
255
 10
     1101.530442
 20
     1000.187576
 30
       19.545982
 11
     1101.553297
 21
     1000.163032
 31
       19.542478
  0
LINE
  8
Default
 62
255
 10
     1101.553297
 20
     1000.163032
 30
       19.542478
 11
     1101.562310
 21
     1000.132870
 31
       19.539513
  0
LINE
  8
Default
 62
255
 10
     1101.562310
 20
     1000.132870
 30
       19.539513
 11
     1101.578764
 21
     1000.110505
 31
       19.533263
  0
LINE
  8
Default
 62
255
 10
     1101.578764
 20
     1000.110505
 30
       19.533263
 11
     1101.602427
 21
     1000.067119
 31
       19.469381
  0
LINE
  8
Default
 62
255
 10
     1101.645351
 20
     1000.470378
 30
       19.593032
 11
     1101.512868
 21
     1000.279761
 31
       19.567577
  0
LINE
  8
Default
 62
255
 10
     1101.512868
 20
     1000.279761
 30
       19.567577
 11
     1101.505071
 21
     1000.207919
 31
       19.545463
  0
LINE
  8
Default
 62
255
 10
     1101.844794
 20
     1001.233748
 30
       19.353696
 11
     1101.780847
 21
     1001.207939
 31
       19.353075
  0
LINE
  8
Default
 62
255
 10
     1101.780847
 20
     1001.207939
 30
       19.353075
 11
     1101.737846
 21
     1001.186241
 31
       19.355396
  0
LINE
  8
Default
 62
255
 10
     1101.737846
 20
     1001.186241
 30
       19.355396
 11
     1101.729813
 21
     1001.141782
 31
       19.361620
  0
LINE
  8
Default
 62
255
 10
     1101.729813
 20
     1001.141782
 30
       19.361620
 11
     1101.674454
 21
     1000.931233
 31
       19.358751
  0
LINE
  8
Default
 62
255
 10
     1101.674454
 20
     1000.931233
 30
       19.358751
 11
     1101.623724
 21
     1000.863914
 31
       19.372178
  0
LINE
  8
Default
 62
255
 10
     1101.623724
 20
     1000.863914
 30
       19.372178
 11
     1101.543241
 21
     1000.662570
 31
       19.427576
  0
LINE
  8
Default
 62
255
 10
     1101.543241
 20
     1000.662570
 30
       19.427576
 11
     1101.583464
 21
     1000.616907
 31
       19.441938
  0
LINE
  8
Default
 62
255
 10
     1101.583464
 20
     1000.616907
 30
       19.441938
 11
     1101.587269
 21
     1000.574336
 31
       19.451221
  0
LINE
  8
Default
 62
255
 10
     1101.587269
 20
     1000.574336
 30
       19.451221
 11
     1101.636886
 21
     1000.529326
 31
       19.559756
  0
ENDSEC
  0
EOF
