  0
SECTION
  2
HEADER
  9
$PDMODE
 70
   34
  9
$PDSIZE
 40
   -3.0
  0
ENDSEC
  0
SECTION
  2
TABLES
  0
TABLE
  2
LTYPE
 70
 1
  0
LTYPE
  2
CONTINUOUS
  70
 64
  3
Solid line
  72
 65
 73
 0
  40
 0.0
  0
ENDTAB
  0
TABLE
  2
LAYER
 70
 2
 0
LAYER
  2
Default
  70
 0
 62
 7
  6
CONTINUOUS
 0
LAYER
  2
BarLn
  70
 0
 62
 7
  6
CONTINUOUS
  0
ENDTAB
  0 
ENDSEC
  0
SECTION
  2
ENTITIES
  0
POINT
  8
Default
 62
255
 10
     1102.833050
 20
     1000.403500
 30
       19.317300
  0
POINT
  8
Default
 62
255
 10
     1102.549040
 20
     1000.568319
 30
       19.180388
  0
POINT
  8
Default
 62
255
 10
     1102.543190
 20
     1000.555524
 30
       19.202215
  0
POINT
  8
Default
 62
255
 10
     1102.533256
 20
     1000.539791
 30
       19.203067
  0
POINT
  8
Default
 62
255
 10
     1102.520801
 20
     1000.519319
 30
       19.202825
  0
POINT
  8
Default
 62
255
 10
     1102.504013
 20
     1000.499386
 30
       19.204245
  0
POINT
  8
Default
 62
255
 10
     1102.487785
 20
     1000.478330
 30
       19.206232
  0
POINT
  8
Default
 62
255
 10
     1102.476343
 20
     1000.461828
 30
       19.209754
  0
POINT
  8
Default
 62
255
 10
     1102.481039
 20
     1000.443077
 30
       19.201991
  0
POINT
  8
Default
 62
255
 10
     1102.500957
 20
     1000.431472
 30
       19.201441
  0
POINT
  8
Default
 62
255
 10
     1102.521167
 20
     1000.416328
 30
       19.206191
  0
POINT
  8
Default
 62
255
 10
     1102.542686
 20
     1000.403431
 30
       19.209081
  0
POINT
  8
Default
 62
255
 10
     1102.559634
 20
     1000.386774
 30
       19.207780
  0
POINT
  8
Default
 62
255
 10
     1102.577509
 20
     1000.373252
 30
       19.211267
  0
POINT
  8
Default
 62
255
 10
     1102.597399
 20
     1000.358614
 30
       19.215692
  0
POINT
  8
Default
 62
255
 10
     1102.614757
 20
     1000.342205
 30
       19.225225
  0
POINT
  8
Default
 62
255
 10
     1102.629824
 20
     1000.323830
 30
       19.227792
  0
POINT
  8
Default
 62
255
 10
     1102.647031
 20
     1000.310341
 30
       19.228322
  0
POINT
  8
Default
 62
255
 10
     1102.655169
 20
     1000.293718
 30
       19.241845
  0
POINT
  8
Default
 62
255
 10
     1102.652135
 20
     1000.293241
 30
       19.262841
  0
POINT
  8
Default
 62
255
 10
     1102.659819
 20
     1000.297405
 30
       19.284896
  0
POINT
  8
Default
 62
255
 10
     1102.671030
 20
     1000.305336
 30
       19.298702
  0
POINT
  8
Default
 62
255
 10
     1102.690676
 20
     1000.308412
 30
       19.318429
  0
POINT
  8
Default
 62
255
 10
     1102.708665
 20
     1000.312110
 30
       19.328409
  0
POINT
  8
Default
 62
255
 10
     1102.728349
 20
     1000.311538
 30
       19.329385
  0
POINT
  8
Default
 62
255
 10
     1102.736905
 20
     1000.289796
 30
       19.332272
  0
POINT
  8
Default
 62
255
 10
     1102.307056
 20
     1000.173850
 30
       19.224201
  0
POINT
  8
Default
 62
255
 10
     1102.295431
 20
     1000.152179
 30
       19.226746
  0
POINT
  8
Default
 62
255
 10
     1102.284473
 20
     1000.136338
 30
       19.226451
  0
POINT
  8
Default
 62
255
 10
     1102.273788
 20
     1000.121832
 30
       19.226054
  0
POINT
  8
Default
 62
255
 10
     1102.254469
 20
     1000.100404
 30
       19.226485
  0
POINT
  8
Default
 62
255
 10
     1102.234383
 20
     1000.079147
 30
       19.227029
  0
POINT
  8
Default
 62
255
 10
     1102.218226
 20
     1000.064332
 30
       19.227863
  0
POINT
  8
Default
 62
255
 10
     1102.204871
 20
     1000.049825
 30
       19.228209
  0
POINT
  8
Default
 62
255
 10
     1102.183911
 20
     1000.033777
 30
       19.226616
  0
POINT
  8
Default
 62
255
 10
     1102.164755
 20
     1000.017502
 30
       19.221742
  0
POINT
  8
Default
 62
255
 10
     1102.320692
 20
     1000.200261
 30
       19.222742
  0
POINT
  8
Default
 62
255
 10
     1102.330914
 20
     1000.217251
 30
       19.222428
  0
POINT
  8
Default
 62
255
 10
     1102.341286
 20
     1000.238115
 30
       19.224838
  0
POINT
  8
Default
 62
255
 10
     1102.353080
 20
     1000.223981
 30
       19.217127
  0
POINT
  8
Default
 62
255
 10
     1102.334142
 20
     1000.238553
 30
       19.221302
  0
POINT
  8
Default
 62
255
 10
     1102.372020
 20
     1000.212776
 30
       19.207021
  0
POINT
  8
Default
 62
255
 10
     1102.394274
 20
     1000.199871
 30
       19.205833
  0
POINT
  8
Default
 62
255
 10
     1102.411534
 20
     1000.187508
 30
       19.217412
  0
POINT
  8
Default
 62
255
 10
     1102.432487
 20
     1000.177998
 30
       19.224661
  0
POINT
  8
Default
 62
255
 10
     1102.451687
 20
     1000.171648
 30
       19.226913
  0
POINT
  8
Default
 62
255
 10
     1102.471249
 20
     1000.161899
 30
       19.227660
  0
POINT
  8
Default
 62
255
 10
     1102.484614
 20
     1000.142340
 30
       19.237292
  0
POINT
  8
Default
 62
255
 10
     1102.495484
 20
     1000.127498
 30
       19.256207
  0
POINT
  8
Default
 62
255
 10
     1102.509207
 20
     1000.120596
 30
       19.272047
  0
POINT
  8
Default
 62
255
 10
     1102.518865
 20
     1000.109531
 30
       19.291690
  0
POINT
  8
Default
 62
255
 10
     1102.522049
 20
     1000.104313
 30
       19.314089
  0
POINT
  8
Default
 62
255
 10
     1102.526942
 20
     1000.098740
 30
       19.336744
  0
POINT
  8
Default
 62
255
 10
     1102.535161
 20
     1000.090080
 30
       19.357573
  0
POINT
  8
Default
 62
255
 10
     1102.551145
 20
     1000.076783
 30
       19.373628
  0
POINT
  8
Default
 62
255
 10
     1101.765140
 20
     1000.262160
 30
       19.219200
  0
POINT
  8
Default
 62
255
 10
     1101.719711
 20
     1000.216587
 30
       19.202070
  0
POINT
  8
Default
 62
255
 10
     1101.728045
 20
     1000.235846
 30
       19.220978
  0
POINT
  8
Default
 62
255
 10
     1101.737545
 20
     1000.251973
 30
       19.227356
  0
POINT
  8
Default
 62
255
 10
     1101.747141
 20
     1000.272091
 30
       19.230199
  0
POINT
  8
Default
 62
255
 10
     1101.760560
 20
     1000.297532
 30
       19.233413
  0
POINT
  8
Default
 62
255
 10
     1101.775114
 20
     1000.320734
 30
       19.230703
  0
POINT
  8
Default
 62
255
 10
     1101.785836
 20
     1000.336469
 30
       19.229402
  0
POINT
  8
Default
 62
255
 10
     1101.794590
 20
     1000.351594
 30
       19.227568
  0
POINT
  8
Default
 62
255
 10
     1101.807002
 20
     1000.375444
 30
       19.224749
  0
POINT
  8
Default
 62
255
 10
     1101.822080
 20
     1000.400805
 30
       19.223162
  0
POINT
  8
Default
 62
255
 10
     1101.831943
 20
     1000.416819
 30
       19.222711
  0
POINT
  8
Default
 62
255
 10
     1101.843646
 20
     1000.434705
 30
       19.223514
  0
POINT
  8
Default
 62
255
 10
     1101.857919
 20
     1000.458022
 30
       19.226119
  0
POINT
  8
Default
 62
255
 10
     1101.871772
 20
     1000.481625
 30
       19.228594
  0
POINT
  8
Default
 62
255
 10
     1101.881033
 20
     1000.496786
 30
       19.229981
  0
POINT
  8
Default
 62
255
 10
     1101.889438
 20
     1000.516727
 30
       19.225227
  0
POINT
  8
Default
 62
255
 10
     1101.897492
 20
     1000.542849
 30
       19.221378
  0
POINT
  8
Default
 62
255
 10
     1101.894338
 20
     1000.573198
 30
       19.217334
  0
POINT
  8
Default
 62
255
 10
     1101.875498
 20
     1000.591751
 30
       19.219534
  0
POINT
  8
Default
 62
255
 10
     1101.853265
 20
     1000.606870
 30
       19.222778
  0
POINT
  8
Default
 62
255
 10
     1101.834017
 20
     1000.621071
 30
       19.230433
  0
POINT
  8
Default
 62
255
 10
     1101.812469
 20
     1000.629160
 30
       19.233871
  0
POINT
  8
Default
 62
255
 10
     1101.791109
 20
     1000.640428
 30
       19.240999
  0
POINT
  8
Default
 62
255
 10
     1101.774295
 20
     1000.652007
 30
       19.252052
  0
POINT
  8
Default
 62
255
 10
     1101.755721
 20
     1000.661100
 30
       19.266528
  0
POINT
  8
Default
 62
255
 10
     1101.741136
 20
     1000.669222
 30
       19.277584
  0
POINT
  8
Default
 62
255
 10
     1101.725017
 20
     1000.676625
 30
       19.297650
  0
POINT
  8
Default
 62
255
 10
     1101.706648
 20
     1000.679764
 30
       19.317213
  0
POINT
  8
Default
 62
255
 10
     1101.697794
 20
     1000.688088
 30
       19.334957
  0
POINT
  8
Default
 62
255
 10
     1101.688892
 20
     1000.698312
 30
       19.349332
  0
POINT
  8
Default
 62
255
 10
     1101.679445
 20
     1000.711618
 30
       19.365682
  0
POINT
  8
Default
 62
255
 10
     1101.666797
 20
     1000.725339
 30
       19.376503
  0
POINT
  8
Default
 62
255
 10
     1101.652555
 20
     1000.743405
 30
       19.385624
  0
POINT
  8
Default
 62
255
 10
     1101.635631
 20
     1000.761992
 30
       19.392247
  0
POINT
  8
Default
 62
255
 10
     1102.067720
 20
     1000.881294
 30
       19.186669
  0
POINT
  8
Default
 62
255
 10
     1102.055293
 20
     1000.858514
 30
       19.191910
  0
POINT
  8
Default
 62
255
 10
     1102.047367
 20
     1000.841398
 30
       19.195457
  0
POINT
  8
Default
 62
255
 10
     1102.039506
 20
     1000.822944
 30
       19.197298
  0
POINT
  8
Default
 62
255
 10
     1101.964445
 20
     1000.811138
 30
       19.205587
  0
POINT
  8
Default
 62
255
 10
     1101.954680
 20
     1000.833052
 30
       19.212106
  0
POINT
  8
Default
 62
255
 10
     1101.943297
 20
     1000.852781
 30
       19.213108
  0
POINT
  8
Default
 62
255
 10
     1101.923506
 20
     1000.860650
 30
       19.213907
  0
POINT
  8
Default
 62
255
 10
     1101.903918
 20
     1000.864900
 30
       19.222047
  0
POINT
  8
Default
 62
255
 10
     1101.889603
 20
     1000.876632
 30
       19.230092
  0
POINT
  8
Default
 62
255
 10
     1101.873760
 20
     1000.884899
 30
       19.248000
  0
POINT
  8
Default
 62
255
 10
     1101.860058
 20
     1000.889524
 30
       19.269408
  0
POINT
  8
Default
 62
255
 10
     1101.845860
 20
     1000.895739
 30
       19.287460
  0
POINT
  8
Default
 62
255
 10
     1101.972218
 20
     1000.716760
 30
       19.185655
  0
POINT
  8
Default
 62
255
 10
     1101.860180
 20
     1001.026020
 30
       19.351100
  0
POINT
  8
Default
 62
255
 10
     1102.304419
 20
     1000.761604
 30
       19.158358
  0
POINT
  8
Default
 62
255
 10
     1102.299801
 20
     1000.749791
 30
       19.171638
  0
POINT
  8
Default
 62
255
 10
     1102.290230
 20
     1000.734854
 30
       19.182833
  0
POINT
  8
Default
 62
255
 10
     1102.278525
 20
     1000.711667
 30
       19.193825
  0
POINT
  8
Default
 62
255
 10
     1102.274043
 20
     1000.689537
 30
       19.204177
  0
POINT
  8
Default
 62
255
 10
     1102.270065
 20
     1000.674477
 30
       19.213220
  0
POINT
  8
Default
 62
255
 10
     1102.265037
 20
     1000.657804
 30
       19.218085
  0
POINT
  8
Default
 62
255
 10
     1102.255472
 20
     1000.632991
 30
       19.221709
  0
POINT
  8
Default
 62
255
 10
     1102.237618
 20
     1000.610227
 30
       19.229644
  0
POINT
  8
Default
 62
255
 10
     1102.245050
 20
     1000.603438
 30
       19.220728
  0
POINT
  8
Default
 62
255
 10
     1102.264878
 20
     1000.591519
 30
       19.217050
  0
POINT
  8
Default
 62
255
 10
     1102.283882
 20
     1000.578346
 30
       19.211807
  0
POINT
  8
Default
 62
255
 10
     1102.304037
 20
     1000.565276
 30
       19.210733
  0
POINT
  8
Default
 62
255
 10
     1102.325168
 20
     1000.553469
 30
       19.208404
  0
POINT
  8
Default
 62
255
 10
     1102.343401
 20
     1000.539649
 30
       19.207069
  0
POINT
  8
Default
 62
255
 10
     1102.360515
 20
     1000.521320
 30
       19.203310
  0
POINT
  8
Default
 62
255
 10
     1102.377568
 20
     1000.505984
 30
       19.201738
  0
POINT
  8
Default
 62
255
 10
     1102.397104
 20
     1000.492574
 30
       19.202059
  0
POINT
  8
Default
 62
255
 10
     1102.419681
 20
     1000.482011
 30
       19.201275
  0
POINT
  8
Default
 62
255
 10
     1102.439205
 20
     1000.471327
 30
       19.203325
  0
POINT
  8
Default
 62
255
 10
     1102.459589
 20
     1000.457159
 30
       19.203759
  0
POINT
  8
Default
 62
255
 10
     1102.446415
 20
     1000.427992
 30
       19.219000
  0
POINT
  8
Default
 62
255
 10
     1102.428242
 20
     1000.406791
 30
       19.223186
  0
POINT
  8
Default
 62
255
 10
     1102.415378
 20
     1000.391929
 30
       19.225261
  0
POINT
  8
Default
 62
255
 10
     1102.403887
 20
     1000.374659
 30
       19.226490
  0
POINT
  8
Default
 62
255
 10
     1102.391802
 20
     1000.348230
 30
       19.225702
  0
POINT
  8
Default
 62
255
 10
     1102.223632
 20
     1000.595618
 30
       19.235466
  0
POINT
  8
Default
 62
255
 10
     1102.211451
 20
     1000.578111
 30
       19.235750
  0
POINT
  8
Default
 62
255
 10
     1102.196175
 20
     1000.556565
 30
       19.223387
  0
POINT
  8
Default
 62
255
 10
     1102.182632
 20
     1000.536402
 30
       19.212736
  0
POINT
  8
Default
 62
255
 10
     1102.171371
 20
     1000.520421
 30
       19.211052
  0
POINT
  8
Default
 62
255
 10
     1102.160690
 20
     1000.503584
 30
       19.212215
  0
POINT
  8
Default
 62
255
 10
     1102.146771
 20
     1000.478868
 30
       19.212624
  0
POINT
  8
Default
 62
255
 10
     1102.223687
 20
     1000.619844
 30
       19.219863
  0
POINT
  8
Default
 62
255
 10
     1102.204966
 20
     1000.633244
 30
       19.218412
  0
POINT
  8
Default
 62
255
 10
     1102.183765
 20
     1000.646774
 30
       19.217613
  0
POINT
  8
Default
 62
255
 10
     1102.165273
 20
     1000.661026
 30
       19.221003
  0
POINT
  8
Default
 62
255
 10
     1102.142454
 20
     1000.673847
 30
       19.215259
  0
POINT
  8
Default
 62
255
 10
     1102.122731
 20
     1000.688231
 30
       19.210842
  0
POINT
  8
Default
 62
255
 10
     1102.103962
 20
     1000.699925
 30
       19.205821
  0
POINT
  8
Default
 62
255
 10
     1102.085863
 20
     1000.710257
 30
       19.196027
  0
POINT
  8
Default
 62
255
 10
     1102.067348
 20
     1000.725327
 30
       19.189896
  0
POINT
  8
Default
 62
255
 10
     1102.050169
 20
     1000.736380
 30
       19.187473
  0
POINT
  8
Default
 62
255
 10
     1102.033953
 20
     1000.752391
 30
       19.188705
  0
POINT
  8
Default
 62
255
 10
     1101.960124
 20
     1000.692753
 30
       19.189464
  0
POINT
  8
Default
 62
255
 10
     1101.948900
 20
     1000.675657
 30
       19.195123
  0
POINT
  8
Default
 62
255
 10
     1101.944905
 20
     1000.654705
 30
       19.195954
  0
POINT
  8
Default
 62
255
 10
     1101.940380
 20
     1000.629589
 30
       19.201245
  0
POINT
  8
Default
 62
255
 10
     1101.931263
 20
     1000.604523
 30
       19.210835
  0
POINT
  8
Default
 62
255
 10
     1101.917701
 20
     1000.584804
 30
       19.213730
  0
POINT
  8
Default
 62
255
 10
     1101.911305
 20
     1000.567500
 30
       19.217415
  0
POINT
  8
Default
 62
255
 10
     1101.913801
 20
     1000.561246
 30
       19.217065
  0
POINT
  8
Default
 62
255
 10
     1101.936428
 20
     1000.546993
 30
       19.216169
  0
POINT
  8
Default
 62
255
 10
     1101.955975
 20
     1000.532160
 30
       19.216563
  0
POINT
  8
Default
 62
255
 10
     1101.976202
 20
     1000.514432
 30
       19.215714
  0
POINT
  8
Default
 62
255
 10
     1101.993319
 20
     1000.504112
 30
       19.215028
  0
POINT
  8
Default
 62
255
 10
     1102.011542
 20
     1000.491176
 30
       19.216074
  0
POINT
  8
Default
 62
255
 10
     1102.031902
 20
     1000.477493
 30
       19.219267
  0
POINT
  8
Default
 62
255
 10
     1102.051087
 20
     1000.464044
 30
       19.221219
  0
POINT
  8
Default
 62
255
 10
     1102.067411
 20
     1000.449374
 30
       19.224451
  0
POINT
  8
Default
 62
255
 10
     1102.088573
 20
     1000.432642
 30
       19.223812
  0
POINT
  8
Default
 62
255
 10
     1102.106473
 20
     1000.418947
 30
       19.222409
  0
POINT
  8
Default
 62
255
 10
     1102.116011
 20
     1000.419133
 30
       19.222217
  0
POINT
  8
Default
 62
255
 10
     1102.125413
 20
     1000.437021
 30
       19.218939
  0
POINT
  8
Default
 62
255
 10
     1102.134894
 20
     1000.453282
 30
       19.214467
  0
POINT
  8
Default
 62
255
 10
     1102.125417
 20
     1000.403266
 30
       19.220547
  0
POINT
  8
Default
 62
255
 10
     1102.142586
 20
     1000.385896
 30
       19.224401
  0
POINT
  8
Default
 62
255
 10
     1102.162390
 20
     1000.370929
 30
       19.230337
  0
POINT
  8
Default
 62
255
 10
     1102.180982
 20
     1000.357307
 30
       19.234428
  0
POINT
  8
Default
 62
255
 10
     1102.202225
 20
     1000.338958
 30
       19.236188
  0
POINT
  8
Default
 62
255
 10
     1102.219031
 20
     1000.325055
 30
       19.232901
  0
POINT
  8
Default
 62
255
 10
     1102.239019
 20
     1000.311273
 30
       19.229542
  0
POINT
  8
Default
 62
255
 10
     1102.258956
 20
     1000.299286
 30
       19.226527
  0
POINT
  8
Default
 62
255
 10
     1102.281121
 20
     1000.284745
 30
       19.224896
  0
POINT
  8
Default
 62
255
 10
     1102.297181
 20
     1000.270456
 30
       19.222226
  0
POINT
  8
Default
 62
255
 10
     1102.316576
 20
     1000.253461
 30
       19.221866
  0
POINT
  8
Default
 62
255
 10
     1102.352489
 20
     1000.263321
 30
       19.226277
  0
POINT
  8
Default
 62
255
 10
     1102.362377
 20
     1000.287877
 30
       19.227269
  0
POINT
  8
Default
 62
255
 10
     1102.370723
 20
     1000.307223
 30
       19.229272
  0
POINT
  8
Default
 62
255
 10
     1102.379084
 20
     1000.323952
 30
       19.227785
  0
POINT
  8
Default
 62
255
 10
     1102.099959
 20
     1000.396545
 30
       19.223827
  0
POINT
  8
Default
 62
255
 10
     1102.085851
 20
     1000.374381
 30
       19.221625
  0
POINT
  8
Default
 62
255
 10
     1102.076014
 20
     1000.356708
 30
       19.219042
  0
POINT
  8
Default
 62
255
 10
     1102.064812
 20
     1000.341620
 30
       19.215752
  0
POINT
  8
Default
 62
255
 10
     1102.050941
 20
     1000.316362
 30
       19.212674
  0
POINT
  8
Default
 62
255
 10
     1102.036731
 20
     1000.290301
 30
       19.211093
  0
POINT
  8
Default
 62
255
 10
     1102.025904
 20
     1000.273899
 30
       19.211898
  0
POINT
  8
Default
 62
255
 10
     1102.015750
 20
     1000.255897
 30
       19.213824
  0
POINT
  8
Default
 62
255
 10
     1102.001175
 20
     1000.231980
 30
       19.214188
  0
POINT
  8
Default
 62
255
 10
     1101.988219
 20
     1000.206104
 30
       19.215217
  0
POINT
  8
Default
 62
255
 10
     1101.978835
 20
     1000.190237
 30
       19.217432
  0
POINT
  8
Default
 62
255
 10
     1101.966922
 20
     1000.172366
 30
       19.221582
  0
POINT
  8
Default
 62
255
 10
     1101.953478
 20
     1000.150476
 30
       19.225458
  0
POINT
  8
Default
 62
255
 10
     1102.146405
 20
     1000.013449
 30
       19.209402
  0
POINT
  8
Default
 62
255
 10
     1102.131296
 20
     1000.008164
 30
       19.192408
  0
POINT
  8
Default
 62
255
 10
     1102.114796
 20
     1000.001044
 30
       19.170633
  0
POINT
  8
Default
 62
255
 10
     1102.096711
 20
      999.994158
 30
       19.150372
  0
POINT
  8
Default
 62
255
 10
     1102.081684
 20
      999.990165
 30
       19.137456
  0
POINT
  8
Default
 62
255
 10
     1102.069426
 20
      999.988280
 30
       19.126412
  0
POINT
  8
Default
 62
255
 10
     1102.042993
 20
      999.993737
 30
       19.115992
  0
POINT
  8
Default
 62
255
 10
     1102.019943
 20
      999.998423
 30
       19.116589
  0
POINT
  8
Default
 62
255
 10
     1102.002133
 20
     1000.004291
 30
       19.125522
  0
POINT
  8
Default
 62
255
 10
     1101.989131
 20
     1000.017531
 30
       19.131474
  0
POINT
  8
Default
 62
255
 10
     1101.965185
 20
     1000.037945
 30
       19.131194
  0
POINT
  8
Default
 62
255
 10
     1101.944829
 20
     1000.056358
 30
       19.127271
  0
POINT
  8
Default
 62
255
 10
     1101.930092
 20
     1000.069789
 30
       19.123122
  0
POINT
  8
Default
 62
255
 10
     1101.917293
 20
     1000.081636
 30
       19.128051
  0
POINT
  8
Default
 62
255
 10
     1101.914163
 20
     1000.102019
 30
       19.139557
  0
POINT
  8
Default
 62
255
 10
     1101.918787
 20
     1000.112653
 30
       19.164698
  0
POINT
  8
Default
 62
255
 10
     1101.940082
 20
     1000.129347
 30
       19.223681
  0
POINT
  8
Default
 62
255
 10
     1101.804381
 20
     1000.097182
 30
       19.094456
  0
POINT
  8
Default
 62
255
 10
     1101.829015
 20
     1000.081299
 30
       19.095337
  0
POINT
  8
Default
 62
255
 10
     1101.830731
 20
     1000.062330
 30
       19.087656
  0
POINT
  8
Default
 62
255
 10
     1101.817891
 20
     1000.052184
 30
       19.080814
  0
POINT
  8
Default
 62
255
 10
     1101.794579
 20
     1000.049302
 30
       19.075361
  0
POINT
  8
Default
 62
255
 10
     1101.647704
 20
     1000.826192
 30
       19.364069
  0
POINT
  8
Default
 62
255
 10
     1101.653123
 20
     1000.804212
 30
       19.366491
  0
POINT
  8
Default
 62
255
 10
     1101.650411
 20
     1000.783033
 30
       19.375643
  0
POINT
  8
Default
 62
255
 10
     1102.741236
 20
     1000.198204
 30
       19.331162
  0
POINT
  8
Default
 62
255
 10
     1102.727322
 20
     1000.180155
 30
       19.337059
  0
POINT
  8
Default
 62
255
 10
     1102.715559
 20
     1000.164469
 30
       19.341122
  0
POINT
  8
Default
 62
255
 10
     1102.701280
 20
     1000.140026
 30
       19.346562
  0
POINT
  8
Default
 62
255
 10
     1102.689490
 20
     1000.119514
 30
       19.349815
  0
POINT
  8
Default
 62
255
 10
     1102.678455
 20
     1000.099645
 30
       19.353218
  0
POINT
  8
Default
 62
255
 10
     1102.668270
 20
     1000.077963
 30
       19.354612
  0
POINT
  8
Default
 62
255
 10
     1102.298800
 20
      999.675020
 30
       19.423200
  0
POINT
  8
Default
 62
255
 10
     1102.687288
 20
     1000.510811
 30
       19.176987
  0
POINT
  8
Default
 62
255
 10
     1102.585511
 20
     1000.448553
 30
       19.206976
  0
POINT
  8
Default
 62
255
 10
     1102.663256
 20
     1000.415873
 30
       19.210805
  0
POINT
  8
Default
 62
255
 10
     1102.541041
 20
     1000.458475
 30
       19.201085
  0
POINT
  8
Default
 62
255
 10
     1102.458119
 20
     1000.578756
 30
       19.215095
  0
POINT
  8
Default
 62
255
 10
     1102.460141
 20
     1000.522015
 30
       19.203140
  0
POINT
  8
Default
 62
255
 10
     1102.354859
 20
     1000.577582
 30
       19.205565
  0
POINT
  8
Default
 62
255
 10
     1102.319584
 20
     1000.706451
 30
       19.180455
  0
POINT
  8
Default
 62
255
 10
     1102.192623
 20
     1000.751113
 30
       19.203951
  0
POINT
  8
Default
 62
255
 10
     1102.122625
 20
     1000.809397
 30
       19.199950
  0
POINT
  8
Default
 62
255
 10
     1102.121424
 20
     1000.848387
 30
       19.182395
  0
POINT
  8
Default
 62
255
 10
     1102.043485
 20
     1000.783848
 30
       19.189290
  0
POINT
  8
Default
 62
255
 10
     1101.924233
 20
     1000.902284
 30
       19.211929
  0
POINT
  8
Default
 62
255
 10
     1102.011594
 20
     1000.855648
 30
       19.199787
  0
POINT
  8
Default
 62
255
 10
     1101.854816
 20
     1000.659098
 30
       19.221513
  0
POINT
  8
Default
 62
255
 10
     1101.923102
 20
     1000.761692
 30
       19.205211
  0
POINT
  8
Default
 62
255
 10
     1101.845190
 20
     1000.743175
 30
       19.224607
  0
POINT
  8
Default
 62
255
 10
     1101.816342
 20
     1000.816111
 30
       19.309685
  0
POINT
  8
Default
 62
255
 10
     1101.772858
 20
     1000.702154
 30
       19.250055
  0
POINT
  8
Default
 62
255
 10
     1102.062631
 20
     1000.553221
 30
       19.206343
  0
POINT
  8
Default
 62
255
 10
     1102.067733
 20
     1000.655532
 30
       19.202341
  0
POINT
  8
Default
 62
255
 10
     1102.135940
 20
     1000.494354
 30
       19.213118
  0
POINT
  8
Default
 62
255
 10
     1101.966556
 20
     1000.575295
 30
       19.217144
  0
POINT
  8
Default
 62
255
 10
     1102.390474
 20
     1000.448020
 30
       19.212505
  0
POINT
  8
Default
 62
255
 10
     1102.308217
 20
     1000.477480
 30
       19.212809
  0
POINT
  8
Default
 62
255
 10
     1102.256496
 20
     1000.458055
 30
       19.216585
  0
POINT
  8
Default
 62
255
 10
     1102.204397
 20
     1000.519944
 30
       19.211437
  0
POINT
  8
Default
 62
255
 10
     1102.245352
 20
     1000.535037
 30
       19.216418
  0
POINT
  8
Default
 62
255
 10
     1102.259385
 20
     1000.341395
 30
       19.231772
  0
POINT
  8
Default
 62
255
 10
     1102.314171
 20
     1000.349763
 30
       19.226384
  0
POINT
  8
Default
 62
255
 10
     1102.160711
 20
     1000.423788
 30
       19.224166
  0
POINT
  8
Default
 62
255
 10
     1102.259615
 20
     1000.405889
 30
       19.229723
  0
POINT
  8
Default
 62
255
 10
     1102.433641
 20
     1000.324837
 30
       19.234186
  0
POINT
  8
Default
 62
255
 10
     1102.542240
 20
     1000.354186
 30
       19.231116
  0
POINT
  8
Default
 62
255
 10
     1102.594518
 20
     1000.275603
 30
       19.229477
  0
POINT
  8
Default
 62
255
 10
     1102.521781
 20
     1000.184880
 30
       19.231181
  0
POINT
  8
Default
 62
255
 10
     1102.461221
 20
     1000.282958
 30
       19.227165
  0
POINT
  8
Default
 62
255
 10
     1102.679769
 20
     1000.243429
 30
       19.324432
  0
POINT
  8
Default
 62
255
 10
     1102.584308
 20
     1000.190480
 30
       19.340303
  0
POINT
  8
Default
 62
255
 10
     1102.599241
 20
     1000.143741
 30
       19.360336
  0
POINT
  8
Default
 62
255
 10
     1102.236635
 20
     1000.036451
 30
       19.227963
  0
POINT
  8
Default
 62
255
 10
     1102.312358
 20
     1000.057284
 30
       19.249799
  0
POINT
  8
Default
 62
255
 10
     1102.326420
 20
     1000.096066
 30
       19.247716
  0
POINT
  8
Default
 62
255
 10
     1102.365914
 20
     1000.082134
 30
       19.236136
  0
POINT
  8
Default
 62
255
 10
     1102.365605
 20
     1000.059900
 30
       19.239750
  0
POINT
  8
Default
 62
255
 10
     1102.272500
 20
      999.997768
 30
       19.236312
  0
POINT
  8
Default
 62
255
 10
     1102.394738
 20
     1000.074394
 30
       19.228420
  0
POINT
  8
Default
 62
255
 10
     1102.478032
 20
     1000.117272
 30
       19.266122
  0
POINT
  8
Default
 62
255
 10
     1102.501913
 20
     1000.096502
 30
       19.315775
  0
POINT
  8
Default
 62
255
 10
     1102.541305
 20
     1000.056736
 30
       19.384674
  0
POINT
  8
Default
 62
255
 10
     1102.416870
 20
      999.967256
 30
       19.392206
  0
POINT
  8
Default
 62
255
 10
     1102.395375
 20
      999.984935
 30
       19.291723
  0
POINT
  8
Default
 62
255
 10
     1102.334624
 20
      999.963522
 30
       19.229473
  0
POINT
  8
Default
 62
255
 10
     1102.192854
 20
      999.971191
 30
       19.220006
  0
POINT
  8
Default
 62
255
 10
     1102.094088
 20
     1000.066455
 30
       19.222353
  0
POINT
  8
Default
 62
255
 10
     1102.221093
 20
     1000.184745
 30
       19.215783
  0
POINT
  8
Default
 62
255
 10
     1102.120463
 20
     1000.204356
 30
       19.217230
  0
POINT
  8
Default
 62
255
 10
     1102.044726
 20
     1000.086864
 30
       19.219916
  0
POINT
  8
Default
 62
255
 10
     1102.092508
 20
     1000.297860
 30
       19.207435
  0
POINT
  8
Default
 62
255
 10
     1102.213252
 20
     1000.265018
 30
       19.213942
  0
POINT
  8
Default
 62
255
 10
     1101.888213
 20
     1000.153716
 30
       19.221694
  0
POINT
  8
Default
 62
255
 10
     1101.971802
 20
     1000.255437
 30
       19.216588
  0
POINT
  8
Default
 62
255
 10
     1101.944261
 20
     1000.377641
 30
       19.220278
  0
POINT
  8
Default
 62
255
 10
     1102.034304
 20
     1000.383124
 30
       19.227747
  0
POINT
  8
Default
 62
255
 10
     1101.831488
 20
     1000.350711
 30
       19.225149
  0
POINT
  8
Default
 62
255
 10
     1101.873240
 20
     1000.380641
 30
       19.229900
  0
POINT
  8
Default
 62
255
 10
     1101.817000
 20
     1000.590242
 30
       19.250034
  0
POINT
  8
Default
 62
255
 10
     1101.779520
 20
     1000.184245
 30
       19.216656
  0
POINT
  8
Default
 62
255
 10
     1102.308334
 20
      999.746568
 30
       19.413505
  0
POINT
  8
Default
 62
255
 10
     1102.375291
 20
      999.725245
 30
       19.413969
  0
POINT
  8
Default
 62
255
 10
     1102.421311
 20
      999.797888
 30
       19.401533
  0
POINT
  8
Default
 62
255
 10
     1102.348947
 20
      999.792517
 30
       19.406613
  0
POINT
  8
Default
 62
255
 10
     1102.400014
 20
      999.896661
 30
       19.403597
  0
POINT
  8
Default
 62
255
 10
     1102.375920
 20
      999.871312
 30
       19.400659
  0
POINT
  8
Default
 62
255
 10
     1102.232152
 20
      999.712647
 30
       19.226427
  0
POINT
  8
Default
 62
255
 10
     1102.295180
 20
      999.801949
 30
       19.377154
  0
POINT
  8
Default
 62
255
 10
     1102.266607
 20
      999.756817
 30
       19.400162
  0
POINT
  8
Default
 62
255
 10
     1102.297362
 20
      999.824355
 30
       19.131938
  0
POINT
  8
Default
 62
255
 10
     1102.158310
 20
      999.856049
 30
       19.083738
  0
POINT
  8
Default
 62
255
 10
     1102.199794
 20
      999.722182
 30
       19.102162
  0
POINT
  8
Default
 62
255
 10
     1102.115196
 20
      999.756151
 30
       19.181131
  0
POINT
  8
Default
 62
255
 10
     1102.153420
 20
      999.728555
 30
       19.164692
  0
POINT
  8
Default
 62
255
 10
     1102.188247
 20
      999.693509
 30
       19.209425
  0
POINT
  8
Default
 62
255
 10
     1101.961616
 20
      999.831894
 30
       19.404766
  0
POINT
  8
Default
 62
255
 10
     1101.982896
 20
      999.795719
 30
       19.412832
  0
POINT
  8
Default
 62
255
 10
     1102.030248
 20
      999.874086
 30
       19.085885
  0
POINT
  8
Default
 62
255
 10
     1101.871695
 20
     1000.069096
 30
       19.097093
  0
POINT
  8
Default
 62
255
 10
     1102.817655
 20
     1000.427485
 30
       19.321950
  0
POINT
  8
Default
 62
255
 10
     1102.792262
 20
     1000.495754
 30
       19.301415
  0
POINT
  8
Default
 62
255
 10
     1102.745296
 20
     1000.527449
 30
       19.206140
  0
POINT
  8
Default
 62
255
 10
     1102.659007
 20
     1000.547661
 30
       19.155106
  0
POINT
  8
Default
 62
255
 10
     1101.755119
 20
     1000.918401
 30
       19.348844
  0
POINT
  8
Default
 62
255
 10
     1101.877956
 20
     1001.017487
 30
       19.344315
  0
POINT
  8
Default
 62
255
 10
     1102.201042
 20
     1000.760789
 30
       19.198648
  0
POINT
  8
Default
 62
255
 10
     1101.688918
 20
     1000.049437
 30
       19.095123
  0
POINT
  8
Default
 62
255
 10
     1101.671528
 20
     1000.055475
 30
       19.105183
  0
POINT
  8
Default
 62
255
 10
     1101.705827
 20
     1000.099327
 30
       19.082758
  0
POINT
  8
Default
 62
255
 10
     1101.729061
 20
     1000.137206
 30
       19.085401
  0
POINT
  8
Default
 62
255
 10
     1101.731633
 20
     1000.113142
 30
       19.074838
  0
POINT
  8
Default
 62
255
 10
     1101.929348
 20
      999.976099
 30
       19.063971
  0
POINT
  8
Default
 62
255
 10
     1102.309072
 20
     1000.611707
 30
       19.211783
  0
POINT
  8
Default
 62
255
 10
     1102.280126
 20
     1000.641264
 30
       19.215453
  0
POINT
  8
Default
 62
255
 10
     1102.431143
 20
     1000.659739
 30
       19.206164
  0
POINT
  8
Default
 62
255
 10
     1102.340667
 20
     1000.658169
 30
       19.207811
  0
POINT
  8
Default
 62
255
 10
     1102.235882
 20
     1000.656568
 30
       19.218583
  0
POINT
  8
Default
 62
255
 10
     1102.216663
 20
     1000.695521
 30
       19.211158
  0
POINT
  8
Default
 62
255
 10
     1102.707115
 20
     1000.398563
 30
       19.267351
  0
POINT
  8
Default
 62
255
 10
     1102.662097
 20
     1000.350885
 30
       19.227735
  0
POINT
  8
Default
 62
255
 10
     1102.707285
 20
     1000.342234
 30
       19.319930
  0
POINT
  8
Default
 62
255
 10
     1102.737259
 20
     1000.425270
 30
       19.315696
  0
POINT
  8
Default
 62
255
 10
     1102.771223
 20
     1000.485143
 30
       19.293969
  0
POINT
  8
Default
 62
255
 10
     1102.731561
 20
     1000.460171
 30
       19.212135
  0
POINT
  8
Default
 62
255
 10
     1102.752283
 20
     1000.348581
 30
       19.331236
  0
POINT
  8
Default
 62
255
 10
     1102.794972
 20
     1000.463148
 30
       19.341977
  0
POINT
  8
Default
 62
255
 10
     1102.587840
 20
     1000.535979
 30
       19.204142
  0
POINT
  8
Default
 62
255
 10
     1102.620196
 20
     1000.500461
 30
       19.204780
  0
POINT
  8
Default
 62
255
 10
     1102.443414
 20
     1000.655400
 30
       19.217858
  0
POINT
  8
Default
 62
255
 10
     1102.462312
 20
     1000.638142
 30
       19.225026
  0
POINT
  8
Default
 62
255
 10
     1102.505431
 20
     1000.576567
 30
       19.200735
  0
POINT
  8
Default
 62
255
 10
     1102.383950
 20
     1000.690560
 30
       19.204452
  0
POINT
  8
Default
 62
255
 10
     1102.342481
 20
     1000.729380
 30
       19.174624
  0
POINT
  8
Default
 62
255
 10
     1102.275396
 20
     1000.760488
 30
       19.164376
  0
POINT
  8
Default
 62
255
 10
     1102.170377
 20
     1000.828950
 30
       19.177076
  0
POINT
  8
Default
 62
255
 10
     1102.056552
 20
     1000.909399
 30
       19.189605
  0
POINT
  8
Default
 62
255
 10
     1101.978866
 20
     1000.973551
 30
       19.211157
  0
POINT
  8
Default
 62
255
 10
     1101.999124
 20
     1000.945866
 30
       19.180218
  0
POINT
  8
Default
 62
255
 10
     1101.940281
 20
     1000.988776
 30
       19.235861
  0
POINT
  8
Default
 62
255
 10
     1101.869373
 20
     1000.935615
 30
       19.308920
  0
POINT
  8
Default
 62
255
 10
     1101.941485
 20
     1001.018037
 30
       19.312287
  0
POINT
  8
Default
 62
255
 10
     1101.860923
 20
     1001.132052
 30
       19.335403
  0
POINT
  8
Default
 62
255
 10
     1101.798885
 20
     1000.862403
 30
       19.355215
  0
POINT
  8
Default
 62
255
 10
     1101.824822
 20
     1000.949808
 30
       19.335385
  0
POINT
  8
Default
 62
255
 10
     1101.830877
 20
     1000.841669
 30
       19.256767
  0
POINT
  8
Default
 62
255
 10
     1101.733066
 20
     1000.748337
 30
       19.336393
  0
POINT
  8
Default
 62
255
 10
     1101.734119
 20
     1000.790810
 30
       19.354683
  0
POINT
  8
Default
 62
255
 10
     1101.783333
 20
     1000.746447
 30
       19.266827
  0
POINT
  8
Default
 62
255
 10
     1101.719049
 20
     1000.645996
 30
       19.272138
  0
POINT
  8
Default
 62
255
 10
     1101.869897
 20
     1000.554576
 30
       19.235651
  0
POINT
  8
Default
 62
255
 10
     1101.842684
 20
     1000.510149
 30
       19.262585
  0
POINT
  8
Default
 62
255
 10
     1102.239188
 20
      999.784648
 30
       19.111452
  0
POINT
  8
Default
 62
255
 10
     1102.146206
 20
      999.805330
 30
       19.089627
  0
POINT
  8
Default
 62
255
 10
     1102.057685
 20
      999.781184
 30
       19.240925
  0
POINT
  8
Default
 62
255
 10
     1102.176469
 20
      999.701485
 30
       19.306380
  0
POINT
  8
Default
 62
255
 10
     1102.128599
 20
      999.705572
 30
       19.341158
  0
POINT
  8
Default
 62
255
 10
     1102.074233
 20
      999.749794
 30
       19.329439
  0
POINT
  8
Default
 62
255
 10
     1102.038900
 20
      999.774240
 30
       19.325974
  0
POINT
  8
Default
 62
255
 10
     1102.232811
 20
      999.732634
 30
       19.176175
  0
POINT
  8
Default
 62
255
 10
     1101.970183
 20
      999.873183
 30
       19.099209
  0
POINT
  8
Default
 62
255
 10
     1101.852598
 20
      999.953475
 30
       19.311100
  0
POINT
  8
Default
 62
255
 10
     1102.043743
 20
      999.832586
 30
       19.159861
  0
POINT
  8
Default
 62
255
 10
     1101.991272
 20
      999.813504
 30
       19.226643
  0
POINT
  8
Default
 62
255
 10
     1101.946325
 20
      999.870928
 30
       19.308171
  0
POINT
  8
Default
 62
255
 10
     1101.996251
 20
      999.808573
 30
       19.302358
  0
POINT
  8
Default
 62
255
 10
     1101.894121
 20
      999.915666
 30
       19.329170
  0
POINT
  8
Default
 62
255
 10
     1101.941772
 20
      999.860944
 30
       19.398301
  0
POINT
  8
Default
 62
255
 10
     1101.816520
 20
      999.981090
 30
       19.290232
  0
POINT
  8
Default
 62
255
 10
     1101.759317
 20
     1000.010074
 30
       19.278321
  0
POINT
  8
Default
 62
255
 10
     1101.727389
 20
     1000.022016
 30
       19.248560
  0
POINT
  8
Default
 62
255
 10
     1101.889189
 20
      999.910630
 30
       19.088652
  0
POINT
  8
Default
 62
255
 10
     1101.829329
 20
      999.968982
 30
       19.166927
  0
POINT
  8
Default
 62
255
 10
     1101.910212
 20
      999.896657
 30
       19.253079
  0
POINT
  8
Default
 62
255
 10
     1101.836828
 20
      999.971728
 30
       19.246750
  0
POINT
  8
Default
 62
255
 10
     1101.744960
 20
     1000.029313
 30
       19.089583
  0
POINT
  8
Default
 62
255
 10
     1101.718475
 20
     1000.037167
 30
       19.175406
  0
POINT
  8
Default
 62
255
 10
     1101.679966
 20
     1000.070997
 30
       19.292245
  0
POINT
  8
Default
 62
255
 10
     1101.699662
 20
     1000.017177
 30
       19.390603
  0
POINT
  8
Default
 62
255
 10
     1101.739424
 20
      999.985342
 30
       19.380957
  0
POINT
  8
Default
 62
255
 10
     1101.770520
 20
      999.961263
 30
       19.338973
  0
POINT
  8
Default
 62
255
 10
     1101.854397
 20
      999.918524
 30
       19.415862
  0
POINT
  8
Default
 62
255
 10
     1101.928208
 20
      999.868504
 30
       19.437154
  0
POINT
  8
Default
 62
255
 10
     1102.210526
 20
      999.679728
 30
       19.358931
  0
POINT
  8
Default
 62
255
 10
     1102.025612
 20
      999.795896
 30
       19.470167
  0
POINT
  8
Default
 62
255
 10
     1102.082716
 20
      999.771820
 30
       19.470356
  0
POINT
  8
Default
 62
255
 10
     1102.104998
 20
      999.743486
 30
       19.479176
  0
POINT
  8
Default
 62
255
 10
     1102.175936
 20
      999.661497
 30
       19.409032
  0
POINT
  8
Default
 62
255
 10
     1102.159401
 20
      999.703972
 30
       19.487116
  0
POINT
  8
Default
 62
255
 10
     1102.248984
 20
      999.723856
 30
       19.353517
  0
POINT
  8
Default
 62
255
 10
     1102.324002
 20
      999.816562
 30
       19.357639
  0
POINT
  8
Default
 62
255
 10
     1102.286217
 20
      999.759335
 30
       19.295058
  0
POINT
  8
Default
 62
255
 10
     1102.362132
 20
      999.870683
 30
       19.368153
  0
POINT
  8
Default
 62
255
 10
     1102.311000
 20
      999.802143
 30
       19.227975
  0
POINT
  8
Default
 62
255
 10
     1102.357153
 20
      999.879323
 30
       19.269043
  0
POINT
  8
Default
 62
255
 10
     1102.314610
 20
      999.801267
 30
       19.311791
  0
POINT
  8
Default
 62
255
 10
     1102.150230
 20
      999.727780
 30
       19.265450
  0
POINT
  8
Default
 62
255
 10
     1102.097162
 20
      999.769600
 30
       19.122980
  0
POINT
  8
Default
 62
255
 10
     1101.747113
 20
     1000.187798
 30
       19.160341
  0
POINT
  8
Default
 62
255
 10
     1101.832254
 20
     1000.185918
 30
       19.192866
  0
POINT
  8
Default
 62
255
 10
     1102.118022
 20
     1000.036699
 30
       19.215528
  0
POINT
  8
Default
 62
255
 10
     1102.060590
 20
     1000.016398
 30
       19.162838
  0
POINT
  8
Default
 62
255
 10
     1101.990341
 20
     1000.106000
 30
       19.219838
  0
POINT
  8
Default
 62
255
 10
     1102.035900
 20
     1000.052646
 30
       19.221759
  0
POINT
  8
Default
 62
255
 10
     1102.145825
 20
     1000.104580
 30
       19.227484
  0
POINT
  8
Default
 62
255
 10
     1102.016327
 20
     1000.168459
 30
       19.209222
  0
POINT
  8
Default
 62
255
 10
     1102.069323
 20
     1000.131015
 30
       19.207642
  0
POINT
  8
Default
 62
255
 10
     1102.000450
 20
      999.968431
 30
       19.080596
  0
POINT
  8
Default
 62
255
 10
     1101.934305
 20
     1000.022662
 30
       19.085929
  0
POINT
  8
Default
 62
255
 10
     1102.053319
 20
      999.904228
 30
       19.089553
  0
POINT
  8
Default
 62
255
 10
     1102.138686
 20
      999.934486
 30
       19.112195
  0
POINT
  8
Default
 62
255
 10
     1102.194519
 20
      999.880410
 30
       19.093941
  0
POINT
  8
Default
 62
255
 10
     1102.307118
 20
      999.889616
 30
       19.128686
  0
POINT
  8
Default
 62
255
 10
     1102.264476
 20
      999.850645
 30
       19.126980
  0
POINT
  8
Default
 62
255
 10
     1102.220525
 20
      999.817645
 30
       19.093029
  0
POINT
  8
Default
 62
255
 10
     1102.240958
 20
      999.952875
 30
       19.189095
  0
POINT
  8
Default
 62
255
 10
     1102.103140
 20
      999.955998
 30
       19.111250
  0
POINT
  8
Default
 62
255
 10
     1101.889377
 20
     1000.124672
 30
       19.133758
  0
POINT
  8
Default
 62
255
 10
     1101.868428
 20
     1000.169273
 30
       19.161526
  0
POINT
  8
Default
 62
255
 10
     1101.828103
 20
     1000.115636
 30
       19.109246
  0
POINT
  8
Default
 62
255
 10
     1101.895967
 20
     1000.008894
 30
       19.077910
  0
POINT
  8
Default
 62
255
 10
     1102.329803
 20
      999.914817
 30
       19.241822
  0
POINT
  8
Default
 62
255
 10
     1102.300588
 20
      999.940453
 30
       19.235603
  0
POINT
  8
Default
 62
255
 10
     1102.204218
 20
     1000.003975
 30
       19.222748
  0
POINT
  8
Default
 62
255
 10
     1102.269548
 20
      999.973316
 30
       19.229281
  0
POINT
  8
Default
 62
255
 10
     1102.133745
 20
     1000.061634
 30
       19.229120
  0
POINT
  8
Default
 62
255
 10
     1102.114521
 20
     1000.101292
 30
       19.219178
  0
POINT
  8
Default
 62
255
 10
     1102.028762
 20
     1000.118873
 30
       19.212429
  0
POINT
  8
Default
 62
255
 10
     1102.063101
 20
     1000.201006
 30
       19.207690
  0
POINT
  8
Default
 62
255
 10
     1102.118340
 20
     1000.143208
 30
       19.208695
  0
POINT
  8
Default
 62
255
 10
     1102.168218
 20
     1000.156111
 30
       19.213855
  0
POINT
  8
Default
 62
255
 10
     1102.221800
 20
     1000.111758
 30
       19.225870
  0
POINT
  8
Default
 62
255
 10
     1102.183440
 20
     1000.073754
 30
       19.227213
  0
POINT
  8
Default
 62
255
 10
     1101.906208
 20
     1000.135303
 30
       19.221768
  0
POINT
  8
Default
 62
255
 10
     1101.906082
 20
     1000.191869
 30
       19.215054
  0
POINT
  8
Default
 62
255
 10
     1101.863477
 20
     1000.209861
 30
       19.220050
  0
POINT
  8
Default
 62
255
 10
     1101.827782
 20
     1000.229321
 30
       19.210407
  0
POINT
  8
Default
 62
255
 10
     1101.838084
 20
     1000.300330
 30
       19.209910
  0
POINT
  8
Default
 62
255
 10
     1101.886320
 20
     1000.273319
 30
       19.213613
  0
POINT
  8
Default
 62
255
 10
     1101.995018
 20
     1000.312798
 30
       19.208273
  0
POINT
  8
Default
 62
255
 10
     1101.931583
 20
     1000.319637
 30
       19.205592
  0
POINT
  8
Default
 62
255
 10
     1101.805582
 20
     1000.416740
 30
       19.246620
  0
POINT
  8
Default
 62
255
 10
     1101.637463
 20
     1000.122195
 30
       19.194786
  0
POINT
  8
Default
 62
255
 10
     1101.693217
 20
     1000.158848
 30
       19.127288
  0
POINT
  8
Default
 62
255
 10
     1101.677223
 20
     1000.203425
 30
       19.238053
  0
POINT
  8
Default
 62
255
 10
     1101.645087
 20
     1000.176888
 30
       19.170765
  0
POINT
  8
Default
 62
255
 10
     1101.664670
 20
     1000.180620
 30
       19.316869
  0
POINT
  8
Default
 62
255
 10
     1101.623839
 20
     1000.131900
 30
       19.316204
  0
LINE
  8
BarLn
 62
255
 10
     1101.869897
 20
     1000.554576
 30
       19.235651
 11
     1101.817000
 21
     1000.590242
 31
       19.250034
  0
LINE
  8
BarLn
 62
255
 10
     1101.817000
 20
     1000.590242
 30
       19.250034
 11
     1101.719049
 21
     1000.645996
 31
       19.272138
  0
LINE
  8
BarLn
 62
255
 10
     1101.869897
 20
     1000.554576
 30
       19.235651
 11
     1101.842684
 21
     1000.510149
 31
       19.262585
  0
LINE
  8
BarLn
 62
255
 10
     1101.842684
 20
     1000.510149
 30
       19.262585
 11
     1101.805582
 21
     1000.416740
 31
       19.246620
  0
LINE
  8
BarLn
 62
255
 10
     1101.877956
 20
     1001.017487
 30
       19.344315
 11
     1101.824822
 21
     1000.949808
 31
       19.335385
  0
LINE
  8
BarLn
 62
255
 10
     1101.824822
 20
     1000.949808
 30
       19.335385
 11
     1101.798885
 21
     1000.862403
 31
       19.355215
  0
LINE
  8
BarLn
 62
255
 10
     1101.679445
 20
     1000.711618
 30
       19.365682
 11
     1101.734119
 21
     1000.790810
 31
       19.354683
  0
LINE
  8
BarLn
 62
255
 10
     1101.734119
 20
     1000.790810
 30
       19.354683
 11
     1101.798885
 21
     1000.862403
 31
       19.355215
  0
LINE
  8
BarLn
 62
255
 10
     1101.978866
 20
     1000.973551
 30
       19.211157
 11
     1101.999124
 21
     1000.945866
 31
       19.180218
  0
LINE
  8
BarLn
 62
255
 10
     1101.999124
 20
     1000.945866
 30
       19.180218
 11
     1102.056552
 21
     1000.909399
 31
       19.189605
  0
LINE
  8
BarLn
 62
255
 10
     1102.056552
 20
     1000.909399
 30
       19.189605
 11
     1102.170377
 21
     1000.828950
 31
       19.177076
  0
LINE
  8
BarLn
 62
255
 10
     1102.170377
 20
     1000.828950
 30
       19.177076
 11
     1102.275396
 21
     1000.760488
 31
       19.164376
  0
LINE
  8
BarLn
 62
255
 10
     1102.275396
 20
     1000.760488
 30
       19.164376
 11
     1102.299801
 21
     1000.749791
 31
       19.171638
  0
LINE
  8
BarLn
 62
255
 10
     1102.299801
 20
     1000.749791
 30
       19.171638
 11
     1102.342481
 21
     1000.729380
 31
       19.174624
  0
LINE
  8
BarLn
 62
255
 10
     1102.342481
 20
     1000.729380
 30
       19.174624
 11
     1102.383950
 21
     1000.690560
 31
       19.204452
  0
LINE
  8
BarLn
 62
255
 10
     1102.383950
 20
     1000.690560
 30
       19.204452
 11
     1102.431143
 21
     1000.659739
 31
       19.206164
  0
LINE
  8
BarLn
 62
255
 10
     1102.431143
 20
     1000.659739
 30
       19.206164
 11
     1102.443414
 21
     1000.655400
 31
       19.217858
  0
LINE
  8
BarLn
 62
255
 10
     1102.443414
 20
     1000.655400
 30
       19.217858
 11
     1102.462312
 21
     1000.638142
 31
       19.225026
  0
LINE
  8
BarLn
 62
255
 10
     1102.587840
 20
     1000.535979
 30
       19.204142
 11
     1102.659007
 21
     1000.547661
 31
       19.155106
  0
LINE
  8
BarLn
 62
255
 10
     1102.659007
 20
     1000.547661
 30
       19.155106
 11
     1102.687288
 21
     1000.510811
 31
       19.176987
  0
LINE
  8
BarLn
 62
255
 10
     1102.687288
 20
     1000.510811
 30
       19.176987
 11
     1102.745296
 21
     1000.527449
 31
       19.206140
  0
LINE
  8
BarLn
 62
255
 10
     1102.771223
 20
     1000.485143
 30
       19.293969
 11
     1102.737259
 21
     1000.425270
 31
       19.315696
  0
LINE
  8
BarLn
 62
255
 10
     1102.737259
 20
     1000.425270
 30
       19.315696
 11
     1102.707285
 21
     1000.342234
 31
       19.319930
  0
LINE
  8
BarLn
 62
255
 10
     1102.707285
 20
     1000.342234
 30
       19.319930
 11
     1102.690676
 21
     1000.308412
 31
       19.318429
  0
LINE
  8
BarLn
 62
255
 10
     1102.690676
 20
     1000.308412
 30
       19.318429
 11
     1102.679769
 21
     1000.243429
 31
       19.324432
  0
LINE
  8
BarLn
 62
255
 10
     1102.679769
 20
     1000.243429
 30
       19.324432
 11
     1102.599241
 21
     1000.143741
 31
       19.360336
  0
LINE
  8
BarLn
 62
255
 10
     1102.599241
 20
     1000.143741
 30
       19.360336
 11
     1102.551145
 21
     1000.076783
 31
       19.373628
  0
LINE
  8
BarLn
 62
255
 10
     1102.329803
 20
      999.914817
 30
       19.241822
 11
     1102.300588
 21
      999.940453
 31
       19.235603
  0
LINE
  8
BarLn
 62
255
 10
     1102.300588
 20
      999.940453
 30
       19.235603
 11
     1102.269548
 21
      999.973316
 31
       19.229281
  0
LINE
  8
BarLn
 62
255
 10
     1102.269548
 20
      999.973316
 30
       19.229281
 11
     1102.204218
 21
     1000.003975
 31
       19.222748
  0
LINE
  8
BarLn
 62
255
 10
     1102.204218
 20
     1000.003975
 30
       19.222748
 11
     1102.164755
 21
     1000.017502
 31
       19.221742
  0
LINE
  8
BarLn
 62
255
 10
     1101.679445
 20
     1000.711618
 30
       19.365682
 11
     1101.719049
 21
     1000.645996
 31
       19.272138
  0
LINE
  8
BarLn
 62
255
 10
     1101.719049
 20
     1000.645996
 30
       19.272138
 11
     1101.869897
 21
     1000.554576
 31
       19.235651
  0
LINE
  8
BarLn
 62
255
 10
     1102.587840
 20
     1000.535979
 30
       19.204142
 11
     1102.543190
 21
     1000.555524
 31
       19.202215
  0
LINE
  8
BarLn
 62
255
 10
     1101.805582
 20
     1000.416740
 30
       19.246620
 11
     1101.737545
 21
     1000.251973
 31
       19.227356
  0
LINE
  8
BarLn
 62
255
 10
     1101.737545
 20
     1000.251973
 30
       19.227356
 11
     1101.779520
 21
     1000.184245
 31
       19.216656
  0
LINE
  8
BarLn
 62
255
 10
     1101.779520
 20
     1000.184245
 30
       19.216656
 11
     1101.827782
 21
     1000.229321
 31
       19.210407
  0
LINE
  8
BarLn
 62
255
 10
     1101.827782
 20
     1000.229321
 30
       19.210407
 11
     1101.863477
 21
     1000.209861
 31
       19.220050
  0
LINE
  8
BarLn
 62
255
 10
     1101.863477
 20
     1000.209861
 30
       19.220050
 11
     1101.906082
 21
     1000.191869
 31
       19.215054
  0
LINE
  8
BarLn
 62
255
 10
     1101.906082
 20
     1000.191869
 30
       19.215054
 11
     1101.888213
 21
     1000.153716
 31
       19.221694
  0
LINE
  8
BarLn
 62
255
 10
     1101.888213
 20
     1000.153716
 30
       19.221694
 11
     1101.906208
 21
     1000.135303
 31
       19.221768
  0
LINE
  8
BarLn
 62
255
 10
     1101.906208
 20
     1000.135303
 30
       19.221768
 11
     1101.940082
 21
     1000.129347
 31
       19.223681
  0
LINE
  8
BarLn
 62
255
 10
     1101.940082
 20
     1000.129347
 30
       19.223681
 11
     1101.990341
 21
     1000.106000
 31
       19.219838
  0
LINE
  8
BarLn
 62
255
 10
     1102.164755
 20
     1000.017502
 30
       19.221742
 11
     1102.044726
 21
     1000.086864
 31
       19.219916
  0
LINE
  8
BarLn
 62
255
 10
     1102.044726
 20
     1000.086864
 30
       19.219916
 11
     1101.990341
 21
     1000.106000
 31
       19.219838
  0
LINE
  8
BarLn
 62
255
 10
     1102.375920
 20
      999.871312
 30
       19.400659
 11
     1102.400014
 21
      999.896661
 31
       19.403597
  0
LINE
  8
BarLn
 62
255
 10
     1102.400014
 20
      999.896661
 30
       19.403597
 11
     1102.416870
 21
      999.967256
 31
       19.392206
  0
LINE
  8
BarLn
 62
255
 10
     1102.416870
 20
      999.967256
 30
       19.392206
 11
     1102.541305
 21
     1000.056736
 31
       19.384674
  0
LINE
  8
BarLn
 62
255
 10
     1102.541305
 20
     1000.056736
 30
       19.384674
 11
     1102.551145
 21
     1000.076783
 31
       19.373628
  0
LINE
  8
BarLn
 62
255
 10
     1102.375920
 20
      999.871312
 30
       19.400659
 11
     1102.348947
 21
      999.792517
 31
       19.406613
  0
LINE
  8
BarLn
 62
255
 10
     1102.348947
 20
      999.792517
 30
       19.406613
 11
     1102.308334
 21
      999.746568
 31
       19.413505
  0
LINE
  8
BarLn
 62
255
 10
     1102.297362
 20
      999.824355
 30
       19.131938
 11
     1102.307118
 21
      999.889616
 31
       19.128686
  0
LINE
  8
BarLn
 62
255
 10
     1102.307118
 20
      999.889616
 30
       19.128686
 11
     1102.103140
 21
      999.955998
 31
       19.111250
  0
LINE
  8
BarLn
 62
255
 10
     1102.103140
 20
      999.955998
 30
       19.111250
 11
     1102.002133
 21
     1000.004291
 31
       19.125522
  0
LINE
  8
BarLn
 62
255
 10
     1101.934305
 20
     1000.022662
 30
       19.085929
 11
     1101.889377
 21
     1000.124672
 31
       19.133758
  0
LINE
  8
BarLn
 62
255
 10
     1101.889377
 20
     1000.124672
 30
       19.133758
 11
     1101.729061
 21
     1000.137206
 31
       19.085401
  0
LINE
  8
BarLn
 62
255
 10
     1102.146206
 20
      999.805330
 30
       19.089627
 11
     1102.030248
 21
      999.874086
 31
       19.085885
  0
LINE
  8
BarLn
 62
255
 10
     1102.543190
 20
     1000.555524
 30
       19.202215
 11
     1102.462312
 21
     1000.638142
 31
       19.225026
  0
LINE
  8
BarLn
 62
255
 10
     1102.002133
 20
     1000.004291
 30
       19.125522
 11
     1101.934305
 21
     1000.022662
 31
       19.085929
  0
LINE
  8
BarLn
 62
255
 10
     1102.297362
 20
      999.824355
 30
       19.131938
 11
     1102.239188
 21
      999.784648
 31
       19.111452
  0
LINE
  8
BarLn
 62
255
 10
     1102.239188
 20
      999.784648
 30
       19.111452
 11
     1102.146206
 21
      999.805330
 31
       19.089627
  0
LINE
  8
BarLn
 62
255
 10
     1102.030248
 20
      999.874086
 30
       19.085885
 11
     1101.744960
 21
     1000.029313
 31
       19.089583
  0
LINE
  8
BarLn
 62
255
 10
     1101.744960
 20
     1000.029313
 30
       19.089583
 11
     1101.688918
 21
     1000.049437
 31
       19.095123
  0
LINE
  8
BarLn
 62
255
 10
     1101.688918
 20
     1000.049437
 30
       19.095123
 11
     1101.671528
 21
     1000.055475
 31
       19.105183
  0
LINE
  8
BarLn
 62
255
 10
     1101.671528
 20
     1000.055475
 30
       19.105183
 11
     1101.705827
 21
     1000.099327
 31
       19.082758
  0
LINE
  8
BarLn
 62
255
 10
     1101.705827
 20
     1000.099327
 30
       19.082758
 11
     1101.729061
 21
     1000.137206
 31
       19.085401
  0
ENDSEC
  0
EOF
