  0
SECTION
  2
HEADER
  9
$PDMODE
 70
   34
  9
$PDSIZE
 40
   -3.0
  0
ENDSEC
  0
SECTION
  2
TABLES
  0
TABLE
  2
LTYPE
 70
 1
  0
LTYPE
  2
CONTINUOUS
  70
 64
  3
Solid line
  72
 65
 73
 0
  40
 0.0
  0
ENDTAB
  0
TABLE
  2
LAYER
 70
 1
 0
LAYER
  2
Default
  70
 0
 62
 7
  6
CONTINUOUS
  0
ENDTAB
  0 
ENDSEC
  0
SECTION
  2
ENTITIES
  0
POINT
  8
Default
 62
255
 10
     1088.192157
 20
      990.808820
 30
       19.620405
  0
POINT
  8
Default
 62
255
 10
     1087.790738
 20
      991.125420
 30
       19.583155
  0
POINT
  8
Default
 62
255
 10
     1088.027047
 20
      991.896724
 30
       19.604654
  0
POINT
  8
Default
 62
255
 10
     1088.026771
 20
      992.136495
 30
       19.652429
  0
POINT
  8
Default
 62
255
 10
     1088.180394
 20
      992.070901
 30
       19.572926
  0
POINT
  8
Default
 62
255
 10
     1088.120882
 20
      991.720036
 30
       19.450340
  0
POINT
  8
Default
 62
255
 10
     1088.305850
 20
      991.949797
 30
       19.492595
  0
POINT
  8
Default
 62
255
 10
     1088.386709
 20
      991.855675
 30
       19.516363
  0
POINT
  8
Default
 62
255
 10
     1088.477327
 20
      991.779241
 30
       19.519884
  0
POINT
  8
Default
 62
255
 10
     1088.585079
 20
      991.878295
 30
       19.530529
  0
POINT
  8
Default
 62
255
 10
     1088.632536
 20
      991.752702
 30
       19.479031
  0
POINT
  8
Default
 62
255
 10
     1088.900390
 20
      991.533393
 30
       19.375191
  0
POINT
  8
Default
 62
255
 10
     1089.005646
 20
      991.355706
 30
       19.394024
  0
POINT
  8
Default
 62
255
 10
     1088.891311
 20
      991.213259
 30
       19.381473
  0
POINT
  8
Default
 62
255
 10
     1088.542487
 20
      990.870917
 30
       19.562505
  0
POINT
  8
Default
 62
255
 10
     1088.499710
 20
      990.738901
 30
       19.621306
  0
POINT
  8
Default
 62
255
 10
     1088.325065
 20
      990.827443
 30
       19.614083
  0
POINT
  8
Default
 62
255
 10
     1088.365801
 20
      990.917558
 30
       19.471327
  0
POINT
  8
Default
 62
255
 10
     1088.138221
 20
      990.974388
 30
       19.589885
  0
POINT
  8
Default
 62
255
 10
     1087.929734
 20
      991.228877
 30
       19.562536
  0
POINT
  8
Default
 62
255
 10
     1087.763138
 20
      991.280721
 30
       19.566321
  0
POINT
  8
Default
 62
255
 10
     1087.859213
 20
      991.378884
 30
       19.566314
  0
POINT
  8
Default
 62
255
 10
     1087.954786
 20
      991.413856
 30
       19.560186
  0
POINT
  8
Default
 62
255
 10
     1087.667360
 20
      991.511476
 30
       19.570366
  0
POINT
  8
Default
 62
255
 10
     1087.969537
 20
      991.539936
 30
       19.560386
  0
POINT
  8
Default
 62
255
 10
     1087.828884
 20
      991.565038
 30
       19.566584
  0
POINT
  8
Default
 62
255
 10
     1087.768277
 20
      991.702948
 30
       19.581713
  0
POINT
  8
Default
 62
255
 10
     1087.903051
 20
      991.696450
 30
       19.572207
  0
POINT
  8
Default
 62
255
 10
     1088.063828
 20
      991.640079
 30
       19.455282
  0
POINT
  8
Default
 62
255
 10
     1087.990834
 20
      991.810001
 30
       19.561222
  0
POINT
  8
Default
 62
255
 10
     1087.847929
 20
      991.873372
 30
       19.606502
  0
POINT
  8
Default
 62
255
 10
     1088.146388
 20
      992.250178
 30
       19.589242
  0
POINT
  8
Default
 62
255
 10
     1088.182718
 20
      991.598846
 30
       19.289640
  0
POINT
  8
Default
 62
255
 10
     1088.736796
 20
      991.516392
 30
       19.179110
  0
POINT
  8
Default
 62
255
 10
     1088.476866
 20
      991.529794
 30
       19.044864
  0
POINT
  8
Default
 62
255
 10
     1088.439149
 20
      990.949865
 30
       19.367907
  0
POINT
  8
Default
 62
255
 10
     1088.301421
 20
      991.353519
 30
       19.140101
  0
POINT
  8
Default
 62
255
 10
     1088.527400
 20
      991.277437
 30
       19.084896
  0
POINT
  8
Default
 62
255
 10
     1088.345674
 20
      991.620271
 30
       19.175958
  0
POINT
  8
Default
 62
255
 10
     1088.643363
 20
      991.294162
 30
       19.126191
  0
POINT
  8
Default
 62
255
 10
     1088.510039
 20
      991.097432
 30
       19.198224
  0
POINT
  8
Default
 62
255
 10
     1088.281037
 20
      991.221124
 30
       19.186850
  0
POINT
  8
Default
 62
255
 10
     1088.180348
 20
      991.147470
 30
       19.329098
  0
POINT
  8
Default
 62
255
 10
     1088.588253
 20
      990.852121
 30
       19.608932
  0
POINT
  8
Default
 62
255
 10
     1088.558158
 20
      990.799239
 30
       19.620000
  0
POINT
  8
Default
 62
255
 10
     1088.530938
 20
      990.841389
 30
       19.608975
  0
POINT
  8
Default
 62
255
 10
     1088.524638
 20
      990.786152
 30
       19.614611
  0
POINT
  8
Default
 62
255
 10
     1088.491364
 20
      990.768077
 30
       19.615727
  0
POINT
  8
Default
 62
255
 10
     1088.486197
 20
      990.816726
 30
       19.613660
  0
POINT
  8
Default
 62
255
 10
     1088.482837
 20
      990.849599
 30
       19.596005
  0
POINT
  8
Default
 62
255
 10
     1088.424265
 20
      990.809275
 30
       19.613940
  0
POINT
  8
Default
 62
255
 10
     1088.445601
 20
      990.745986
 30
       19.615774
  0
POINT
  8
Default
 62
255
 10
     1088.416453
 20
      990.844574
 30
       19.612074
  0
POINT
  8
Default
 62
255
 10
     1088.366248
 20
      990.856118
 30
       19.608655
  0
POINT
  8
Default
 62
255
 10
     1088.412546
 20
      990.745019
 30
       19.617901
  0
POINT
  8
Default
 62
255
 10
     1088.480009
 20
      990.714162
 30
       19.623960
  0
POINT
  8
Default
 62
255
 10
     1088.409311
 20
      990.661031
 30
       19.619644
  0
POINT
  8
Default
 62
255
 10
     1088.349815
 20
      990.668735
 30
       19.613472
  0
POINT
  8
Default
 62
255
 10
     1088.265621
 20
      990.681200
 30
       19.609637
  0
POINT
  8
Default
 62
255
 10
     1088.250314
 20
      990.747458
 30
       19.612384
  0
POINT
  8
Default
 62
255
 10
     1088.269105
 20
      990.589064
 30
       19.613205
  0
POINT
  8
Default
 62
255
 10
     1088.291635
 20
      990.543276
 30
       19.617379
  0
POINT
  8
Default
 62
255
 10
     1088.288014
 20
      990.898602
 30
       19.596823
  0
POINT
  8
Default
 62
255
 10
     1088.666509
 20
      990.908076
 30
       19.485104
  0
POINT
  8
Default
 62
255
 10
     1088.678872
 20
      990.909057
 30
       19.519858
  0
POINT
  8
Default
 62
255
 10
     1088.644784
 20
      990.874680
 30
       19.583623
  0
POINT
  8
Default
 62
255
 10
     1088.599271
 20
      990.875761
 30
       19.563565
  0
POINT
  8
Default
 62
255
 10
     1088.574479
 20
      990.885106
 30
       19.516186
  0
POINT
  8
Default
 62
255
 10
     1088.547025
 20
      990.881069
 30
       19.518542
  0
POINT
  8
Default
 62
255
 10
     1088.513345
 20
      990.858394
 30
       19.586472
  0
POINT
  8
Default
 62
255
 10
     1088.500396
 20
      990.875151
 30
       19.537270
  0
POINT
  8
Default
 62
255
 10
     1088.475340
 20
      990.865565
 30
       19.564666
  0
POINT
  8
Default
 62
255
 10
     1088.447244
 20
      990.874017
 30
       19.543893
  0
POINT
  8
Default
 62
255
 10
     1088.484510
 20
      990.906517
 30
       19.483063
  0
POINT
  8
Default
 62
255
 10
     1088.443147
 20
      990.888611
 30
       19.524694
  0
POINT
  8
Default
 62
255
 10
     1088.446679
 20
      990.912283
 30
       19.476802
  0
POINT
  8
Default
 62
255
 10
     1088.405535
 20
      990.916410
 30
       19.447449
  0
POINT
  8
Default
 62
255
 10
     1088.391913
 20
      990.893770
 30
       19.494128
  0
POINT
  8
Default
 62
255
 10
     1088.381866
 20
      990.879522
 30
       19.524869
  0
POINT
  8
Default
 62
255
 10
     1088.419510
 20
      990.871287
 30
       19.552318
  0
POINT
  8
Default
 62
255
 10
     1088.331777
 20
      990.875780
 30
       19.577967
  0
POINT
  8
Default
 62
255
 10
     1088.364609
 20
      990.891452
 30
       19.512837
  0
POINT
  8
Default
 62
255
 10
     1088.329637
 20
      990.903638
 30
       19.507675
  0
POINT
  8
Default
 62
255
 10
     1088.348310
 20
      990.938501
 30
       19.445878
  0
POINT
  8
Default
 62
255
 10
     1088.229169
 20
      990.957158
 30
       19.525450
  0
POINT
  8
Default
 62
255
 10
     1088.254494
 20
      990.942510
 30
       19.525392
  0
POINT
  8
Default
 62
255
 10
     1088.266826
 20
      990.946704
 30
       19.487607
  0
POINT
  8
Default
 62
255
 10
     1088.308532
 20
      990.908373
 30
       19.498669
  0
POINT
  8
Default
 62
255
 10
     1088.325440
 20
      990.933499
 30
       19.454316
  0
POINT
  8
Default
 62
255
 10
     1088.202473
 20
      990.984010
 30
       19.491204
  0
POINT
  8
Default
 62
255
 10
     1088.242770
 20
      990.963935
 30
       19.499097
  0
POINT
  8
Default
 62
255
 10
     1088.196482
 20
      990.964384
 30
       19.580270
  0
POINT
  8
Default
 62
255
 10
     1088.225369
 20
      990.928735
 30
       19.598993
  0
POINT
  8
Default
 62
255
 10
     1088.144876
 20
      990.999619
 30
       19.581837
  0
POINT
  8
Default
 62
255
 10
     1088.177272
 20
      991.010847
 30
       19.485617
  0
POINT
  8
Default
 62
255
 10
     1088.144077
 20
      991.036084
 30
       19.492033
  0
POINT
  8
Default
 62
255
 10
     1088.125677
 20
      991.027191
 30
       19.565153
  0
POINT
  8
Default
 62
255
 10
     1088.156240
 20
      991.001833
 30
       19.554186
  0
POINT
  8
Default
 62
255
 10
     1088.189362
 20
      990.973839
 30
       19.542426
  0
POINT
  8
Default
 62
255
 10
     1088.117236
 20
      991.061967
 30
       19.514944
  0
POINT
  8
Default
 62
255
 10
     1088.076848
 20
      991.079270
 30
       19.560989
  0
POINT
  8
Default
 62
255
 10
     1088.102342
 20
      991.047251
 30
       19.570967
  0
POINT
  8
Default
 62
255
 10
     1088.088196
 20
      991.091647
 30
       19.521760
  0
POINT
  8
Default
 62
255
 10
     1088.062603
 20
      991.121833
 30
       19.535739
  0
POINT
  8
Default
 62
255
 10
     1088.101429
 20
      991.089912
 30
       19.486548
  0
POINT
  8
Default
 62
255
 10
     1088.047323
 20
      991.133119
 30
       19.544147
  0
POINT
  8
Default
 62
255
 10
     1088.032407
 20
      991.203209
 30
       19.477790
  0
POINT
  8
Default
 62
255
 10
     1088.087547
 20
      991.122109
 30
       19.480215
  0
POINT
  8
Default
 62
255
 10
     1088.021029
 20
      991.119995
 30
       19.575139
  0
POINT
  8
Default
 62
255
 10
     1088.018241
 20
      991.151527
 30
       19.574275
  0
POINT
  8
Default
 62
255
 10
     1088.016558
 20
      991.181577
 30
       19.562074
  0
POINT
  8
Default
 62
255
 10
     1088.042539
 20
      991.160719
 30
       19.534955
  0
POINT
  8
Default
 62
255
 10
     1088.023654
 20
      991.361415
 30
       19.437695
  0
POINT
  8
Default
 62
255
 10
     1088.026734
 20
      991.332360
 30
       19.442414
  0
POINT
  8
Default
 62
255
 10
     1088.018822
 20
      991.310080
 30
       19.475434
  0
POINT
  8
Default
 62
255
 10
     1088.027438
 20
      991.290570
 30
       19.448167
  0
POINT
  8
Default
 62
255
 10
     1088.037321
 20
      991.246013
 30
       19.460500
  0
POINT
  8
Default
 62
255
 10
     1088.016273
 20
      991.322409
 30
       19.506619
  0
POINT
  8
Default
 62
255
 10
     1088.015091
 20
      991.276821
 30
       19.505757
  0
POINT
  8
Default
 62
255
 10
     1088.020085
 20
      991.235395
 30
       19.484454
  0
POINT
  8
Default
 62
255
 10
     1088.014143
 20
      991.226510
 30
       19.540463
  0
POINT
  8
Default
 62
255
 10
     1087.989933
 20
      991.283350
 30
       19.563343
  0
POINT
  8
Default
 62
255
 10
     1087.988771
 20
      991.315561
 30
       19.557749
  0
POINT
  8
Default
 62
255
 10
     1088.004717
 20
      991.260649
 30
       19.553753
  0
POINT
  8
Default
 62
255
 10
     1088.002433
 20
      991.245296
 30
       19.566620
  0
POINT
  8
Default
 62
255
 10
     1088.009015
 20
      991.214493
 30
       19.568442
  0
POINT
  8
Default
 62
255
 10
     1088.008827
 20
      991.352348
 30
       19.504993
  0
POINT
  8
Default
 62
255
 10
     1087.987605
 20
      991.349236
 30
       19.559099
  0
POINT
  8
Default
 62
255
 10
     1087.989221
 20
      991.393405
 30
       19.530985
  0
POINT
  8
Default
 62
255
 10
     1087.999463
 20
      991.361955
 30
       19.531917
  0
POINT
  8
Default
 62
255
 10
     1088.024064
 20
      991.404271
 30
       19.423700
  0
POINT
  8
Default
 62
255
 10
     1088.037448
 20
      991.481551
 30
       19.413599
  0
POINT
  8
Default
 62
255
 10
     1088.001407
 20
      991.422733
 30
       19.490508
  0
POINT
  8
Default
 62
255
 10
     1088.018102
 20
      991.446067
 30
       19.438215
  0
POINT
  8
Default
 62
255
 10
     1088.002709
 20
      991.403736
 30
       19.477825
  0
POINT
  8
Default
 62
255
 10
     1088.004427
 20
      991.499704
 30
       19.533057
  0
POINT
  8
Default
 62
255
 10
     1088.021492
 20
      991.543561
 30
       19.511265
  0
POINT
  8
Default
 62
255
 10
     1088.006407
 20
      991.532760
 30
       19.529191
  0
POINT
  8
Default
 62
255
 10
     1087.988938
 20
      991.470509
 30
       19.547050
  0
POINT
  8
Default
 62
255
 10
     1087.969567
 20
      991.503941
 30
       19.559617
  0
POINT
  8
Default
 62
255
 10
     1087.987052
 20
      991.422838
 30
       19.534827
  0
POINT
  8
Default
 62
255
 10
     1088.040683
 20
      991.542112
 30
       19.461118
  0
POINT
  8
Default
 62
255
 10
     1088.039887
 20
      991.521950
 30
       19.416320
  0
POINT
  8
Default
 62
255
 10
     1088.017743
 20
      991.564405
 30
       19.507654
  0
POINT
  8
Default
 62
255
 10
     1088.054195
 20
      991.543144
 30
       19.395392
  0
POINT
  8
Default
 62
255
 10
     1088.059933
 20
      991.573605
 30
       19.433887
  0
POINT
  8
Default
 62
255
 10
     1088.018996
 20
      991.596249
 30
       19.496988
  0
POINT
  8
Default
 62
255
 10
     1088.036575
 20
      991.584758
 30
       19.482367
  0
POINT
  8
Default
 62
255
 10
     1088.061821
 20
      991.600111
 30
       19.456603
  0
POINT
  8
Default
 62
255
 10
     1088.077819
 20
      991.611906
 30
       19.415966
  0
POINT
  8
Default
 62
255
 10
     1088.087051
 20
      991.604513
 30
       19.385108
  0
POINT
  8
Default
 62
255
 10
     1088.072420
 20
      991.587353
 30
       19.407002
  0
POINT
  8
Default
 62
255
 10
     1088.106428
 20
      991.644581
 30
       19.404621
  0
POINT
  8
Default
 62
255
 10
     1088.133381
 20
      991.661785
 30
       19.385539
  0
POINT
  8
Default
 62
255
 10
     1088.113593
 20
      991.672176
 30
       19.436010
  0
POINT
  8
Default
 62
255
 10
     1088.103192
 20
      991.687780
 30
       19.448133
  0
POINT
  8
Default
 62
255
 10
     1088.305552
 20
      991.260873
 30
       19.161513
  0
POINT
  8
Default
 62
255
 10
     1088.326057
 20
      991.224877
 30
       19.163496
  0
POINT
  8
Default
 62
255
 10
     1088.327573
 20
      991.265413
 30
       19.147020
  0
POINT
  8
Default
 62
255
 10
     1088.355445
 20
      991.244834
 30
       19.130031
  0
POINT
  8
Default
 62
255
 10
     1088.401076
 20
      991.285845
 30
       19.093191
  0
POINT
  8
Default
 62
255
 10
     1088.407077
 20
      991.322637
 30
       19.090259
  0
POINT
  8
Default
 62
255
 10
     1088.436396
 20
      991.281855
 30
       19.090086
  0
POINT
  8
Default
 62
255
 10
     1088.462153
 20
      991.299312
 30
       19.080573
  0
POINT
  8
Default
 62
255
 10
     1088.466766
 20
      991.247355
 30
       19.094848
  0
POINT
  8
Default
 62
255
 10
     1088.379258
 20
      991.305851
 30
       19.099912
  0
POINT
  8
Default
 62
255
 10
     1088.383012
 20
      991.339484
 30
       19.098133
  0
POINT
  8
Default
 62
255
 10
     1088.447053
 20
      991.332427
 30
       19.074920
  0
POINT
  8
Default
 62
255
 10
     1088.390129
 20
      991.234709
 30
       19.117296
  0
POINT
  8
Default
 62
255
 10
     1088.416066
 20
      991.255508
 30
       19.099952
  0
POINT
  8
Default
 62
255
 10
     1088.459094
 20
      991.208411
 30
       19.114405
  0
POINT
  8
Default
 62
255
 10
     1088.422043
 20
      991.199088
 30
       19.131179
  0
POINT
  8
Default
 62
255
 10
     1088.396338
 20
      991.198696
 30
       19.138506
  0
POINT
  8
Default
 62
255
 10
     1088.293574
 20
      991.316953
 30
       19.142799
  0
POINT
  8
Default
 62
255
 10
     1088.277664
 20
      991.354260
 30
       19.149407
  0
POINT
  8
Default
 62
255
 10
     1088.339892
 20
      991.323282
 30
       19.112751
  0
POINT
  8
Default
 62
255
 10
     1088.343778
 20
      991.377621
 30
       19.107491
  0
POINT
  8
Default
 62
255
 10
     1088.340055
 20
      991.415556
 30
       19.110560
  0
POINT
  8
Default
 62
255
 10
     1088.401571
 20
      991.363573
 30
       19.087591
  0
POINT
  8
Default
 62
255
 10
     1088.498709
 20
      991.243448
 30
       19.095817
  0
POINT
  8
Default
 62
255
 10
     1088.503071
 20
      991.179927
 30
       19.134219
  0
POINT
  8
Default
 62
255
 10
     1088.471679
 20
      991.173526
 30
       19.138825
  0
POINT
  8
Default
 62
255
 10
     1088.494450
 20
      991.132710
 30
       19.173041
  0
POINT
  8
Default
 62
255
 10
     1088.447924
 20
      991.132426
 30
       19.173141
  0
POINT
  8
Default
 62
255
 10
     1088.398924
 20
      991.149594
 30
       19.173192
  0
POINT
  8
Default
 62
255
 10
     1088.431760
 20
      991.166604
 30
       19.150264
  0
POINT
  8
Default
 62
255
 10
     1088.526565
 20
      991.249423
 30
       19.093905
  0
POINT
  8
Default
 62
255
 10
     1088.550850
 20
      991.213017
 30
       19.119018
  0
POINT
  8
Default
 62
255
 10
     1088.573836
 20
      991.190787
 30
       19.136848
  0
POINT
  8
Default
 62
255
 10
     1088.592178
 20
      991.221001
 30
       19.126728
  0
POINT
  8
Default
 62
255
 10
     1088.604715
 20
      991.191334
 30
       19.146366
  0
POINT
  8
Default
 62
255
 10
     1088.629495
 20
      991.158405
 30
       19.185010
  0
POINT
  8
Default
 62
255
 10
     1088.571260
 20
      991.257153
 30
       19.102818
  0
POINT
  8
Default
 62
255
 10
     1088.646539
 20
      991.258112
 30
       19.133448
  0
POINT
  8
Default
 62
255
 10
     1088.662486
 20
      991.232422
 30
       19.156122
  0
POINT
  8
Default
 62
255
 10
     1088.625829
 20
      991.226352
 30
       19.133936
  0
POINT
  8
Default
 62
255
 10
     1088.651973
 20
      991.155876
 30
       19.209700
  0
POINT
  8
Default
 62
255
 10
     1088.694595
 20
      991.180225
 30
       19.214384
  0
POINT
  8
Default
 62
255
 10
     1088.661484
 20
      991.121435
 30
       19.230505
  0
POINT
  8
Default
 62
255
 10
     1088.690986
 20
      991.116960
 30
       19.249255
  0
POINT
  8
Default
 62
255
 10
     1088.553346
 20
      991.160444
 30
       19.149718
  0
POINT
  8
Default
 62
255
 10
     1088.537742
 20
      991.133578
 30
       19.168981
  0
POINT
  8
Default
 62
255
 10
     1088.584664
 20
      991.151693
 30
       19.158117
  0
POINT
  8
Default
 62
255
 10
     1088.613701
 20
      991.109550
 30
       19.201315
  0
POINT
  8
Default
 62
255
 10
     1088.468062
 20
      991.505323
 30
       19.045557
  0
POINT
  8
Default
 62
255
 10
     1088.462757
 20
      991.428380
 30
       19.062660
  0
POINT
  8
Default
 62
255
 10
     1088.426422
 20
      991.448091
 30
       19.071511
  0
POINT
  8
Default
 62
255
 10
     1088.453662
 20
      991.474045
 30
       19.053662
  0
POINT
  8
Default
 62
255
 10
     1088.505480
 20
      991.458748
 30
       19.062684
  0
POINT
  8
Default
 62
255
 10
     1088.563477
 20
      991.466318
 30
       19.071960
  0
POINT
  8
Default
 62
255
 10
     1088.509953
 20
      991.422685
 30
       19.069513
  0
POINT
  8
Default
 62
255
 10
     1088.383012
 20
      991.470442
 30
       19.084141
  0
POINT
  8
Default
 62
255
 10
     1088.380763
 20
      991.491201
 30
       19.092936
  0
POINT
  8
Default
 62
255
 10
     1088.369185
 20
      991.510884
 30
       19.102751
  0
POINT
  8
Default
 62
255
 10
     1088.318299
 20
      991.495696
 30
       19.132098
  0
POINT
  8
Default
 62
255
 10
     1088.348810
 20
      991.478840
 30
       19.109760
  0
POINT
  8
Default
 62
255
 10
     1088.338318
 20
      991.447752
 30
       19.113855
  0
POINT
  8
Default
 62
255
 10
     1088.438355
 20
      991.527308
 30
       19.058324
  0
POINT
  8
Default
 62
255
 10
     1088.384628
 20
      991.543172
 30
       19.112658
  0
POINT
  8
Default
 62
255
 10
     1088.417158
 20
      991.504915
 30
       19.068151
  0
POINT
  8
Default
 62
255
 10
     1088.342132
 20
      991.594123
 30
       19.165421
  0
POINT
  8
Default
 62
255
 10
     1088.315210
 20
      991.593142
 30
       19.173302
  0
POINT
  8
Default
 62
255
 10
     1088.328636
 20
      991.577059
 30
       19.165364
  0
POINT
  8
Default
 62
255
 10
     1088.369019
 20
      991.599578
 30
       19.151131
  0
POINT
  8
Default
 62
255
 10
     1088.591127
 20
      991.408209
 30
       19.084150
  0
POINT
  8
Default
 62
255
 10
     1088.547378
 20
      991.416542
 30
       19.074929
  0
POINT
  8
Default
 62
255
 10
     1088.432251
 20
      991.386474
 30
       19.077646
  0
POINT
  8
Default
 62
255
 10
     1088.473838
 20
      991.396416
 30
       19.069157
  0
POINT
  8
Default
 62
255
 10
     1088.495069
 20
      991.287156
 30
       19.091597
  0
POINT
  8
Default
 62
255
 10
     1088.476992
 20
      991.354975
 30
       19.061890
  0
POINT
  8
Default
 62
255
 10
     1088.696562
 20
      991.309777
 30
       19.148520
  0
POINT
  8
Default
 62
255
 10
     1088.695897
 20
      991.377402
 30
       19.139234
  0
POINT
  8
Default
 62
255
 10
     1088.658075
 20
      991.346686
 30
       19.119794
  0
POINT
  8
Default
 62
255
 10
     1088.668172
 20
      991.314368
 30
       19.128739
  0
POINT
  8
Default
 62
255
 10
     1088.624488
 20
      991.318508
 30
       19.111123
  0
POINT
  8
Default
 62
255
 10
     1088.551034
 20
      991.310602
 30
       19.080784
  0
POINT
  8
Default
 62
255
 10
     1088.564508
 20
      991.350169
 30
       19.082860
  0
POINT
  8
Default
 62
255
 10
     1088.509180
 20
      991.379352
 30
       19.069067
  0
POINT
  8
Default
 62
255
 10
     1088.621588
 20
      991.411529
 30
       19.087962
  0
POINT
  8
Default
 62
255
 10
     1088.567801
 20
      991.390995
 30
       19.080392
  0
POINT
  8
Default
 62
255
 10
     1088.512048
 20
      991.347179
 30
       19.074509
  0
POINT
  8
Default
 62
255
 10
     1088.739322
 20
      991.165108
 30
       19.264804
  0
POINT
  8
Default
 62
255
 10
     1088.726108
 20
      991.194460
 30
       19.234707
  0
POINT
  8
Default
 62
255
 10
     1088.725317
 20
      991.234902
 30
       19.213484
  0
POINT
  8
Default
 62
255
 10
     1088.692591
 20
      991.227741
 30
       19.187335
  0
POINT
  8
Default
 62
255
 10
     1088.646780
 20
      991.197596
 30
       19.162835
  0
POINT
  8
Default
 62
255
 10
     1088.669388
 20
      991.488374
 30
       19.119618
  0
POINT
  8
Default
 62
255
 10
     1088.682483
 20
      991.463036
 30
       19.126980
  0
POINT
  8
Default
 62
255
 10
     1088.669546
 20
      991.414062
 30
       19.114703
  0
POINT
  8
Default
 62
255
 10
     1088.628447
 20
      991.347697
 30
       19.104767
  0
POINT
  8
Default
 62
255
 10
     1088.766003
 20
      991.391318
 30
       19.190589
  0
POINT
  8
Default
 62
255
 10
     1088.733558
 20
      991.388818
 30
       19.163337
  0
POINT
  8
Default
 62
255
 10
     1088.717786
 20
      991.413380
 30
       19.147438
  0
POINT
  8
Default
 62
255
 10
     1088.760946
 20
      991.334546
 30
       19.199555
  0
POINT
  8
Default
 62
255
 10
     1088.721794
 20
      991.289057
 30
       19.175849
  0
POINT
  8
Default
 62
255
 10
     1088.270898
 20
      991.417165
 30
       19.155718
  0
POINT
  8
Default
 62
255
 10
     1088.307358
 20
      991.436062
 30
       19.128872
  0
POINT
  8
Default
 62
255
 10
     1088.255805
 20
      991.367601
 30
       19.161468
  0
POINT
  8
Default
 62
255
 10
     1088.233046
 20
      991.397847
 30
       19.173971
  0
POINT
  8
Default
 62
255
 10
     1088.269368
 20
      991.445615
 30
       19.152386
  0
POINT
  8
Default
 62
255
 10
     1088.266963
 20
      991.483742
 30
       19.160842
  0
POINT
  8
Default
 62
255
 10
     1088.269322
 20
      991.543782
 30
       19.180178
  0
POINT
  8
Default
 62
255
 10
     1088.293016
 20
      991.480527
 30
       19.144431
  0
POINT
  8
Default
 62
255
 10
     1088.254857
 20
      991.527867
 30
       19.184567
  0
POINT
  8
Default
 62
255
 10
     1088.231600
 20
      991.504372
 30
       19.193649
  0
POINT
  8
Default
 62
255
 10
     1088.213429
 20
      991.522577
 30
       19.217486
  0
POINT
  8
Default
 62
255
 10
     1088.202553
 20
      991.477927
 30
       19.213866
  0
POINT
  8
Default
 62
255
 10
     1088.236494
 20
      991.473074
 30
       19.175613
  0
POINT
  8
Default
 62
255
 10
     1088.241282
 20
      991.568749
 30
       19.208377
  0
POINT
  8
Default
 62
255
 10
     1088.179930
 20
      991.413790
 30
       19.221115
  0
POINT
  8
Default
 62
255
 10
     1088.182160
 20
      991.496577
 30
       19.239246
  0
POINT
  8
Default
 62
255
 10
     1088.217005
 20
      991.448861
 30
       19.188984
  0
POINT
  8
Default
 62
255
 10
     1088.218319
 20
      991.371623
 30
       19.184631
  0
POINT
  8
Default
 62
255
 10
     1088.166960
 20
      991.431474
 30
       19.243631
  0
POINT
  8
Default
 62
255
 10
     1088.152118
 20
      991.466179
 30
       19.266936
  0
POINT
  8
Default
 62
255
 10
     1088.148756
 20
      991.506451
 30
       19.284005
  0
POINT
  8
Default
 62
255
 10
     1088.134854
 20
      991.436781
 30
       19.273303
  0
POINT
  8
Default
 62
255
 10
     1088.103386
 20
      991.415924
 30
       19.299905
  0
POINT
  8
Default
 62
255
 10
     1088.090168
 20
      991.367425
 30
       19.320758
  0
POINT
  8
Default
 62
255
 10
     1088.114317
 20
      991.373139
 30
       19.291959
  0
POINT
  8
Default
 62
255
 10
     1088.135632
 20
      991.398808
 30
       19.266710
  0
POINT
  8
Default
 62
255
 10
     1088.166490
 20
      991.370850
 30
       19.232235
  0
POINT
  8
Default
 62
255
 10
     1088.119193
 20
      991.330790
 30
       19.308801
  0
POINT
  8
Default
 62
255
 10
     1088.250343
 20
      991.246423
 30
       19.194213
  0
POINT
  8
Default
 62
255
 10
     1088.212405
 20
      991.295018
 30
       19.213520
  0
POINT
  8
Default
 62
255
 10
     1088.197812
 20
      991.265432
 30
       19.230276
  0
POINT
  8
Default
 62
255
 10
     1088.229721
 20
      991.231924
 30
       19.215906
  0
POINT
  8
Default
 62
255
 10
     1088.180435
 20
      991.238118
 30
       19.264663
  0
POINT
  8
Default
 62
255
 10
     1088.229783
 20
      991.196165
 30
       19.230975
  0
POINT
  8
Default
 62
255
 10
     1088.201754
 20
      991.211054
 30
       19.251739
  0
POINT
  8
Default
 62
255
 10
     1088.149605
 20
      991.276608
 30
       19.268395
  0
POINT
  8
Default
 62
255
 10
     1088.147756
 20
      991.325825
 30
       19.263529
  0
POINT
  8
Default
 62
255
 10
     1088.170534
 20
      991.302883
 30
       19.241648
  0
POINT
  8
Default
 62
255
 10
     1088.201328
 20
      991.398693
 30
       19.191919
  0
POINT
  8
Default
 62
255
 10
     1088.182316
 20
      991.214081
 30
       19.276978
  0
POINT
  8
Default
 62
255
 10
     1088.071614
 20
      991.320462
 30
       19.356484
  0
POINT
  8
Default
 62
255
 10
     1088.103366
 20
      991.320592
 30
       19.320897
  0
POINT
  8
Default
 62
255
 10
     1088.079231
 20
      991.225605
 30
       19.381029
  0
POINT
  8
Default
 62
255
 10
     1088.097075
 20
      991.249770
 30
       19.360265
  0
POINT
  8
Default
 62
255
 10
     1088.125327
 20
      991.255943
 30
       19.312097
  0
POINT
  8
Default
 62
255
 10
     1088.159736
 20
      991.206235
 30
       19.305023
  0
POINT
  8
Default
 62
255
 10
     1088.164836
 20
      991.174573
 30
       19.324850
  0
POINT
  8
Default
 62
255
 10
     1088.206147
 20
      991.177045
 30
       19.284008
  0
POINT
  8
Default
 62
255
 10
     1088.192829
 20
      991.119164
 30
       19.341352
  0
POINT
  8
Default
 62
255
 10
     1088.138577
 20
      991.102672
 30
       19.384699
  0
POINT
  8
Default
 62
255
 10
     1088.133982
 20
      991.124880
 30
       19.377391
  0
POINT
  8
Default
 62
255
 10
     1088.115399
 20
      991.148669
 30
       19.374032
  0
POINT
  8
Default
 62
255
 10
     1088.109176
 20
      991.180291
 30
       19.368710
  0
POINT
  8
Default
 62
255
 10
     1088.173769
 20
      991.094701
 30
       19.369031
  0
POINT
  8
Default
 62
255
 10
     1088.359151
 20
      991.921638
 30
       19.509731
  0
POINT
  8
Default
 62
255
 10
     1088.470655
 20
      991.889382
 30
       19.519810
  0
POINT
  8
Default
 62
255
 10
     1088.412072
 20
      991.940642
 30
       19.508791
  0
POINT
  8
Default
 62
255
 10
     1088.433720
 20
      991.887029
 30
       19.516822
  0
POINT
  8
Default
 62
255
 10
     1088.412780
 20
      991.773318
 30
       19.520559
  0
POINT
  8
Default
 62
255
 10
     1088.384833
 20
      991.924490
 30
       19.507950
  0
POINT
  8
Default
 62
255
 10
     1088.349504
 20
      991.901486
 30
       19.507160
  0
POINT
  8
Default
 62
255
 10
     1088.412842
 20
      991.860695
 30
       19.517334
  0
POINT
  8
Default
 62
255
 10
     1088.404563
 20
      991.895112
 30
       19.513950
  0
POINT
  8
Default
 62
255
 10
     1088.373062
 20
      991.884581
 30
       19.511809
  0
POINT
  8
Default
 62
255
 10
     1088.426154
 20
      991.909673
 30
       19.512254
  0
POINT
  8
Default
 62
255
 10
     1088.471771
 20
      991.915786
 30
       19.517396
  0
POINT
  8
Default
 62
255
 10
     1088.441210
 20
      991.956527
 30
       19.510529
  0
POINT
  8
Default
 62
255
 10
     1088.478679
 20
      991.985651
 30
       19.505518
  0
POINT
  8
Default
 62
255
 10
     1088.449185
 20
      991.857177
 30
       19.516024
  0
POINT
  8
Default
 62
255
 10
     1088.445211
 20
      991.819675
 30
       19.518315
  0
POINT
  8
Default
 62
255
 10
     1088.410832
 20
      991.801991
 30
       19.517853
  0
POINT
  8
Default
 62
255
 10
     1088.489847
 20
      991.801515
 30
       19.527291
  0
POINT
  8
Default
 62
255
 10
     1088.456371
 20
      991.763196
 30
       19.518308
  0
POINT
  8
Default
 62
255
 10
     1088.437972
 20
      991.768995
 30
       19.520253
  0
POINT
  8
Default
 62
255
 10
     1088.371171
 20
      991.815175
 30
       19.511455
  0
POINT
  8
Default
 62
255
 10
     1088.355465
 20
      991.795393
 30
       19.512450
  0
POINT
  8
Default
 62
255
 10
     1088.390730
 20
      991.776841
 30
       19.517915
  0
POINT
  8
Default
 62
255
 10
     1088.485381
 20
      991.849450
 30
       19.523796
  0
POINT
  8
Default
 62
255
 10
     1088.546628
 20
      991.882360
 30
       19.522359
  0
POINT
  8
Default
 62
255
 10
     1088.511244
 20
      991.899459
 30
       19.521784
  0
POINT
  8
Default
 62
255
 10
     1088.530106
 20
      991.843660
 30
       19.523204
  0
POINT
  8
Default
 62
255
 10
     1088.545965
 20
      991.777617
 30
       19.512234
  0
POINT
  8
Default
 62
255
 10
     1088.525731
 20
      991.774321
 30
       19.516786
  0
POINT
  8
Default
 62
255
 10
     1088.554379
 20
      991.810010
 30
       19.514344
  0
POINT
  8
Default
 62
255
 10
     1088.520566
 20
      991.807878
 30
       19.522676
  0
POINT
  8
Default
 62
255
 10
     1088.468619
 20
      991.952223
 30
       19.511251
  0
POINT
  8
Default
 62
255
 10
     1088.584313
 20
      991.858420
 30
       19.519988
  0
POINT
  8
Default
 62
255
 10
     1088.606276
 20
      991.795525
 30
       19.501614
  0
POINT
  8
Default
 62
255
 10
     1088.587217
 20
      991.833215
 30
       19.520968
  0
POINT
  8
Default
 62
255
 10
     1088.573542
 20
      991.756472
 30
       19.481580
  0
POINT
  8
Default
 62
255
 10
     1088.622146
 20
      991.829939
 30
       19.511963
  0
POINT
  8
Default
 62
255
 10
     1088.596206
 20
      991.903937
 30
       19.549399
  0
POINT
  8
Default
 62
255
 10
     1088.611874
 20
      991.864737
 30
       19.528242
  0
POINT
  8
Default
 62
255
 10
     1088.633879
 20
      991.797105
 30
       19.499512
  0
POINT
  8
Default
 62
255
 10
     1088.334807
 20
      991.938191
 30
       19.486327
  0
POINT
  8
Default
 62
255
 10
     1088.335070
 20
      991.972960
 30
       19.485313
  0
POINT
  8
Default
 62
255
 10
     1088.323080
 20
      992.009278
 30
       19.489399
  0
POINT
  8
Default
 62
255
 10
     1088.344390
 20
      992.032772
 30
       19.485816
  0
POINT
  8
Default
 62
255
 10
     1088.353575
 20
      992.017637
 30
       19.474917
  0
POINT
  8
Default
 62
255
 10
     1088.381366
 20
      992.023696
 30
       19.471364
  0
POINT
  8
Default
 62
255
 10
     1088.372107
 20
      991.993547
 30
       19.470413
  0
POINT
  8
Default
 62
255
 10
     1088.321583
 20
      992.038612
 30
       19.495912
  0
POINT
  8
Default
 62
255
 10
     1088.266331
 20
      991.934329
 30
       19.492767
  0
POINT
  8
Default
 62
255
 10
     1088.260802
 20
      991.974622
 30
       19.501059
  0
POINT
  8
Default
 62
255
 10
     1088.294748
 20
      992.058630
 30
       19.525598
  0
POINT
  8
Default
 62
255
 10
     1088.245495
 20
      992.015391
 30
       19.522565
  0
POINT
  8
Default
 62
255
 10
     1088.381249
 20
      992.070722
 30
       19.477451
  0
POINT
  8
Default
 62
255
 10
     1088.473210
 20
      992.025729
 30
       19.478561
  0
POINT
  8
Default
 62
255
 10
     1088.499346
 20
      992.052017
 30
       19.477707
  0
POINT
  8
Default
 62
255
 10
     1088.401197
 20
      992.033960
 30
       19.463388
  0
POINT
  8
Default
 62
255
 10
     1088.442258
 20
      992.053419
 30
       19.459637
  0
POINT
  8
Default
 62
255
 10
     1088.457525
 20
      992.082245
 30
       19.465432
  0
POINT
  8
Default
 62
255
 10
     1088.485851
 20
      992.155013
 30
       19.516641
  0
POINT
  8
Default
 62
255
 10
     1088.424659
 20
      992.119523
 30
       19.492284
  0
POINT
  8
Default
 62
255
 10
     1088.107264
 20
      991.978218
 30
       19.580171
  0
POINT
  8
Default
 62
255
 10
     1088.107152
 20
      992.005167
 30
       19.586170
  0
POINT
  8
Default
 62
255
 10
     1088.092907
 20
      992.025151
 30
       19.604419
  0
POINT
  8
Default
 62
255
 10
     1088.082571
 20
      991.987732
 30
       19.588152
  0
POINT
  8
Default
 62
255
 10
     1088.085926
 20
      991.929997
 30
       19.570323
  0
POINT
  8
Default
 62
255
 10
     1088.083959
 20
      992.076620
 30
       19.613290
  0
POINT
  8
Default
 62
255
 10
     1088.164171
 20
      992.126866
 30
       19.581146
  0
POINT
  8
Default
 62
255
 10
     1088.138270
 20
      992.138935
 30
       19.590127
  0
POINT
  8
Default
 62
255
 10
     1088.091550
 20
      992.139819
 30
       19.627056
  0
POINT
  8
Default
 62
255
 10
     1088.138795
 20
      992.047602
 30
       19.580448
  0
POINT
  8
Default
 62
255
 10
     1088.211843
 20
      992.067142
 30
       19.572599
  0
POINT
  8
Default
 62
255
 10
     1088.206788
 20
      992.031029
 30
       19.560431
  0
POINT
  8
Default
 62
255
 10
     1088.163447
 20
      991.999307
 30
       19.556881
  0
POINT
  8
Default
 62
255
 10
     1088.199149
 20
      992.124462
 30
       19.580274
  0
POINT
  8
Default
 62
255
 10
     1088.148840
 20
      992.093335
 30
       19.581283
  0
POINT
  8
Default
 62
255
 10
     1088.195380
 20
      992.165725
 30
       19.588068
  0
POINT
  8
Default
 62
255
 10
     1088.143942
 20
      992.200744
 30
       19.585234
  0
POINT
  8
Default
 62
255
 10
     1088.163147
 20
      992.224382
 30
       19.587990
  0
POINT
  8
Default
 62
255
 10
     1088.142647
 20
      992.275424
 30
       19.593645
  0
POINT
  8
Default
 62
255
 10
     1088.175832
 20
      992.257191
 30
       19.590341
  0
POINT
  8
Default
 62
255
 10
     1088.242278
 20
      992.244575
 30
       19.597908
  0
POINT
  8
Default
 62
255
 10
     1088.202348
 20
      992.236770
 30
       19.592768
  0
POINT
  8
Default
 62
255
 10
     1088.247828
 20
      992.221017
 30
       19.591742
  0
POINT
  8
Default
 62
255
 10
     1088.203843
 20
      992.206454
 30
       19.586289
  0
POINT
  8
Default
 62
255
 10
     1088.224675
 20
      992.173176
 30
       19.591082
  0
POINT
  8
Default
 62
255
 10
     1088.239655
 20
      992.078772
 30
       19.573459
  0
POINT
  8
Default
 62
255
 10
     1088.268565
 20
      992.102209
 30
       19.577117
  0
POINT
  8
Default
 62
255
 10
     1088.242442
 20
      992.144783
 30
       19.583658
  0
POINT
  8
Default
 62
255
 10
     1088.296041
 20
      992.225178
 30
       19.583463
  0
POINT
  8
Default
 62
255
 10
     1088.307139
 20
      992.199925
 30
       19.577550
  0
POINT
  8
Default
 62
255
 10
     1088.101489
 20
      992.247355
 30
       19.607760
  0
POINT
  8
Default
 62
255
 10
     1088.062915
 20
      992.190577
 30
       19.633931
  0
POINT
  8
Default
 62
255
 10
     1088.795025
 20
      991.725870
 30
       19.566753
  0
POINT
  8
Default
 62
255
 10
     1088.681161
 20
      991.834192
 30
       19.607198
  0
POINT
  8
Default
 62
255
 10
     1088.666582
 20
      991.852923
 30
       19.610369
  0
POINT
  8
Default
 62
255
 10
     1088.735703
 20
      991.788230
 30
       19.699543
  0
POINT
  8
Default
 62
255
 10
     1088.789379
 20
      991.755323
 30
       19.788109
  0
POINT
  8
Default
 62
255
 10
     1088.740615
 20
      991.769195
 30
       19.691625
  0
POINT
  8
Default
 62
255
 10
     1088.718348
 20
      991.780377
 30
       19.632260
  0
POINT
  8
Default
 62
255
 10
     1088.666292
 20
      991.826757
 30
       19.718690
  0
POINT
  8
Default
 62
255
 10
     1088.753460
 20
      991.728302
 30
       19.543812
  0
POINT
  8
Default
 62
255
 10
     1088.656362
 20
      991.773886
 30
       19.497466
  0
POINT
  8
Default
 62
255
 10
     1088.659947
 20
      991.730089
 30
       19.479234
  0
POINT
  8
Default
 62
255
 10
     1088.741929
 20
      991.748075
 30
       19.547849
  0
POINT
  8
Default
 62
255
 10
     1088.721412
 20
      991.764068
 30
       19.595415
  0
POINT
  8
Default
 62
255
 10
     1088.723179
 20
      991.735402
 30
       19.510223
  0
POINT
  8
Default
 62
255
 10
     1088.696729
 20
      991.721546
 30
       19.471564
  0
POINT
  8
Default
 62
255
 10
     1088.757863
 20
      991.710962
 30
       19.491026
  0
POINT
  8
Default
 62
255
 10
     1088.570126
 20
      991.964658
 30
       19.559070
  0
POINT
  8
Default
 62
255
 10
     1088.646758
 20
      991.890836
 30
       19.742124
  0
POINT
  8
Default
 62
255
 10
     1088.818031
 20
      991.748801
 30
       19.766517
  0
POINT
  8
Default
 62
255
 10
     1088.826540
 20
      991.744423
 30
       19.740357
  0
POINT
  8
Default
 62
255
 10
     1088.792863
 20
      991.768707
 30
       19.743016
  0
POINT
  8
Default
 62
255
 10
     1088.797878
 20
      991.760111
 30
       19.803369
  0
POINT
  8
Default
 62
255
 10
     1088.873323
 20
      991.752301
 30
       19.765626
  0
POINT
  8
Default
 62
255
 10
     1088.924171
 20
      991.765393
 30
       19.792563
  0
POINT
  8
Default
 62
255
 10
     1088.140812
 20
      991.070442
 30
       19.405308
  0
POINT
  8
Default
 62
255
 10
     1088.182270
 20
      991.056673
 30
       19.373209
  0
POINT
  8
Default
 62
255
 10
     1088.183996
 20
      991.023721
 30
       19.386558
  0
POINT
  8
Default
 62
255
 10
     1088.204706
 20
      991.025822
 30
       19.377639
  0
POINT
  8
Default
 62
255
 10
     1088.224535
 20
      990.978847
 30
       19.381060
  0
POINT
  8
Default
 62
255
 10
     1088.232872
 20
      991.017331
 30
       19.368708
  0
POINT
  8
Default
 62
255
 10
     1088.248586
 20
      990.997381
 30
       19.368078
  0
POINT
  8
Default
 62
255
 10
     1088.243891
 20
      991.036768
 30
       19.356212
  0
POINT
  8
Default
 62
255
 10
     1088.218735
 20
      991.051713
 30
       19.370901
  0
POINT
  8
Default
 62
255
 10
     1088.268396
 20
      991.046632
 30
       19.362625
  0
POINT
  8
Default
 62
255
 10
     1088.288480
 20
      991.028358
 30
       19.360940
  0
POINT
  8
Default
 62
255
 10
     1088.335240
 20
      990.976100
 30
       19.376589
  0
POINT
  8
Default
 62
255
 10
     1088.250527
 20
      990.969584
 30
       19.374137
  0
POINT
  8
Default
 62
255
 10
     1088.274292
 20
      990.985016
 30
       19.366465
  0
POINT
  8
Default
 62
255
 10
     1088.297998
 20
      990.950554
 30
       19.376697
  0
POINT
  8
Default
 62
255
 10
     1088.269820
 20
      990.952814
 30
       19.373111
  0
POINT
  8
Default
 62
255
 10
     1088.317188
 20
      991.020465
 30
       19.361198
  0
POINT
  8
Default
 62
255
 10
     1088.286116
 20
      991.107979
 30
       19.269999
  0
POINT
  8
Default
 62
255
 10
     1088.213190
 20
      991.089063
 30
       19.346985
  0
POINT
  8
Default
 62
255
 10
     1088.250330
 20
      991.126090
 30
       19.288020
  0
POINT
  8
Default
 62
255
 10
     1088.215198
 20
      991.136117
 30
       19.306341
  0
POINT
  8
Default
 62
255
 10
     1088.264272
 20
      991.078110
 30
       19.313913
  0
POINT
  8
Default
 62
255
 10
     1088.087114
 20
      991.116760
 30
       19.399071
  0
POINT
  8
Default
 62
255
 10
     1088.351996
 20
      991.056024
 30
       19.296921
  0
POINT
  8
Default
 62
255
 10
     1088.332268
 20
      991.040688
 30
       19.325816
  0
POINT
  8
Default
 62
255
 10
     1088.300011
 20
      991.078384
 30
       19.281941
  0
POINT
  8
Default
 62
255
 10
     1088.347578
 20
      991.111504
 30
       19.233872
  0
POINT
  8
Default
 62
255
 10
     1088.276783
 20
      991.129926
 30
       19.249645
  0
POINT
  8
Default
 62
255
 10
     1088.319850
 20
      991.070495
 30
       19.290441
  0
POINT
  8
Default
 62
255
 10
     1088.411451
 20
      991.125537
 30
       19.187614
  0
POINT
  8
Default
 62
255
 10
     1088.385892
 20
      991.105573
 30
       19.221676
  0
POINT
  8
Default
 62
255
 10
     1087.665622
 20
      991.428849
 30
       19.563940
  0
POINT
  8
Default
 62
255
 10
     1087.654453
 20
      991.378590
 30
       19.559234
  0
POINT
  8
Default
 62
255
 10
     1087.627513
 20
      991.303630
 30
       19.563668
  0
POINT
  8
Default
 62
255
 10
     1087.689511
 20
      991.423281
 30
       19.563837
  0
POINT
  8
Default
 62
255
 10
     1087.726444
 20
      991.407341
 30
       19.566162
  0
POINT
  8
Default
 62
255
 10
     1087.741284
 20
      991.368134
 30
       19.567623
  0
POINT
  8
Default
 62
255
 10
     1087.697174
 20
      991.397325
 30
       19.565485
  0
POINT
  8
Default
 62
255
 10
     1087.729192
 20
      991.432230
 30
       19.573394
  0
POINT
  8
Default
 62
255
 10
     1087.659130
 20
      991.328701
 30
       19.561905
  0
POINT
  8
Default
 62
255
 10
     1087.673190
 20
      991.308280
 30
       19.563671
  0
POINT
  8
Default
 62
255
 10
     1087.682154
 20
      991.353363
 30
       19.563698
  0
POINT
  8
Default
 62
255
 10
     1087.594849
 20
      991.413282
 30
       19.560028
  0
POINT
  8
Default
 62
255
 10
     1087.794743
 20
      991.369194
 30
       19.564539
  0
POINT
  8
Default
 62
255
 10
     1087.619234
 20
      991.259361
 30
       19.560027
  0
POINT
  8
Default
 62
255
 10
     1087.656065
 20
      991.270806
 30
       19.562080
  0
POINT
  8
Default
 62
255
 10
     1087.746217
 20
      991.310041
 30
       19.568363
  0
POINT
  8
Default
 62
255
 10
     1087.717688
 20
      991.304217
 30
       19.567907
  0
POINT
  8
Default
 62
255
 10
     1087.746255
 20
      991.348899
 30
       19.570851
  0
POINT
  8
Default
 62
255
 10
     1087.728634
 20
      991.329564
 30
       19.571229
  0
POINT
  8
Default
 62
255
 10
     1087.708300
 20
      991.262814
 30
       19.565411
  0
POINT
  8
Default
 62
255
 10
     1087.728987
 20
      991.223472
 30
       19.560560
  0
POINT
  8
Default
 62
255
 10
     1087.702514
 20
      991.206417
 30
       19.560854
  0
POINT
  8
Default
 62
255
 10
     1087.666797
 20
      991.241410
 30
       19.563737
  0
POINT
  8
Default
 62
255
 10
     1087.722415
 20
      991.191236
 30
       19.557761
  0
POINT
  8
Default
 62
255
 10
     1087.748466
 20
      991.177118
 30
       19.559474
  0
POINT
  8
Default
 62
255
 10
     1087.748472
 20
      991.241068
 30
       19.561130
  0
POINT
  8
Default
 62
255
 10
     1087.786068
 20
      991.182123
 30
       19.561700
  0
POINT
  8
Default
 62
255
 10
     1087.833900
 20
      991.171424
 30
       19.560914
  0
POINT
  8
Default
 62
255
 10
     1087.836179
 20
      991.209082
 30
       19.565167
  0
POINT
  8
Default
 62
255
 10
     1087.857417
 20
      991.248357
 30
       19.568849
  0
POINT
  8
Default
 62
255
 10
     1087.827049
 20
      991.254633
 30
       19.563669
  0
POINT
  8
Default
 62
255
 10
     1087.790850
 20
      991.254000
 30
       19.562955
  0
POINT
  8
Default
 62
255
 10
     1087.783874
 20
      991.213884
 30
       19.559960
  0
POINT
  8
Default
 62
255
 10
     1087.857541
 20
      991.271962
 30
       19.569338
  0
POINT
  8
Default
 62
255
 10
     1087.885652
 20
      991.286419
 30
       19.570514
  0
POINT
  8
Default
 62
255
 10
     1087.787632
 20
      991.314540
 30
       19.570678
  0
POINT
  8
Default
 62
255
 10
     1087.790477
 20
      991.288043
 30
       19.569015
  0
POINT
  8
Default
 62
255
 10
     1087.819109
 20
      991.290399
 30
       19.572365
  0
POINT
  8
Default
 62
255
 10
     1087.857240
 20
      991.322670
 30
       19.572498
  0
POINT
  8
Default
 62
255
 10
     1087.853906
 20
      991.296417
 30
       19.573398
  0
POINT
  8
Default
 62
255
 10
     1087.844550
 20
      991.357702
 30
       19.569503
  0
POINT
  8
Default
 62
255
 10
     1087.820131
 20
      991.330015
 30
       19.577202
  0
POINT
  8
Default
 62
255
 10
     1087.911484
 20
      991.246336
 30
       19.565622
  0
POINT
  8
Default
 62
255
 10
     1087.924988
 20
      991.293586
 30
       19.574293
  0
POINT
  8
Default
 62
255
 10
     1087.888293
 20
      991.211483
 30
       19.561907
  0
POINT
  8
Default
 62
255
 10
     1087.851477
 20
      991.141660
 30
       19.565073
  0
POINT
  8
Default
 62
255
 10
     1087.891233
 20
      991.177783
 30
       19.568179
  0
POINT
  8
Default
 62
255
 10
     1087.942961
 20
      991.201405
 30
       19.567803
  0
POINT
  8
Default
 62
255
 10
     1087.954158
 20
      991.242246
 30
       19.571615
  0
POINT
  8
Default
 62
255
 10
     1087.859609
 20
      991.103676
 30
       19.573768
  0
POINT
  8
Default
 62
255
 10
     1087.825538
 20
      991.852986
 30
       19.607256
  0
POINT
  8
Default
 62
255
 10
     1087.824313
 20
      991.817969
 30
       19.592594
  0
POINT
  8
Default
 62
255
 10
     1087.873404
 20
      991.841101
 30
       19.593319
  0
POINT
  8
Default
 62
255
 10
     1087.879218
 20
      991.880857
 30
       19.600397
  0
POINT
  8
Default
 62
255
 10
     1087.902814
 20
      991.833396
 30
       19.593667
  0
POINT
  8
Default
 62
255
 10
     1087.881953
 20
      991.815835
 30
       19.586815
  0
POINT
  8
Default
 62
255
 10
     1087.789577
 20
      991.822014
 30
       19.601458
  0
POINT
  8
Default
 62
255
 10
     1087.734967
 20
      991.800452
 30
       19.589109
  0
POINT
  8
Default
 62
255
 10
     1087.789524
 20
      991.787769
 30
       19.599807
  0
POINT
  8
Default
 62
255
 10
     1087.777410
 20
      991.769076
 30
       19.587929
  0
POINT
  8
Default
 62
255
 10
     1087.835816
 20
      991.791084
 30
       19.592834
  0
POINT
  8
Default
 62
255
 10
     1087.806174
 20
      991.736554
 30
       19.582112
  0
POINT
  8
Default
 62
255
 10
     1087.863436
 20
      991.785294
 30
       19.592251
  0
POINT
  8
Default
 62
255
 10
     1087.837738
 20
      991.758183
 30
       19.588921
  0
POINT
  8
Default
 62
255
 10
     1087.715027
 20
      991.803863
 30
       19.594138
  0
POINT
  8
Default
 62
255
 10
     1087.723439
 20
      991.758319
 30
       19.578487
  0
POINT
  8
Default
 62
255
 10
     1087.770739
 20
      991.888202
 30
       19.621371
  0
POINT
  8
Default
 62
255
 10
     1087.759540
 20
      991.859188
 30
       19.615919
  0
POINT
  8
Default
 62
255
 10
     1087.700446
 20
      991.825244
 30
       19.602522
  0
POINT
  8
Default
 62
255
 10
     1087.728611
 20
      991.841868
 30
       19.604146
  0
POINT
  8
Default
 62
255
 10
     1087.793159
 20
      991.874887
 30
       19.613779
  0
POINT
  8
Default
 62
255
 10
     1087.823215
 20
      991.896701
 30
       19.619087
  0
POINT
  8
Default
 62
255
 10
     1087.850179
 20
      991.904510
 30
       19.614164
  0
POINT
  8
Default
 62
255
 10
     1087.901844
 20
      991.798587
 30
       19.584013
  0
POINT
  8
Default
 62
255
 10
     1087.878434
 20
      991.753770
 30
       19.585813
  0
POINT
  8
Default
 62
255
 10
     1087.856154
 20
      991.721476
 30
       19.579590
  0
POINT
  8
Default
 62
255
 10
     1087.931203
 20
      991.759151
 30
       19.574957
  0
POINT
  8
Default
 62
255
 10
     1087.938066
 20
      991.814554
 30
       19.599045
  0
POINT
  8
Default
 62
255
 10
     1087.925762
 20
      991.837452
 30
       19.600694
  0
POINT
  8
Default
 62
255
 10
     1087.949102
 20
      991.841342
 30
       19.596415
  0
POINT
  8
Default
 62
255
 10
     1087.899822
 20
      991.726995
 30
       19.579330
  0
POINT
  8
Default
 62
255
 10
     1087.826673
 20
      991.706900
 30
       19.578125
  0
POINT
  8
Default
 62
255
 10
     1087.844405
 20
      991.674360
 30
       19.579153
  0
POINT
  8
Default
 62
255
 10
     1087.877337
 20
      991.682887
 30
       19.580085
  0
POINT
  8
Default
 62
255
 10
     1087.897263
 20
      991.655531
 30
       19.573583
  0
POINT
  8
Default
 62
255
 10
     1087.936314
 20
      991.687685
 30
       19.564943
  0
POINT
  8
Default
 62
255
 10
     1087.936263
 20
      991.726049
 30
       19.563557
  0
POINT
  8
Default
 62
255
 10
     1087.965411
 20
      991.776946
 30
       19.573424
  0
POINT
  8
Default
 62
255
 10
     1087.920836
 20
      991.637341
 30
       19.575624
  0
POINT
  8
Default
 62
255
 10
     1087.958530
 20
      991.669518
 30
       19.549648
  0
POINT
  8
Default
 62
255
 10
     1087.978328
 20
      991.710210
 30
       19.549764
  0
POINT
  8
Default
 62
255
 10
     1088.002080
 20
      991.742743
 30
       19.544537
  0
POINT
  8
Default
 62
255
 10
     1087.964695
 20
      991.741434
 30
       19.559649
  0
POINT
  8
Default
 62
255
 10
     1088.004778
 20
      991.783917
 30
       19.547261
  0
POINT
  8
Default
 62
255
 10
     1088.005478
 20
      991.693243
 30
       19.518243
  0
POINT
  8
Default
 62
255
 10
     1087.983242
 20
      991.649929
 30
       19.535064
  0
POINT
  8
Default
 62
255
 10
     1087.980447
 20
      991.606456
 30
       19.524533
  0
POINT
  8
Default
 62
255
 10
     1087.956726
 20
      991.617005
 30
       19.549476
  0
POINT
  8
Default
 62
255
 10
     1088.043757
 20
      991.676695
 30
       19.479352
  0
POINT
  8
Default
 62
255
 10
     1088.032793
 20
      991.637461
 30
       19.480764
  0
POINT
  8
Default
 62
255
 10
     1088.077749
 20
      991.677287
 30
       19.459781
  0
POINT
  8
Default
 62
255
 10
     1088.067025
 20
      991.732637
 30
       19.465688
  0
POINT
  8
Default
 62
255
 10
     1088.034445
 20
      991.765379
 30
       19.518429
  0
POINT
  8
Default
 62
255
 10
     1087.915801
 20
      991.582586
 30
       19.566811
  0
POINT
  8
Default
 62
255
 10
     1087.871972
 20
      991.643963
 30
       19.575083
  0
POINT
  8
Default
 62
255
 10
     1087.909417
 20
      991.903739
 30
       19.601643
  0
POINT
  8
Default
 62
255
 10
     1087.872582
 20
      991.900164
 30
       19.601033
  0
POINT
  8
Default
 62
255
 10
     1087.882341
 20
      991.916760
 30
       19.605611
  0
POINT
  8
Default
 62
255
 10
     1087.820071
 20
      991.911796
 30
       19.620968
  0
POINT
  8
Default
 62
255
 10
     1087.840061
 20
      991.955895
 30
       19.605199
  0
POINT
  8
Default
 62
255
 10
     1087.926219
 20
      991.931781
 30
       19.603399
  0
POINT
  8
Default
 62
255
 10
     1087.924488
 20
      991.967223
 30
       19.593800
  0
POINT
  8
Default
 62
255
 10
     1087.956379
 20
      991.920486
 30
       19.594486
  0
POINT
  8
Default
 62
255
 10
     1087.897470
 20
      991.967519
 30
       19.589545
  0
POINT
  8
Default
 62
255
 10
     1087.960498
 20
      991.945123
 30
       19.600405
  0
POINT
  8
Default
 62
255
 10
     1087.965985
 20
      991.979616
 30
       19.599743
  0
POINT
  8
Default
 62
255
 10
     1087.953412
 20
      992.011992
 30
       19.584368
  0
POINT
  8
Default
 62
255
 10
     1087.954972
 20
      991.859917
 30
       19.591754
  0
POINT
  8
Default
 62
255
 10
     1087.920807
 20
      991.889992
 30
       19.606094
  0
POINT
  8
Default
 62
255
 10
     1087.946700
 20
      991.890667
 30
       19.606987
  0
POINT
  8
Default
 62
255
 10
     1087.918885
 20
      991.872250
 30
       19.610701
  0
POINT
  8
Default
 62
255
 10
     1087.987928
 20
      991.883914
 30
       19.573303
  0
POINT
  8
Default
 62
255
 10
     1087.984365
 20
      991.851703
 30
       19.571504
  0
POINT
  8
Default
 62
255
 10
     1088.048832
 20
      991.905906
 30
       19.580895
  0
POINT
  8
Default
 62
255
 10
     1088.024485
 20
      991.878982
 30
       19.575848
  0
POINT
  8
Default
 62
255
 10
     1088.002419
 20
      991.840287
 30
       19.565226
  0
POINT
  8
Default
 62
255
 10
     1088.041994
 20
      991.931501
 30
       19.591364
  0
POINT
  8
Default
 62
255
 10
     1087.954406
 20
      992.055129
 30
       19.577930
  0
POINT
  8
Default
 62
255
 10
     1087.922103
 20
      992.068762
 30
       19.587555
  0
POINT
  8
Default
 62
255
 10
     1087.992939
 20
      992.138919
 30
       19.604639
  0
POINT
  8
Default
 62
255
 10
     1087.957505
 20
      992.154702
 30
       19.631462
  0
POINT
  8
Default
 62
255
 10
     1088.004551
 20
      992.191287
 30
       19.633557
  0
POINT
  8
Default
 62
255
 10
     1087.969978
 20
      992.132743
 30
       19.604975
  0
POINT
  8
Default
 62
255
 10
     1087.970251
 20
      992.107437
 30
       19.582818
  0
POINT
  8
Default
 62
255
 10
     1087.978177
 20
      992.060353
 30
       19.578755
  0
POINT
  8
Default
 62
255
 10
     1088.066506
 20
      992.113089
 30
       19.633482
  0
POINT
  8
Default
 62
255
 10
     1088.064222
 20
      992.139622
 30
       19.636312
  0
POINT
  8
Default
 62
255
 10
     1088.087644
 20
      992.151201
 30
       19.631107
  0
POINT
  8
Default
 62
255
 10
     1088.054716
 20
      992.088733
 30
       19.628512
  0
POINT
  8
Default
 62
255
 10
     1088.050985
 20
      991.968446
 30
       19.592629
  0
POINT
  8
Default
 62
255
 10
     1088.028244
 20
      991.787897
 30
       19.524732
  0
POINT
  8
Default
 62
255
 10
     1088.020317
 20
      991.820882
 30
       19.550226
  0
POINT
  8
Default
 62
255
 10
     1088.167861
 20
      991.736902
 30
       19.450548
  0
POINT
  8
Default
 62
255
 10
     1088.135587
 20
      991.743493
 30
       19.451143
  0
POINT
  8
Default
 62
255
 10
     1088.142954
 20
      991.708973
 30
       19.438266
  0
POINT
  8
Default
 62
255
 10
     1088.185962
 20
      991.816261
 30
       19.462016
  0
POINT
  8
Default
 62
255
 10
     1088.151908
 20
      991.844253
 30
       19.460129
  0
POINT
  8
Default
 62
255
 10
     1088.124472
 20
      991.810518
 30
       19.448047
  0
POINT
  8
Default
 62
255
 10
     1088.148031
 20
      991.812582
 30
       19.446960
  0
POINT
  8
Default
 62
255
 10
     1088.166570
 20
      991.789286
 30
       19.454102
  0
POINT
  8
Default
 62
255
 10
     1088.213226
 20
      991.778334
 30
       19.471887
  0
POINT
  8
Default
 62
255
 10
     1088.125814
 20
      991.789244
 30
       19.447483
  0
POINT
  8
Default
 62
255
 10
     1088.103594
 20
      991.768108
 30
       19.456337
  0
POINT
  8
Default
 62
255
 10
     1088.102157
 20
      991.736666
 30
       19.450197
  0
POINT
  8
Default
 62
255
 10
     1088.094355
 20
      991.787298
 30
       19.456953
  0
POINT
  8
Default
 62
255
 10
     1088.209932
 20
      991.746898
 30
       19.461417
  0
POINT
  8
Default
 62
255
 10
     1088.193741
 20
      991.769240
 30
       19.468731
  0
POINT
  8
Default
 62
255
 10
     1088.104547
 20
      991.897691
 30
       19.521787
  0
POINT
  8
Default
 62
255
 10
     1088.107793
 20
      991.871197
 30
       19.502290
  0
POINT
  8
Default
 62
255
 10
     1088.062489
 20
      991.844983
 30
       19.504369
  0
POINT
  8
Default
 62
255
 10
     1088.043170
 20
      991.838537
 30
       19.521755
  0
POINT
  8
Default
 62
255
 10
     1088.048831
 20
      991.885802
 30
       19.574575
  0
POINT
  8
Default
 62
255
 10
     1088.106160
 20
      991.932922
 30
       19.549528
  0
POINT
  8
Default
 62
255
 10
     1088.077651
 20
      991.815432
 30
       19.483388
  0
POINT
  8
Default
 62
255
 10
     1088.044657
 20
      991.782269
 30
       19.510929
  0
POINT
  8
Default
 62
255
 10
     1088.056344
 20
      991.811066
 30
       19.501801
  0
POINT
  8
Default
 62
255
 10
     1088.026195
 20
      991.810595
 30
       19.528785
  0
POINT
  8
Default
 62
255
 10
     1088.081514
 20
      991.760196
 30
       19.463981
  0
POINT
  8
Default
 62
255
 10
     1088.055108
 20
      991.743369
 30
       19.495200
  0
POINT
  8
Default
 62
255
 10
     1088.064197
 20
      991.781508
 30
       19.479532
  0
POINT
  8
Default
 62
255
 10
     1088.093117
 20
      991.847598
 30
       19.488758
  0
POINT
  8
Default
 62
255
 10
     1088.046995
 20
      991.859532
 30
       19.525127
  0
POINT
  8
Default
 62
255
 10
     1088.072534
 20
      991.885673
 30
       19.537758
  0
POINT
  8
Default
 62
255
 10
     1088.207807
 20
      991.850244
 30
       19.467821
  0
POINT
  8
Default
 62
255
 10
     1088.167133
 20
      991.885541
 30
       19.487228
  0
POINT
  8
Default
 62
255
 10
     1088.145115
 20
      991.897226
 30
       19.497649
  0
POINT
  8
Default
 62
255
 10
     1088.169116
 20
      991.929031
 30
       19.520096
  0
POINT
  8
Default
 62
255
 10
     1088.121819
 20
      991.858382
 30
       19.481595
  0
POINT
  8
Default
 62
255
 10
     1088.209364
 20
      991.883032
 30
       19.478525
  0
POINT
  8
Default
 62
255
 10
     1088.205944
 20
      991.907001
 30
       19.495025
  0
POINT
  8
Default
 62
255
 10
     1088.181107
 20
      991.912670
 30
       19.509925
  0
POINT
  8
Default
 62
255
 10
     1088.236329
 20
      991.796863
 30
       19.489142
  0
POINT
  8
Default
 62
255
 10
     1088.233314
 20
      991.824038
 30
       19.479395
  0
POINT
  8
Default
 62
255
 10
     1088.275089
 20
      991.800175
 30
       19.492831
  0
POINT
  8
Default
 62
255
 10
     1088.258705
 20
      991.760170
 30
       19.480803
  0
POINT
  8
Default
 62
255
 10
     1088.304669
 20
      991.793908
 30
       19.489486
  0
POINT
  8
Default
 62
255
 10
     1088.292336
 20
      991.759111
 30
       19.482114
  0
POINT
  8
Default
 62
255
 10
     1088.323840
 20
      991.822181
 30
       19.495638
  0
POINT
  8
Default
 62
255
 10
     1088.332566
 20
      991.803112
 30
       19.501059
  0
POINT
  8
Default
 62
255
 10
     1088.294031
 20
      991.849711
 30
       19.483117
  0
POINT
  8
Default
 62
255
 10
     1088.264047
 20
      991.848123
 30
       19.479061
  0
POINT
  8
Default
 62
255
 10
     1088.279467
 20
      991.888044
 30
       19.473148
  0
POINT
  8
Default
 62
255
 10
     1088.250080
 20
      991.889677
 30
       19.473950
  0
POINT
  8
Default
 62
255
 10
     1088.199658
 20
      991.944271
 30
       19.507705
  0
POINT
  8
Default
 62
255
 10
     1088.180298
 20
      991.965491
 30
       19.520177
  0
POINT
  8
Default
 62
255
 10
     1088.225589
 20
      991.977559
 30
       19.507859
  0
POINT
  8
Default
 62
255
 10
     1088.147738
 20
      991.945762
 30
       19.532880
  0
POINT
  8
Default
 62
255
 10
     1088.149054
 20
      991.982322
 30
       19.553111
  0
POINT
  8
Default
 62
255
 10
     1088.213096
 20
      991.999690
 30
       19.525703
  0
POINT
  8
Default
 62
255
 10
     1087.883684
 20
      991.508477
 30
       19.553624
  0
POINT
  8
Default
 62
255
 10
     1087.918666
 20
      991.494759
 30
       19.552828
  0
POINT
  8
Default
 62
255
 10
     1087.946868
 20
      991.501961
 30
       19.558521
  0
POINT
  8
Default
 62
255
 10
     1087.903908
 20
      991.463781
 30
       19.551041
  0
POINT
  8
Default
 62
255
 10
     1087.867861
 20
      991.548884
 30
       19.563669
  0
POINT
  8
Default
 62
255
 10
     1087.899894
 20
      991.540177
 30
       19.556878
  0
POINT
  8
Default
 62
255
 10
     1087.939910
 20
      991.528157
 30
       19.566583
  0
POINT
  8
Default
 62
255
 10
     1087.924474
 20
      991.548283
 30
       19.563888
  0
POINT
  8
Default
 62
255
 10
     1087.826376
 20
      991.510231
 30
       19.555862
  0
POINT
  8
Default
 62
255
 10
     1087.758734
 20
      991.492593
 30
       19.568047
  0
POINT
  8
Default
 62
255
 10
     1087.765677
 20
      991.463565
 30
       19.564671
  0
POINT
  8
Default
 62
255
 10
     1087.827455
 20
      991.461781
 30
       19.556891
  0
POINT
  8
Default
 62
255
 10
     1087.859425
 20
      991.482110
 30
       19.556563
  0
POINT
  8
Default
 62
255
 10
     1087.850412
 20
      991.421184
 30
       19.555277
  0
POINT
  8
Default
 62
255
 10
     1087.811169
 20
      991.428138
 30
       19.555664
  0
POINT
  8
Default
 62
255
 10
     1087.741685
 20
      991.531353
 30
       19.557964
  0
POINT
  8
Default
 62
255
 10
     1087.756821
 20
      991.569434
 30
       19.562938
  0
POINT
  8
Default
 62
255
 10
     1087.771618
 20
      991.549762
 30
       19.557797
  0
POINT
  8
Default
 62
255
 10
     1087.766873
 20
      991.521504
 30
       19.561741
  0
POINT
  8
Default
 62
255
 10
     1087.803993
 20
      991.585946
 30
       19.567029
  0
POINT
  8
Default
 62
255
 10
     1087.747197
 20
      991.589717
 30
       19.562516
  0
POINT
  8
Default
 62
255
 10
     1087.844328
 20
      991.645350
 30
       19.579755
  0
POINT
  8
Default
 62
255
 10
     1087.815967
 20
      991.630092
 30
       19.573503
  0
POINT
  8
Default
 62
255
 10
     1087.847495
 20
      991.612581
 30
       19.580961
  0
POINT
  8
Default
 62
255
 10
     1087.857487
 20
      991.591978
 30
       19.576826
  0
POINT
  8
Default
 62
255
 10
     1087.887680
 20
      991.621124
 30
       19.572865
  0
POINT
  8
Default
 62
255
 10
     1087.920733
 20
      991.428544
 30
       19.554352
  0
POINT
  8
Default
 62
255
 10
     1087.905744
 20
      991.394414
 30
       19.562239
  0
POINT
  8
Default
 62
255
 10
     1087.908076
 20
      991.343508
 30
       19.573268
  0
POINT
  8
Default
 62
255
 10
     1087.945289
 20
      991.349396
 30
       19.577503
  0
POINT
  8
Default
 62
255
 10
     1087.972955
 20
      991.324857
 30
       19.571242
  0
POINT
  8
Default
 62
255
 10
     1087.961694
 20
      991.292548
 30
       19.574180
  0
POINT
  8
Default
 62
255
 10
     1087.745974
 20
      991.680384
 30
       19.578915
  0
POINT
  8
Default
 62
255
 10
     1087.751415
 20
      991.616510
 30
       19.566520
  0
POINT
  8
Default
 62
255
 10
     1087.781294
 20
      991.645266
 30
       19.577164
  0
POINT
  8
Default
 62
255
 10
     1087.727390
 20
      991.649848
 30
       19.573006
  0
POINT
  8
Default
 62
255
 10
     1087.729021
 20
      991.739368
 30
       19.575825
  0
POINT
  8
Default
 62
255
 10
     1087.714571
 20
      991.731128
 30
       19.573567
  0
POINT
  8
Default
 62
255
 10
     1087.658370
 20
      991.754600
 30
       19.583070
  0
POINT
  8
Default
 62
255
 10
     1087.678764
 20
      991.747252
 30
       19.583590
  0
POINT
  8
Default
 62
255
 10
     1087.692098
 20
      991.644879
 30
       19.574541
  0
POINT
  8
Default
 62
255
 10
     1087.695503
 20
      991.674681
 30
       19.567699
  0
POINT
  8
Default
 62
255
 10
     1087.664632
 20
      991.659458
 30
       19.566742
  0
POINT
  8
Default
 62
255
 10
     1087.609697
 20
      991.747279
 30
       19.576138
  0
POINT
  8
Default
 62
255
 10
     1087.637320
 20
      991.733543
 30
       19.572039
  0
POINT
  8
Default
 62
255
 10
     1087.639294
 20
      991.660049
 30
       19.565154
  0
POINT
  8
Default
 62
255
 10
     1087.588023
 20
      991.680159
 30
       19.561350
  0
POINT
  8
Default
 62
255
 10
     1087.590994
 20
      991.710983
 30
       19.566496
  0
POINT
  8
Default
 62
255
 10
     1087.575441
 20
      991.726184
 30
       19.568159
  0
POINT
  8
Default
 62
255
 10
     1087.665277
 20
      991.689089
 30
       19.572155
  0
POINT
  8
Default
 62
255
 10
     1087.636013
 20
      991.701746
 30
       19.567909
  0
POINT
  8
Default
 62
255
 10
     1087.687804
 20
      991.715979
 30
       19.571998
  0
POINT
  8
Default
 62
255
 10
     1087.713774
 20
      991.704384
 30
       19.567596
  0
POINT
  8
Default
 62
255
 10
     1087.716421
 20
      991.627969
 30
       19.573788
  0
POINT
  8
Default
 62
255
 10
     1087.609659
 20
      991.636964
 30
       19.564008
  0
POINT
  8
Default
 62
255
 10
     1087.720280
 20
      991.576752
 30
       19.566441
  0
POINT
  8
Default
 62
255
 10
     1087.691739
 20
      991.601694
 30
       19.573079
  0
POINT
  8
Default
 62
255
 10
     1087.666673
 20
      991.581187
 30
       19.576209
  0
POINT
  8
Default
 62
255
 10
     1087.645797
 20
      991.584090
 30
       19.577455
  0
POINT
  8
Default
 62
255
 10
     1087.589026
 20
      991.598795
 30
       19.560762
  0
POINT
  8
Default
 62
255
 10
     1087.564930
 20
      991.603930
 30
       19.564919
  0
POINT
  8
Default
 62
255
 10
     1087.552061
 20
      991.623746
 30
       19.562310
  0
POINT
  8
Default
 62
255
 10
     1087.587768
 20
      991.632152
 30
       19.572134
  0
POINT
  8
Default
 62
255
 10
     1087.572917
 20
      991.577268
 30
       19.564159
  0
POINT
  8
Default
 62
255
 10
     1087.715542
 20
      991.541208
 30
       19.568315
  0
POINT
  8
Default
 62
255
 10
     1087.688559
 20
      991.558560
 30
       19.575628
  0
POINT
  8
Default
 62
255
 10
     1087.618167
 20
      991.530615
 30
       19.562665
  0
POINT
  8
Default
 62
255
 10
     1087.636330
 20
      991.491144
 30
       19.568997
  0
POINT
  8
Default
 62
255
 10
     1087.654866
 20
      991.548267
 30
       19.574594
  0
POINT
  8
Default
 62
255
 10
     1087.568818
 20
      991.530835
 30
       19.573308
  0
POINT
  8
Default
 62
255
 10
     1087.531218
 20
      991.602395
 30
       19.572790
  0
POINT
  8
Default
 62
255
 10
     1087.550392
 20
      991.576559
 30
       19.576930
  0
POINT
  8
Default
 62
255
 10
     1087.724938
 20
      991.483346
 30
       19.574006
  0
POINT
  8
Default
 62
255
 10
     1087.706568
 20
      991.453925
 30
       19.574519
  0
POINT
  8
Default
 62
255
 10
     1087.665682
 20
      991.485473
 30
       19.568604
  0
POINT
  8
Default
 62
255
 10
     1087.626137
 20
      991.416641
 30
       19.559847
  0
POINT
  8
Default
 62
255
 10
     1087.520577
 20
      991.477239
 30
       19.577032
  0
POINT
  8
Default
 62
255
 10
     1087.617919
 20
      991.373410
 30
       19.558301
  0
POINT
  8
Default
 62
255
 10
     1087.573002
 20
      991.414673
 30
       19.563387
  0
POINT
  8
Default
 62
255
 10
     1087.560081
 20
      991.509453
 30
       19.574269
  0
POINT
  8
Default
 62
255
 10
     1087.567296
 20
      991.477309
 30
       19.563942
  0
POINT
  8
Default
 62
255
 10
     1087.548117
 20
      991.478860
 30
       19.570177
  0
POINT
  8
Default
 62
255
 10
     1087.527196
 20
      991.448363
 30
       19.573818
  0
POINT
  8
Default
 62
255
 10
     1087.591947
 20
      991.460218
 30
       19.563768
  0
POINT
  8
Default
 62
255
 10
     1087.603202
 20
      991.502010
 30
       19.563704
  0
POINT
  8
Default
 62
255
 10
     1087.547854
 20
      991.428164
 30
       19.567020
  0
POINT
  8
Default
 62
255
 10
     1087.525980
 20
      991.417162
 30
       19.571931
  0
POINT
  8
Default
 62
255
 10
     1087.512765
 20
      991.433296
 30
       19.585164
  0
POINT
  8
Default
 62
255
 10
     1087.489019
 20
      991.466303
 30
       19.592478
  0
POINT
  8
Default
 62
255
 10
     1087.476829
 20
      991.436737
 30
       19.594838
  0
POINT
  8
Default
 62
255
 10
     1087.477958
 20
      991.393689
 30
       19.579517
  0
POINT
  8
Default
 62
255
 10
     1087.498729
 20
      991.380964
 30
       19.570495
  0
POINT
  8
Default
 62
255
 10
     1087.514657
 20
      991.355716
 30
       19.567745
  0
POINT
  8
Default
 62
255
 10
     1087.553434
 20
      991.376030
 30
       19.563022
  0
POINT
  8
Default
 62
255
 10
     1087.451784
 20
      991.361846
 30
       19.569381
  0
POINT
  8
Default
 62
255
 10
     1087.438975
 20
      991.382982
 30
       19.585217
  0
POINT
  8
Default
 62
255
 10
     1087.398748
 20
      991.375783
 30
       19.576886
  0
POINT
  8
Default
 62
255
 10
     1087.443310
 20
      991.413374
 30
       19.590079
  0
POINT
  8
Default
 62
255
 10
     1087.447930
 20
      991.328060
 30
       19.569066
  0
POINT
  8
Default
 62
255
 10
     1087.552091
 20
      991.324226
 30
       19.556801
  0
POINT
  8
Default
 62
255
 10
     1087.502646
 20
      991.250762
 30
       19.558903
  0
POINT
  8
Default
 62
255
 10
     1087.527064
 20
      991.301140
 30
       19.563711
  0
POINT
  8
Default
 62
255
 10
     1087.470958
 20
      991.250895
 30
       19.564477
  0
POINT
  8
Default
 62
255
 10
     1087.444839
 20
      991.273454
 30
       19.568122
  0
POINT
  8
Default
 62
255
 10
     1087.492822
 20
      991.317743
 30
       19.567989
  0
POINT
  8
Default
 62
255
 10
     1087.553668
 20
      991.270196
 30
       19.559868
  0
POINT
  8
Default
 62
255
 10
     1087.496236
 20
      991.204414
 30
       19.567784
  0
POINT
  8
Default
 62
255
 10
     1087.579172
 20
      991.250302
 30
       19.555810
  0
POINT
  8
Default
 62
255
 10
     1087.532867
 20
      991.161878
 30
       19.554333
  0
POINT
  8
Default
 62
255
 10
     1087.566766
 20
      991.211745
 30
       19.557532
  0
POINT
  8
Default
 62
255
 10
     1087.683450
 20
      991.165686
 30
       19.558873
  0
POINT
  8
Default
 62
255
 10
     1087.641662
 20
      991.194217
 30
       19.555885
  0
POINT
  8
Default
 62
255
 10
     1087.618693
 20
      991.228886
 30
       19.560206
  0
POINT
  8
Default
 62
255
 10
     1087.600247
 20
      991.175225
 30
       19.555123
  0
POINT
  8
Default
 62
255
 10
     1087.693859
 20
      991.129688
 30
       19.555863
  0
POINT
  8
Default
 62
255
 10
     1087.661527
 20
      991.097856
 30
       19.557460
  0
POINT
  8
Default
 62
255
 10
     1087.705077
 20
      991.105035
 30
       19.555719
  0
POINT
  8
Default
 62
255
 10
     1087.717046
 20
      991.163411
 30
       19.561610
  0
POINT
  8
Default
 62
255
 10
     1087.753516
 20
      991.106286
 30
       19.560951
  0
POINT
  8
Default
 62
255
 10
     1087.766421
 20
      991.144924
 30
       19.563692
  0
POINT
  8
Default
 62
255
 10
     1087.612535
 20
      991.104686
 30
       19.558638
  0
POINT
  8
Default
 62
255
 10
     1087.642871
 20
      991.149216
 30
       19.556737
  0
POINT
  8
Default
 62
255
 10
     1087.885661
 20
      991.077579
 30
       19.572787
  0
POINT
  8
Default
 62
255
 10
     1087.933214
 20
      991.172044
 30
       19.569305
  0
POINT
  8
Default
 62
255
 10
     1087.905165
 20
      991.133342
 30
       19.574420
  0
POINT
  8
Default
 62
255
 10
     1087.950329
 20
      991.126169
 30
       19.569483
  0
POINT
  8
Default
 62
255
 10
     1087.932936
 20
      991.078659
 30
       19.573088
  0
POINT
  8
Default
 62
255
 10
     1087.933485
 20
      991.041524
 30
       19.569090
  0
POINT
  8
Default
 62
255
 10
     1087.987437
 20
      991.143933
 30
       19.573520
  0
POINT
  8
Default
 62
255
 10
     1087.984747
 20
      991.085724
 30
       19.581058
  0
POINT
  8
Default
 62
255
 10
     1088.013355
 20
      991.033817
 30
       19.581333
  0
POINT
  8
Default
 62
255
 10
     1088.004869
 20
      991.063822
 30
       19.585271
  0
POINT
  8
Default
 62
255
 10
     1087.964178
 20
      991.032505
 30
       19.572355
  0
POINT
  8
Default
 62
255
 10
     1088.048451
 20
      991.078091
 30
       19.588719
  0
POINT
  8
Default
 62
255
 10
     1088.035475
 20
      991.105554
 30
       19.584912
  0
POINT
  8
Default
 62
255
 10
     1088.065100
 20
      991.072122
 30
       19.582951
  0
POINT
  8
Default
 62
255
 10
     1088.032805
 20
      991.017432
 30
       19.581074
  0
POINT
  8
Default
 62
255
 10
     1087.989013
 20
      991.008770
 30
       19.580273
  0
POINT
  8
Default
 62
255
 10
     1088.011514
 20
      990.978702
 30
       19.589282
  0
POINT
  8
Default
 62
255
 10
     1088.023765
 20
      990.957929
 30
       19.594620
  0
POINT
  8
Default
 62
255
 10
     1087.970643
 20
      990.991077
 30
       19.580998
  0
POINT
  8
Default
 62
255
 10
     1087.773448
 20
      991.073748
 30
       19.567251
  0
POINT
  8
Default
 62
255
 10
     1087.730367
 20
      991.070220
 30
       19.563764
  0
POINT
  8
Default
 62
255
 10
     1087.740046
 20
      991.021301
 30
       19.572317
  0
POINT
  8
Default
 62
255
 10
     1087.708197
 20
      991.038175
 30
       19.566850
  0
POINT
  8
Default
 62
255
 10
     1087.751473
 20
      990.990120
 30
       19.580422
  0
POINT
  8
Default
 62
255
 10
     1087.741855
 20
      990.965887
 30
       19.577597
  0
POINT
  8
Default
 62
255
 10
     1087.847694
 20
      991.026255
 30
       19.578383
  0
POINT
  8
Default
 62
255
 10
     1087.808095
 20
      991.065384
 30
       19.572082
  0
POINT
  8
Default
 62
255
 10
     1087.803644
 20
      991.026726
 30
       19.576664
  0
POINT
  8
Default
 62
255
 10
     1087.768813
 20
      991.028498
 30
       19.571286
  0
POINT
  8
Default
 62
255
 10
     1087.907499
 20
      991.000713
 30
       19.580393
  0
POINT
  8
Default
 62
255
 10
     1087.861181
 20
      991.005559
 30
       19.580945
  0
POINT
  8
Default
 62
255
 10
     1087.807032
 20
      990.999246
 30
       19.577912
  0
POINT
  8
Default
 62
255
 10
     1087.889922
 20
      990.977322
 30
       19.575557
  0
POINT
  8
Default
 62
255
 10
     1087.826449
 20
      990.936632
 30
       19.580114
  0
POINT
  8
Default
 62
255
 10
     1087.799325
 20
      990.953578
 30
       19.581355
  0
POINT
  8
Default
 62
255
 10
     1087.796441
 20
      990.908751
 30
       19.580919
  0
POINT
  8
Default
 62
255
 10
     1087.876567
 20
      990.924649
 30
       19.577925
  0
POINT
  8
Default
 62
255
 10
     1087.849044
 20
      990.970377
 30
       19.582173
  0
POINT
  8
Default
 62
255
 10
     1087.934028
 20
      990.976197
 30
       19.575470
  0
POINT
  8
Default
 62
255
 10
     1087.909171
 20
      990.954469
 30
       19.577809
  0
POINT
  8
Default
 62
255
 10
     1087.975345
 20
      990.935193
 30
       19.585634
  0
POINT
  8
Default
 62
255
 10
     1087.953967
 20
      990.912371
 30
       19.584169
  0
POINT
  8
Default
 62
255
 10
     1087.931088
 20
      990.929605
 30
       19.580993
  0
POINT
  8
Default
 62
255
 10
     1087.906540
 20
      990.921375
 30
       19.579254
  0
POINT
  8
Default
 62
255
 10
     1087.908129
 20
      990.818117
 30
       19.583889
  0
POINT
  8
Default
 62
255
 10
     1087.906357
 20
      990.870153
 30
       19.584970
  0
POINT
  8
Default
 62
255
 10
     1087.889957
 20
      990.896081
 30
       19.581071
  0
POINT
  8
Default
 62
255
 10
     1087.820651
 20
      990.892113
 30
       19.579306
  0
POINT
  8
Default
 62
255
 10
     1087.857077
 20
      990.911744
 30
       19.579398
  0
POINT
  8
Default
 62
255
 10
     1087.859924
 20
      990.861554
 30
       19.581639
  0
POINT
  8
Default
 62
255
 10
     1088.099829
 20
      990.978589
 30
       19.592195
  0
POINT
  8
Default
 62
255
 10
     1088.078321
 20
      990.931869
 30
       19.599422
  0
POINT
  8
Default
 62
255
 10
     1088.057494
 20
      990.959022
 30
       19.590937
  0
POINT
  8
Default
 62
255
 10
     1088.087345
 20
      991.000474
 30
       19.591169
  0
POINT
  8
Default
 62
255
 10
     1088.063614
 20
      991.037568
 30
       19.586962
  0
POINT
  8
Default
 62
255
 10
     1088.059318
 20
      990.990890
 30
       19.584985
  0
POINT
  8
Default
 62
255
 10
     1088.144852
 20
      990.920144
 30
       19.599801
  0
POINT
  8
Default
 62
255
 10
     1088.142068
 20
      990.952102
 30
       19.595666
  0
POINT
  8
Default
 62
255
 10
     1088.103754
 20
      990.922622
 30
       19.598463
  0
POINT
  8
Default
 62
255
 10
     1088.175506
 20
      990.942528
 30
       19.599872
  0
POINT
  8
Default
 62
255
 10
     1088.135972
 20
      990.888424
 30
       19.601815
  0
POINT
  8
Default
 62
255
 10
     1088.145990
 20
      990.853685
 30
       19.604887
  0
POINT
  8
Default
 62
255
 10
     1088.190698
 20
      990.881700
 30
       19.600674
  0
POINT
  8
Default
 62
255
 10
     1088.213166
 20
      990.887543
 30
       19.604211
  0
POINT
  8
Default
 62
255
 10
     1088.252776
 20
      990.906625
 30
       19.604986
  0
POINT
  8
Default
 62
255
 10
     1087.935683
 20
      990.870925
 30
       19.588407
  0
POINT
  8
Default
 62
255
 10
     1088.003542
 20
      990.901567
 30
       19.590970
  0
POINT
  8
Default
 62
255
 10
     1088.007291
 20
      990.858583
 30
       19.598489
  0
POINT
  8
Default
 62
255
 10
     1087.976328
 20
      990.853859
 30
       19.598754
  0
POINT
  8
Default
 62
255
 10
     1087.980969
 20
      990.885746
 30
       19.592588
  0
POINT
  8
Default
 62
255
 10
     1088.086879
 20
      990.816013
 30
       19.600895
  0
POINT
  8
Default
 62
255
 10
     1088.032794
 20
      990.831054
 30
       19.603700
  0
POINT
  8
Default
 62
255
 10
     1087.972560
 20
      990.790433
 30
       19.601904
  0
POINT
  8
Default
 62
255
 10
     1087.942109
 20
      990.823262
 30
       19.597576
  0
POINT
  8
Default
 62
255
 10
     1087.943053
 20
      990.795947
 30
       19.599712
  0
POINT
  8
Default
 62
255
 10
     1087.989771
 20
      990.826512
 30
       19.600830
  0
POINT
  8
Default
 62
255
 10
     1088.066566
 20
      990.864440
 30
       19.605939
  0
POINT
  8
Default
 62
255
 10
     1088.029331
 20
      990.885294
 30
       19.596343
  0
POINT
  8
Default
 62
255
 10
     1088.071633
 20
      990.831346
 30
       19.606114
  0
POINT
  8
Default
 62
255
 10
     1088.044658
 20
      990.797309
 30
       19.606506
  0
POINT
  8
Default
 62
255
 10
     1088.016010
 20
      990.784142
 30
       19.609477
  0
POINT
  8
Default
 62
255
 10
     1087.978241
 20
      990.756110
 30
       19.599796
  0
POINT
  8
Default
 62
255
 10
     1088.047026
 20
      990.753518
 30
       19.609731
  0
POINT
  8
Default
 62
255
 10
     1088.127943
 20
      990.781604
 30
       19.606484
  0
POINT
  8
Default
 62
255
 10
     1088.081774
 20
      990.782617
 30
       19.606270
  0
POINT
  8
Default
 62
255
 10
     1088.144138
 20
      990.715213
 30
       19.605878
  0
POINT
  8
Default
 62
255
 10
     1088.100140
 20
      990.721748
 30
       19.607043
  0
POINT
  8
Default
 62
255
 10
     1088.057995
 20
      990.710846
 30
       19.610308
  0
POINT
  8
Default
 62
255
 10
     1088.247092
 20
      990.776175
 30
       19.611579
  0
POINT
  8
Default
 62
255
 10
     1088.161027
 20
      990.762688
 30
       19.606435
  0
POINT
  8
Default
 62
255
 10
     1088.194021
 20
      990.768715
 30
       19.607545
  0
POINT
  8
Default
 62
255
 10
     1088.214792
 20
      990.754986
 30
       19.609081
  0
POINT
  8
Default
 62
255
 10
     1088.243233
 20
      990.709289
 30
       19.610403
  0
POINT
  8
Default
 62
255
 10
     1088.187715
 20
      990.715960
 30
       19.613681
  0
POINT
  8
Default
 62
255
 10
     1088.115913
 20
      990.696102
 30
       19.607756
  0
POINT
  8
Default
 62
255
 10
     1088.208507
 20
      990.629524
 30
       19.617058
  0
POINT
  8
Default
 62
255
 10
     1088.137768
 20
      990.647851
 30
       19.608428
  0
POINT
  8
Default
 62
255
 10
     1088.120502
 20
      990.653598
 30
       19.608099
  0
POINT
  8
Default
 62
255
 10
     1088.206176
 20
      990.681984
 30
       19.611521
  0
POINT
  8
Default
 62
255
 10
     1088.179641
 20
      990.642870
 30
       19.615806
  0
POINT
  8
Default
 62
255
 10
     1088.161935
 20
      990.600469
 30
       19.611276
  0
POINT
  8
Default
 62
255
 10
     1088.261577
 20
      990.621048
 30
       19.613826
  0
POINT
  8
Default
 62
255
 10
     1088.241801
 20
      990.548835
 30
       19.614087
  0
POINT
  8
Default
 62
255
 10
     1088.244371
 20
      990.585568
 30
       19.614876
  0
POINT
  8
Default
 62
255
 10
     1088.317511
 20
      990.628405
 30
       19.604867
  0
POINT
  8
Default
 62
255
 10
     1088.194217
 20
      990.587911
 30
       19.616820
  0
POINT
  8
Default
 62
255
 10
     1088.203083
 20
      990.546474
 30
       19.604617
  0
POINT
  8
Default
 62
255
 10
     1088.264531
 20
      990.531874
 30
       19.614584
  0
POINT
  8
Default
 62
255
 10
     1088.256960
 20
      990.499243
 30
       19.609988
  0
POINT
  8
Default
 62
255
 10
     1088.315080
 20
      990.665517
 30
       19.611774
  0
POINT
  8
Default
 62
255
 10
     1088.285537
 20
      990.663122
 30
       19.611766
  0
POINT
  8
Default
 62
255
 10
     1088.201441
 20
      990.858185
 30
       19.605384
  0
POINT
  8
Default
 62
255
 10
     1088.239513
 20
      990.871816
 30
       19.605883
  0
POINT
  8
Default
 62
255
 10
     1088.347563
 20
      990.751882
 30
       19.615871
  0
POINT
  8
Default
 62
255
 10
     1088.329985
 20
      990.689346
 30
       19.612057
  0
POINT
  8
Default
 62
255
 10
     1088.357102
 20
      990.705186
 30
       19.614306
  0
POINT
  8
Default
 62
255
 10
     1088.315904
 20
      990.786436
 30
       19.613403
  0
POINT
  8
Default
 62
255
 10
     1088.299636
 20
      990.772597
 30
       19.614415
  0
POINT
  8
Default
 62
255
 10
     1088.366274
 20
      990.782540
 30
       19.614504
  0
POINT
  8
Default
 62
255
 10
     1088.383069
 20
      990.827833
 30
       19.612653
  0
POINT
  8
Default
 62
255
 10
     1088.403585
 20
      990.792645
 30
       19.614930
  0
POINT
  8
Default
 62
255
 10
     1088.361705
 20
      990.826415
 30
       19.614585
  0
POINT
  8
Default
 62
255
 10
     1088.343456
 20
      990.787481
 30
       19.606853
  0
POINT
  8
Default
 62
255
 10
     1088.298865
 20
      990.809882
 30
       19.611807
  0
POINT
  8
Default
 62
255
 10
     1088.395596
 20
      990.679787
 30
       19.615820
  0
POINT
  8
Default
 62
255
 10
     1088.376077
 20
      990.675507
 30
       19.615782
  0
POINT
  8
Default
 62
255
 10
     1088.377136
 20
      990.700266
 30
       19.618016
  0
POINT
  8
Default
 62
255
 10
     1088.425391
 20
      990.779744
 30
       19.611236
  0
POINT
  8
Default
 62
255
 10
     1088.376939
 20
      990.758501
 30
       19.619278
  0
POINT
  8
Default
 62
255
 10
     1088.282546
 20
      990.755532
 30
       19.616045
  0
POINT
  8
Default
 62
255
 10
     1088.276571
 20
      990.722522
 30
       19.614864
  0
POINT
  8
Default
 62
255
 10
     1088.222838
 20
      990.728359
 30
       19.611522
  0
POINT
  8
Default
 62
255
 10
     1088.237762
 20
      990.805393
 30
       19.609888
  0
POINT
  8
Default
 62
255
 10
     1088.229160
 20
      990.827865
 30
       19.608727
  0
POINT
  8
Default
 62
255
 10
     1088.275153
 20
      990.883745
 30
       19.613822
  0
POINT
  8
Default
 62
255
 10
     1088.335097
 20
      990.854464
 30
       19.612217
  0
POINT
  8
Default
 62
255
 10
     1088.298435
 20
      990.850445
 30
       19.610593
  0
POINT
  8
Default
 62
255
 10
     1088.267848
 20
      990.799573
 30
       19.613284
  0
POINT
  8
Default
 62
255
 10
     1088.260250
 20
      990.835587
 30
       19.611243
  0
POINT
  8
Default
 62
255
 10
     1088.855014
 20
      991.688227
 30
       19.406885
  0
POINT
  8
Default
 62
255
 10
     1088.833317
 20
      991.676132
 30
       19.397982
  0
POINT
  8
Default
 62
255
 10
     1088.886225
 20
      991.680519
 30
       19.409202
  0
POINT
  8
Default
 62
255
 10
     1088.898263
 20
      991.657171
 30
       19.402602
  0
POINT
  8
Default
 62
255
 10
     1088.817061
 20
      991.666694
 30
       19.381853
  0
POINT
  8
Default
 62
255
 10
     1088.853721
 20
      991.636038
 30
       19.388745
  0
POINT
  8
Default
 62
255
 10
     1088.881366
 20
      991.636696
 30
       19.400709
  0
POINT
  8
Default
 62
255
 10
     1088.859155
 20
      991.654397
 30
       19.400718
  0
POINT
  8
Default
 62
255
 10
     1088.839702
 20
      991.661092
 30
       19.391676
  0
POINT
  8
Default
 62
255
 10
     1088.905463
 20
      991.619517
 30
       19.401142
  0
POINT
  8
Default
 62
255
 10
     1088.863433
 20
      991.615859
 30
       19.382848
  0
POINT
  8
Default
 62
255
 10
     1088.863068
 20
      991.600133
 30
       19.373667
  0
POINT
  8
Default
 62
255
 10
     1088.958479
 20
      991.678654
 30
       19.406561
  0
POINT
  8
Default
 62
255
 10
     1088.960021
 20
      991.647221
 30
       19.401344
  0
POINT
  8
Default
 62
255
 10
     1088.919508
 20
      991.646533
 30
       19.398655
  0
POINT
  8
Default
 62
255
 10
     1088.932210
 20
      991.685261
 30
       19.404595
  0
POINT
  8
Default
 62
255
 10
     1088.904226
 20
      991.689585
 30
       19.406596
  0
POINT
  8
Default
 62
255
 10
     1088.886744
 20
      991.613686
 30
       19.396474
  0
POINT
  8
Default
 62
255
 10
     1088.879460
 20
      991.585661
 30
       19.379770
  0
POINT
  8
Default
 62
255
 10
     1088.929580
 20
      991.587464
 30
       19.398448
  0
POINT
  8
Default
 62
255
 10
     1088.892726
 20
      991.597702
 30
       19.389379
  0
POINT
  8
Default
 62
255
 10
     1088.895390
 20
      991.580510
 30
       19.384099
  0
POINT
  8
Default
 62
255
 10
     1088.959825
 20
      991.616769
 30
       19.408096
  0
POINT
  8
Default
 62
255
 10
     1088.979966
 20
      991.602144
 30
       19.407554
  0
POINT
  8
Default
 62
255
 10
     1088.962399
 20
      991.577043
 30
       19.399836
  0
POINT
  8
Default
 62
255
 10
     1088.977511
 20
      991.663101
 30
       19.407628
  0
POINT
  8
Default
 62
255
 10
     1089.003939
 20
      991.645075
 30
       19.408528
  0
POINT
  8
Default
 62
255
 10
     1089.017291
 20
      991.614905
 30
       19.402399
  0
POINT
  8
Default
 62
255
 10
     1089.004529
 20
      991.669054
 30
       19.410861
  0
POINT
  8
Default
 62
255
 10
     1088.969303
 20
      991.694688
 30
       19.409555
  0
POINT
  8
Default
 62
255
 10
     1088.901113
 20
      991.497610
 30
       19.367762
  0
POINT
  8
Default
 62
255
 10
     1088.884755
 20
      991.533477
 30
       19.363297
  0
POINT
  8
Default
 62
255
 10
     1088.915085
 20
      991.525543
 30
       19.382717
  0
POINT
  8
Default
 62
255
 10
     1088.945039
 20
      991.551035
 30
       19.399837
  0
POINT
  8
Default
 62
255
 10
     1088.927514
 20
      991.563774
 30
       19.390799
  0
POINT
  8
Default
 62
255
 10
     1088.937133
 20
      991.530260
 30
       19.398905
  0
POINT
  8
Default
 62
255
 10
     1088.946395
 20
      991.501554
 30
       19.395236
  0
POINT
  8
Default
 62
255
 10
     1088.927399
 20
      991.491602
 30
       19.387495
  0
POINT
  8
Default
 62
255
 10
     1088.925450
 20
      991.509944
 30
       19.391076
  0
POINT
  8
Default
 62
255
 10
     1088.982496
 20
      991.529857
 30
       19.399801
  0
POINT
  8
Default
 62
255
 10
     1089.055325
 20
      991.558837
 30
       19.393581
  0
POINT
  8
Default
 62
255
 10
     1089.000291
 20
      991.539898
 30
       19.402083
  0
POINT
  8
Default
 62
255
 10
     1089.025646
 20
      991.592728
 30
       19.399374
  0
POINT
  8
Default
 62
255
 10
     1088.974215
 20
      991.552809
 30
       19.400594
  0
POINT
  8
Default
 62
255
 10
     1089.064293
 20
      991.513599
 30
       19.391696
  0
POINT
  8
Default
 62
255
 10
     1089.032139
 20
      991.549735
 30
       19.398916
  0
POINT
  8
Default
 62
255
 10
     1089.009013
 20
      991.513791
 30
       19.401110
  0
POINT
  8
Default
 62
255
 10
     1088.987086
 20
      991.508180
 30
       19.400584
  0
POINT
  8
Default
 62
255
 10
     1088.967639
 20
      991.492697
 30
       19.399099
  0
POINT
  8
Default
 62
255
 10
     1088.920738
 20
      991.462161
 30
       19.377705
  0
POINT
  8
Default
 62
255
 10
     1088.958352
 20
      991.471767
 30
       19.392876
  0
POINT
  8
Default
 62
255
 10
     1089.004458
 20
      991.486880
 30
       19.399466
  0
POINT
  8
Default
 62
255
 10
     1088.996359
 20
      991.448529
 30
       19.397703
  0
POINT
  8
Default
 62
255
 10
     1088.975584
 20
      991.463434
 30
       19.394356
  0
POINT
  8
Default
 62
255
 10
     1088.965204
 20
      991.437588
 30
       19.391940
  0
POINT
  8
Default
 62
255
 10
     1089.060223
 20
      991.473745
 30
       19.396619
  0
POINT
  8
Default
 62
255
 10
     1089.037002
 20
      991.424559
 30
       19.395565
  0
POINT
  8
Default
 62
255
 10
     1088.939663
 20
      991.435776
 30
       19.384527
  0
POINT
  8
Default
 62
255
 10
     1088.889717
 20
      991.473464
 30
       19.353289
  0
POINT
  8
Default
 62
255
 10
     1088.929140
 20
      991.419235
 30
       19.375754
  0
POINT
  8
Default
 62
255
 10
     1088.981272
 20
      991.413449
 30
       19.380629
  0
POINT
  8
Default
 62
255
 10
     1088.923663
 20
      991.382191
 30
       19.379301
  0
POINT
  8
Default
 62
255
 10
     1088.951954
 20
      991.361284
 30
       19.391223
  0
POINT
  8
Default
 62
255
 10
     1089.019431
 20
      991.401274
 30
       19.393209
  0
POINT
  8
Default
 62
255
 10
     1088.904182
 20
      991.426753
 30
       19.358833
  0
POINT
  8
Default
 62
255
 10
     1088.953011
 20
      991.305024
 30
       19.393513
  0
POINT
  8
Default
 62
255
 10
     1088.986450
 20
      991.354713
 30
       19.393776
  0
POINT
  8
Default
 62
255
 10
     1088.996163
 20
      991.392652
 30
       19.391870
  0
POINT
  8
Default
 62
255
 10
     1088.946317
 20
      991.408948
 30
       19.387806
  0
POINT
  8
Default
 62
255
 10
     1088.929204
 20
      991.357591
 30
       19.385913
  0
POINT
  8
Default
 62
255
 10
     1088.913735
 20
      991.343717
 30
       19.374993
  0
POINT
  8
Default
 62
255
 10
     1088.919216
 20
      991.309853
 30
       19.377581
  0
POINT
  8
Default
 62
255
 10
     1088.941491
 20
      991.335268
 30
       19.387396
  0
POINT
  8
Default
 62
255
 10
     1089.002821
 20
      991.321504
 30
       19.394808
  0
POINT
  8
Default
 62
255
 10
     1088.941377
 20
      991.711134
 30
       19.412256
  0
POINT
  8
Default
 62
255
 10
     1088.919262
 20
      991.733145
 30
       19.420648
  0
POINT
  8
Default
 62
255
 10
     1088.877836
 20
      991.714868
 30
       19.416712
  0
POINT
  8
Default
 62
255
 10
     1088.904350
 20
      991.711443
 30
       19.414106
  0
POINT
  8
Default
 62
255
 10
     1088.932000
 20
      991.720453
 30
       19.412019
  0
POINT
  8
Default
 62
255
 10
     1088.950555
 20
      991.732833
 30
       19.419355
  0
POINT
  8
Default
 62
255
 10
     1088.975310
 20
      991.749311
 30
       19.425316
  0
POINT
  8
Default
 62
255
 10
     1088.988027
 20
      991.764081
 30
       19.435487
  0
POINT
  8
Default
 62
255
 10
     1088.995662
 20
      991.756138
 30
       19.431642
  0
POINT
  8
Default
 62
255
 10
     1088.948328
 20
      991.756278
 30
       19.440247
  0
POINT
  8
Default
 62
255
 10
     1089.018259
 20
      991.778900
 30
       19.457066
  0
POINT
  8
Default
 62
255
 10
     1089.051564
 20
      991.801043
 30
       19.503821
  0
POINT
  8
Default
 62
255
 10
     1089.073704
 20
      991.784595
 30
       19.473025
  0
POINT
  8
Default
 62
255
 10
     1089.033118
 20
      991.762975
 30
       19.438644
  0
POINT
  8
Default
 62
255
 10
     1089.001960
 20
      991.739984
 30
       19.422699
  0
POINT
  8
Default
 62
255
 10
     1089.060124
 20
      991.718047
 30
       19.418360
  0
POINT
  8
Default
 62
255
 10
     1089.041336
 20
      991.742901
 30
       19.423850
  0
POINT
  8
Default
 62
255
 10
     1089.064463
 20
      991.740554
 30
       19.430048
  0
POINT
  8
Default
 62
255
 10
     1089.054113
 20
      991.758865
 30
       19.444027
  0
POINT
  8
Default
 62
255
 10
     1089.027166
 20
      991.784833
 30
       19.478918
  0
POINT
  8
Default
 62
255
 10
     1089.022098
 20
      991.699812
 30
       19.412696
  0
POINT
  8
Default
 62
255
 10
     1089.015687
 20
      991.718712
 30
       19.414159
  0
POINT
  8
Default
 62
255
 10
     1088.985771
 20
      991.716388
 30
       19.413450
  0
POINT
  8
Default
 62
255
 10
     1088.985680
 20
      991.626640
 30
       19.409178
  0
POINT
  8
Default
 62
255
 10
     1089.036887
 20
      991.664472
 30
       19.413976
  0
POINT
  8
Default
 62
255
 10
     1089.049247
 20
      991.690474
 30
       19.416461
  0
POINT
  8
Default
 62
255
 10
     1089.075283
 20
      991.714914
 30
       19.421087
  0
POINT
  8
Default
 62
255
 10
     1089.085880
 20
      991.694676
 30
       19.416789
  0
POINT
  8
Default
 62
255
 10
     1089.081625
 20
      991.672531
 30
       19.421889
  0
POINT
  8
Default
 62
255
 10
     1089.045902
 20
      991.630500
 30
       19.410006
  0
POINT
  8
Default
 62
255
 10
     1089.052621
 20
      991.593882
 30
       19.407179
  0
POINT
  8
Default
 62
255
 10
     1089.147729
 20
      991.594642
 30
       19.400557
  0
POINT
  8
Default
 62
255
 10
     1089.124683
 20
      991.627656
 30
       19.400596
  0
POINT
  8
Default
 62
255
 10
     1089.097846
 20
      991.598259
 30
       19.397201
  0
POINT
  8
Default
 62
255
 10
     1089.094345
 20
      991.634802
 30
       19.395415
  0
POINT
  8
Default
 62
255
 10
     1089.141577
 20
      991.506043
 30
       19.399873
  0
POINT
  8
Default
 62
255
 10
     1089.112185
 20
      991.568180
 30
       19.393579
  0
POINT
  8
Default
 62
255
 10
     1089.159037
 20
      991.548310
 30
       19.398297
  0
POINT
  8
Default
 62
255
 10
     1089.178070
 20
      991.581605
 30
       19.403748
  0
POINT
  8
Default
 62
255
 10
     1089.166128
 20
      991.528567
 30
       19.400593
  0
POINT
  8
Default
 62
255
 10
     1089.192658
 20
      991.554174
 30
       19.405020
  0
POINT
  8
Default
 62
255
 10
     1089.102028
 20
      991.403213
 30
       19.393490
  0
POINT
  8
Default
 62
255
 10
     1089.095416
 20
      991.430352
 30
       19.393495
  0
POINT
  8
Default
 62
255
 10
     1089.082090
 20
      991.471838
 30
       19.395511
  0
POINT
  8
Default
 62
255
 10
     1089.149275
 20
      991.476448
 30
       19.403049
  0
POINT
  8
Default
 62
255
 10
     1089.122761
 20
      991.418349
 30
       19.397014
  0
POINT
  8
Default
 62
255
 10
     1089.071711
 20
      991.400226
 30
       19.395254
  0
POINT
  8
Default
 62
255
 10
     1089.072596
 20
      991.439485
 30
       19.394907
  0
POINT
  8
Default
 62
255
 10
     1089.108470
 20
      991.472459
 30
       19.398615
  0
POINT
  8
Default
 62
255
 10
     1089.123408
 20
      991.452918
 30
       19.394791
  0
POINT
  8
Default
 62
255
 10
     1089.076143
 20
      991.368211
 30
       19.398194
  0
POINT
  8
Default
 62
255
 10
     1089.047824
 20
      991.341819
 30
       19.398413
  0
POINT
  8
Default
 62
255
 10
     1089.042441
 20
      991.369349
 30
       19.392491
  0
POINT
  8
Default
 62
255
 10
     1089.039418
 20
      991.389476
 30
       19.395244
  0
POINT
  8
Default
 62
255
 10
     1088.931810
 20
      991.273970
 30
       19.383393
  0
POINT
  8
Default
 62
255
 10
     1088.914445
 20
      991.289184
 30
       19.371103
  0
POINT
  8
Default
 62
255
 10
     1088.931184
 20
      991.242164
 30
       19.384383
  0
POINT
  8
Default
 62
255
 10
     1088.972742
 20
      991.257729
 30
       19.386926
  0
POINT
  8
Default
 62
255
 10
     1088.963236
 20
      991.212573
 30
       19.392659
  0
POINT
  8
Default
 62
255
 10
     1088.937244
 20
      991.204039
 30
       19.383707
  0
POINT
  8
Default
 62
255
 10
     1088.913195
 20
      991.215409
 30
       19.381499
  0
POINT
  8
Default
 62
255
 10
     1088.890876
 20
      991.270350
 30
       19.352079
  0
POINT
  8
Default
 62
255
 10
     1088.900307
 20
      991.251727
 30
       19.361125
  0
POINT
  8
Default
 62
255
 10
     1088.868398
 20
      991.204072
 30
       19.370312
  0
POINT
  8
Default
 62
255
 10
     1088.871462
 20
      991.182178
 30
       19.392647
  0
POINT
  8
Default
 62
255
 10
     1088.890192
 20
      991.161744
 30
       19.402454
  0
POINT
  8
Default
 62
255
 10
     1088.919350
 20
      991.175665
 30
       19.399302
  0
POINT
  8
Default
 62
255
 10
     1088.855309
 20
      991.155308
 30
       19.380703
  0
POINT
  8
Default
 62
255
 10
     1088.825873
 20
      991.126004
 30
       19.386627
  0
POINT
  8
Default
 62
255
 10
     1088.846547
 20
      991.107862
 30
       19.409608
  0
POINT
  8
Default
 62
255
 10
     1088.853666
 20
      991.125729
 30
       19.403853
  0
POINT
  8
Default
 62
255
 10
     1088.819140
 20
      991.081266
 30
       19.409339
  0
POINT
  8
Default
 62
255
 10
     1088.798624
 20
      991.106009
 30
       19.372349
  0
POINT
  8
Default
 62
255
 10
     1088.774208
 20
      991.073814
 30
       19.372735
  0
POINT
  8
Default
 62
255
 10
     1088.780748
 20
      991.094131
 30
       19.366047
  0
POINT
  8
Default
 62
255
 10
     1088.775812
 20
      991.053383
 30
       19.394229
  0
POINT
  8
Default
 62
255
 10
     1088.759695
 20
      991.052973
 30
       19.379458
  0
POINT
  8
Default
 62
255
 10
     1088.756512
 20
      991.066912
 30
       19.367460
  0
POINT
  8
Default
 62
255
 10
     1088.735949
 20
      991.065940
 30
       19.337758
  0
POINT
  8
Default
 62
255
 10
     1088.742007
 20
      991.088649
 30
       19.330854
  0
POINT
  8
Default
 62
255
 10
     1088.702166
 20
      991.103811
 30
       19.266238
  0
POINT
  8
Default
 62
255
 10
     1088.720887
 20
      991.095458
 30
       19.297921
  0
POINT
  8
Default
 62
255
 10
     1088.769835
 20
      991.175082
 30
       19.286468
  0
POINT
  8
Default
 62
255
 10
     1088.784800
 20
      991.211016
 30
       19.274521
  0
POINT
  8
Default
 62
255
 10
     1088.722175
 20
      991.497284
 30
       19.157124
  0
POINT
  8
Default
 62
255
 10
     1088.765151
 20
      991.421421
 30
       19.185273
  0
POINT
  8
Default
 62
255
 10
     1088.742895
 20
      991.459638
 30
       19.166229
  0
POINT
  8
Default
 62
255
 10
     1088.816127
 20
      991.402813
 30
       19.227404
  0
POINT
  8
Default
 62
255
 10
     1088.807889
 20
      991.499264
 30
       19.246780
  0
POINT
  8
Default
 62
255
 10
     1088.790910
 20
      991.481432
 30
       19.224117
  0
POINT
  8
Default
 62
255
 10
     1088.846687
 20
      991.551011
 30
       19.319136
  0
POINT
  8
Default
 62
255
 10
     1088.874618
 20
      991.517760
 30
       19.339730
  0
POINT
  8
Default
 62
255
 10
     1088.639308
 20
      991.481936
 30
       19.103433
  0
POINT
  8
Default
 62
255
 10
     1088.646732
 20
      991.522286
 30
       19.117938
  0
POINT
  8
Default
 62
255
 10
     1088.606202
 20
      991.514706
 30
       19.093115
  0
POINT
  8
Default
 62
255
 10
     1088.508006
 20
      991.558123
 30
       19.043923
  0
POINT
  8
Default
 62
255
 10
     1088.493904
 20
      991.486468
 30
       19.049201
  0
POINT
  8
Default
 62
255
 10
     1088.547808
 20
      991.493108
 30
       19.069102
  0
POINT
  8
Default
 62
255
 10
     1088.588700
 20
      991.543870
 30
       19.084791
  0
POINT
  8
Default
 62
255
 10
     1088.557672
 20
      991.526294
 30
       19.065067
  0
POINT
  8
Default
 62
255
 10
     1088.550697
 20
      991.558754
 30
       19.065605
  0
POINT
  8
Default
 62
255
 10
     1088.593364
 20
      991.578326
 30
       19.093662
  0
POINT
  8
Default
 62
255
 10
     1088.524861
 20
      991.586758
 30
       19.054429
  0
POINT
  8
Default
 62
255
 10
     1088.618378
 20
      991.596396
 30
       19.118595
  0
POINT
  8
Default
 62
255
 10
     1088.630843
 20
      991.578809
 30
       19.121640
  0
POINT
  8
Default
 62
255
 10
     1088.664207
 20
      991.587281
 30
       19.144622
  0
POINT
  8
Default
 62
255
 10
     1088.689221
 20
      991.543140
 30
       19.141942
  0
POINT
  8
Default
 62
255
 10
     1088.589759
 20
      991.625268
 30
       19.113696
  0
POINT
  8
Default
 62
255
 10
     1088.473174
 20
      991.597262
 30
       19.066545
  0
POINT
  8
Default
 62
255
 10
     1088.464332
 20
      991.627104
 30
       19.092424
  0
POINT
  8
Default
 62
255
 10
     1088.407251
 20
      991.631730
 30
       19.157832
  0
POINT
  8
Default
 62
255
 10
     1088.424724
 20
      991.655114
 30
       19.170146
  0
POINT
  8
Default
 62
255
 10
     1088.413014
 20
      991.595258
 30
       19.114142
  0
POINT
  8
Default
 62
255
 10
     1088.452720
 20
      991.570851
 30
       19.062433
  0
POINT
  8
Default
 62
255
 10
     1088.420962
 20
      991.547236
 30
       19.083460
  0
POINT
  8
Default
 62
255
 10
     1088.431422
 20
      991.590014
 30
       19.091251
  0
POINT
  8
Default
 62
255
 10
     1088.396998
 20
      991.654262
 30
       19.183726
  0
POINT
  8
Default
 62
255
 10
     1088.369263
 20
      991.653466
 30
       19.196192
  0
POINT
  8
Default
 62
255
 10
     1088.785173
 20
      991.556905
 30
       19.240693
  0
POINT
  8
Default
 62
255
 10
     1088.787230
 20
      991.575699
 30
       19.258527
  0
POINT
  8
Default
 62
255
 10
     1088.737491
 20
      991.580772
 30
       19.214538
  0
POINT
  8
Default
 62
255
 10
     1088.722927
 20
      991.568377
 30
       19.197103
  0
POINT
  8
Default
 62
255
 10
     1088.697872
 20
      991.597644
 30
       19.194694
  0
POINT
  8
Default
 62
255
 10
     1088.801734
 20
      991.536865
 30
       19.252760
  0
POINT
  8
Default
 62
255
 10
     1088.765851
 20
      991.514622
 30
       19.210561
  0
POINT
  8
Default
 62
255
 10
     1088.741512
 20
      991.537979
 30
       19.200446
  0
POINT
  8
Default
 62
255
 10
     1088.716930
 20
      991.543108
 30
       19.170142
  0
POINT
  8
Default
 62
255
 10
     1088.650789
 20
      991.658110
 30
       19.199368
  0
POINT
  8
Default
 62
255
 10
     1088.636118
 20
      991.704261
 30
       19.230663
  0
POINT
  8
Default
 62
255
 10
     1088.663584
 20
      991.691829
 30
       19.228948
  0
POINT
  8
Default
 62
255
 10
     1088.717426
 20
      991.681304
 30
       19.276147
  0
POINT
  8
Default
 62
255
 10
     1088.743239
 20
      991.666446
 30
       19.290174
  0
POINT
  8
Default
 62
255
 10
     1088.757546
 20
      991.606035
 30
       19.242755
  0
POINT
  8
Default
 62
255
 10
     1088.738973
 20
      991.639472
 30
       19.249882
  0
POINT
  8
Default
 62
255
 10
     1088.762357
 20
      991.645586
 30
       19.287307
  0
POINT
  8
Default
 62
255
 10
     1088.779585
 20
      991.643502
 30
       19.306152
  0
POINT
  8
Default
 62
255
 10
     1088.794393
 20
      991.606971
 30
       19.277995
  0
POINT
  8
Default
 62
255
 10
     1088.815491
 20
      991.589071
 30
       19.290012
  0
POINT
  8
Default
 62
255
 10
     1088.690638
 20
      991.667067
 30
       19.236651
  0
POINT
  8
Default
 62
255
 10
     1088.843867
 20
      991.491317
 30
       19.288417
  0
POINT
  8
Default
 62
255
 10
     1088.859643
 20
      991.445759
 30
       19.296121
  0
POINT
  8
Default
 62
255
 10
     1088.844623
 20
      991.455040
 30
       19.283424
  0
POINT
  8
Default
 62
255
 10
     1088.813901
 20
      991.467619
 30
       19.250421
  0
POINT
  8
Default
 62
255
 10
     1088.789766
 20
      991.428713
 30
       19.203217
  0
POINT
  8
Default
 62
255
 10
     1088.785407
 20
      991.459841
 30
       19.210152
  0
POINT
  8
Default
 62
255
 10
     1088.858487
 20
      991.406466
 30
       19.288129
  0
POINT
  8
Default
 62
255
 10
     1088.835376
 20
      991.430101
 30
       19.253355
  0
POINT
  8
Default
 62
255
 10
     1088.785066
 20
      991.372506
 30
       19.207872
  0
POINT
  8
Default
 62
255
 10
     1088.758825
 20
      991.367656
 30
       19.190761
  0
POINT
  8
Default
 62
255
 10
     1088.840506
 20
      991.402070
 30
       19.259304
  0
POINT
  8
Default
 62
255
 10
     1088.826696
 20
      991.379946
 30
       19.246565
  0
POINT
  8
Default
 62
255
 10
     1088.829078
 20
      991.353841
 30
       19.254819
  0
POINT
  8
Default
 62
255
 10
     1088.854580
 20
      991.354177
 30
       19.284646
  0
POINT
  8
Default
 62
255
 10
     1088.790853
 20
      991.349905
 30
       19.216132
  0
POINT
  8
Default
 62
255
 10
     1088.789092
 20
      991.316906
 30
       19.226090
  0
POINT
  8
Default
 62
255
 10
     1088.823017
 20
      991.290076
 30
       19.281063
  0
POINT
  8
Default
 62
255
 10
     1088.839751
 20
      991.321420
 30
       19.285409
  0
POINT
  8
Default
 62
255
 10
     1088.810684
 20
      991.323006
 30
       19.256688
  0
POINT
  8
Default
 62
255
 10
     1088.875787
 20
      991.314256
 30
       19.329732
  0
POINT
  8
Default
 62
255
 10
     1088.888687
 20
      991.395675
 30
       19.338770
  0
POINT
  8
Default
 62
255
 10
     1088.902934
 20
      991.304017
 30
       19.355142
  0
POINT
  8
Default
 62
255
 10
     1088.838302
 20
      991.256362
 30
       19.311187
  0
POINT
  8
Default
 62
255
 10
     1088.769949
 20
      991.247820
 30
       19.247523
  0
POINT
  8
Default
 62
255
 10
     1088.750433
 20
      991.248728
 30
       19.224330
  0
POINT
  8
Default
 62
255
 10
     1088.741020
 20
      991.308822
 30
       19.191150
  0
POINT
  8
Default
 62
255
 10
     1088.765582
 20
      991.300964
 30
       19.214394
  0
POINT
  8
Default
 62
255
 10
     1088.805793
 20
      991.256314
 30
       19.275268
  0
POINT
  8
Default
 62
255
 10
     1088.738496
 20
      991.109057
 30
       19.314132
  0
POINT
  8
Default
 62
255
 10
     1088.814224
 20
      991.166342
 30
       19.339457
  0
POINT
  8
Default
 62
255
 10
     1088.815820
 20
      991.132073
 30
       19.366579
  0
POINT
  8
Default
 62
255
 10
     1088.833921
 20
      991.159096
 30
       19.364983
  0
POINT
  8
Default
 62
255
 10
     1088.776493
 20
      991.151542
 30
       19.311612
  0
POINT
  8
Default
 62
255
 10
     1088.765607
 20
      991.124761
 30
       19.319609
  0
POINT
  8
Default
 62
255
 10
     1088.823134
 20
      991.212942
 30
       19.317222
  0
POINT
  8
Default
 62
255
 10
     1088.877008
 20
      991.260398
 30
       19.340587
  0
POINT
  8
Default
 62
255
 10
     1088.858808
 20
      991.222400
 30
       19.340786
  0
POINT
  8
Default
 62
255
 10
     1088.573455
 20
      991.679984
 30
       19.175176
  0
POINT
  8
Default
 62
255
 10
     1088.580269
 20
      991.705150
 30
       19.206025
  0
POINT
  8
Default
 62
255
 10
     1088.606173
 20
      991.680969
 30
       19.181879
  0
POINT
  8
Default
 62
255
 10
     1088.617680
 20
      991.751870
 30
       19.328750
  0
POINT
  8
Default
 62
255
 10
     1088.557566
 20
      991.756448
 30
       19.260725
  0
POINT
  8
Default
 62
255
 10
     1088.577622
 20
      991.747033
 30
       19.391752
  0
POINT
  8
Default
 62
255
 10
     1088.542615
 20
      991.772427
 30
       19.373029
  0
POINT
  8
Default
 62
255
 10
     1088.547410
 20
      991.703893
 30
       19.193779
  0
POINT
  8
Default
 62
255
 10
     1088.515224
 20
      991.682619
 30
       19.175190
  0
POINT
  8
Default
 62
255
 10
     1088.508945
 20
      991.714054
 30
       19.207996
  0
POINT
  8
Default
 62
255
 10
     1088.552178
 20
      991.633832
 30
       19.095788
  0
POINT
  8
Default
 62
255
 10
     1088.521581
 20
      991.653385
 30
       19.108913
  0
POINT
  8
Default
 62
255
 10
     1088.483474
 20
      991.649719
 30
       19.113473
  0
POINT
  8
Default
 62
255
 10
     1088.492882
 20
      991.677835
 30
       19.170309
  0
POINT
  8
Default
 62
255
 10
     1088.477559
 20
      991.709154
 30
       19.209790
  0
POINT
  8
Default
 62
255
 10
     1088.504979
 20
      991.752111
 30
       19.251238
  0
POINT
  8
Default
 62
255
 10
     1088.480242
 20
      991.759658
 30
       19.276479
  0
POINT
  8
Default
 62
255
 10
     1088.468208
 20
      991.735549
 30
       19.245943
  0
POINT
  8
Default
 62
255
 10
     1088.579031
 20
      991.740151
 30
       19.239610
  0
POINT
  8
Default
 62
255
 10
     1088.615845
 20
      991.730026
 30
       19.246071
  0
POINT
  8
Default
 62
255
 10
     1088.658664
 20
      991.618083
 30
       19.169505
  0
POINT
  8
Default
 62
255
 10
     1088.612183
 20
      991.654573
 30
       19.166190
  0
POINT
  8
Default
 62
255
 10
     1088.630899
 20
      991.618455
 30
       19.143735
  0
POINT
  8
Default
 62
255
 10
     1088.537553
 20
      991.729149
 30
       19.224551
  0
POINT
  8
Default
 62
255
 10
     1088.531256
 20
      991.763990
 30
       19.265981
  0
POINT
  8
Default
 62
255
 10
     1088.474067
 20
      991.764618
 30
       19.369711
  0
POINT
  8
Default
 62
255
 10
     1088.486111
 20
      991.775564
 30
       19.395848
  0
POINT
  8
Default
 62
255
 10
     1088.518499
 20
      991.769366
 30
       19.384615
  0
POINT
  8
Default
 62
255
 10
     1088.601101
 20
      991.753757
 30
       19.264085
  0
POINT
  8
Default
 62
255
 10
     1088.658017
 20
      991.729610
 30
       19.296753
  0
POINT
  8
Default
 62
255
 10
     1088.658881
 20
      991.743085
 30
       19.334657
  0
POINT
  8
Default
 62
255
 10
     1088.689620
 20
      991.724871
 30
       19.316646
  0
POINT
  8
Default
 62
255
 10
     1088.736994
 20
      991.696295
 30
       19.355811
  0
POINT
  8
Default
 62
255
 10
     1088.376738
 20
      991.761775
 30
       19.349241
  0
POINT
  8
Default
 62
255
 10
     1088.312833
 20
      991.752721
 30
       19.351818
  0
POINT
  8
Default
 62
255
 10
     1088.350136
 20
      991.755850
 30
       19.436730
  0
POINT
  8
Default
 62
255
 10
     1088.381884
 20
      991.761760
 30
       19.447354
  0
POINT
  8
Default
 62
255
 10
     1088.411971
 20
      991.756278
 30
       19.481790
  0
POINT
  8
Default
 62
255
 10
     1088.433175
 20
      991.773917
 30
       19.403339
  0
POINT
  8
Default
 62
255
 10
     1088.233009
 20
      991.694756
 30
       19.319141
  0
POINT
  8
Default
 62
255
 10
     1088.292409
 20
      991.715157
 30
       19.291639
  0
POINT
  8
Default
 62
255
 10
     1088.256316
 20
      991.721244
 30
       19.333506
  0
POINT
  8
Default
 62
255
 10
     1088.347409
 20
      991.754330
 30
       19.315041
  0
POINT
  8
Default
 62
255
 10
     1088.379075
 20
      991.738740
 30
       19.272193
  0
POINT
  8
Default
 62
255
 10
     1088.340503
 20
      991.717915
 30
       19.268796
  0
POINT
  8
Default
 62
255
 10
     1088.344077
 20
      991.704054
 30
       19.256717
  0
POINT
  8
Default
 62
255
 10
     1088.258189
 20
      991.694658
 30
       19.298259
  0
POINT
  8
Default
 62
255
 10
     1088.279736
 20
      991.730882
 30
       19.306616
  0
POINT
  8
Default
 62
255
 10
     1088.315865
 20
      991.746875
 30
       19.310222
  0
POINT
  8
Default
 62
255
 10
     1088.298145
 20
      991.696035
 30
       19.272300
  0
POINT
  8
Default
 62
255
 10
     1088.344461
 20
      991.687220
 30
       19.239933
  0
POINT
  8
Default
 62
255
 10
     1088.314359
 20
      991.667305
 30
       19.241705
  0
POINT
  8
Default
 62
255
 10
     1088.366637
 20
      991.684382
 30
       19.223922
  0
POINT
  8
Default
 62
255
 10
     1088.410480
 20
      991.717761
 30
       19.240366
  0
POINT
  8
Default
 62
255
 10
     1088.431868
 20
      991.735832
 30
       19.253146
  0
POINT
  8
Default
 62
255
 10
     1088.423571
 20
      991.761084
 30
       19.285075
  0
POINT
  8
Default
 62
255
 10
     1088.391954
 20
      991.763947
 30
       19.317030
  0
POINT
  8
Default
 62
255
 10
     1088.194569
 20
      991.704954
 30
       19.349210
  0
POINT
  8
Default
 62
255
 10
     1088.156930
 20
      991.592421
 30
       19.307397
  0
POINT
  8
Default
 62
255
 10
     1088.126127
 20
      991.602305
 30
       19.347119
  0
POINT
  8
Default
 62
255
 10
     1088.165174
 20
      991.628114
 30
       19.323884
  0
POINT
  8
Default
 62
255
 10
     1088.171981
 20
      991.698363
 30
       19.398477
  0
POINT
  8
Default
 62
255
 10
     1088.226267
 20
      991.721126
 30
       19.388744
  0
POINT
  8
Default
 62
255
 10
     1088.177931
 20
      991.718585
 30
       19.441447
  0
POINT
  8
Default
 62
255
 10
     1088.097228
 20
      991.649056
 30
       19.428152
  0
POINT
  8
Default
 62
255
 10
     1088.316786
 20
      991.696589
 30
       19.263072
  0
POINT
  8
Default
 62
255
 10
     1088.315049
 20
      991.639894
 30
       19.203192
  0
POINT
  8
Default
 62
255
 10
     1088.282249
 20
      991.616468
 30
       19.201176
  0
POINT
  8
Default
 62
255
 10
     1088.232597
 20
      991.666651
 30
       19.291520
  0
POINT
  8
Default
 62
255
 10
     1088.270026
 20
      991.669075
 30
       19.264671
  0
POINT
  8
Default
 62
255
 10
     1088.279825
 20
      991.644910
 30
       19.242707
  0
POINT
  8
Default
 62
255
 10
     1088.246851
 20
      991.627536
 30
       19.247798
  0
POINT
  8
Default
 62
255
 10
     1088.225812
 20
      991.637258
 30
       19.272090
  0
POINT
  8
Default
 62
255
 10
     1088.200867
 20
      991.668082
 30
       19.318907
  0
POINT
  8
Default
 62
255
 10
     1088.184942
 20
      991.664269
 30
       19.334093
  0
POINT
  8
Default
 62
255
 10
     1088.167321
 20
      991.667495
 30
       19.354001
  0
POINT
  8
Default
 62
255
 10
     1088.196820
 20
      991.623754
 30
       19.284859
  0
POINT
  8
Default
 62
255
 10
     1088.255015
 20
      991.648943
 30
       19.261051
  0
POINT
  8
Default
 62
255
 10
     1088.158027
 20
      991.682748
 30
       19.394294
  0
POINT
  8
Default
 62
255
 10
     1088.115951
 20
      991.544835
 30
       19.318410
  0
POINT
  8
Default
 62
255
 10
     1088.193910
 20
      991.582824
 30
       19.266100
  0
POINT
  8
Default
 62
255
 10
     1088.147128
 20
      991.568693
 30
       19.305875
  0
POINT
  8
Default
 62
255
 10
     1088.150001
 20
      991.533743
 30
       19.290235
  0
POINT
  8
Default
 62
255
 10
     1088.116031
 20
      991.580710
 30
       19.347544
  0
POINT
  8
Default
 62
255
 10
     1088.194824
 20
      991.561972
 30
       19.250079
  0
POINT
  8
Default
 62
255
 10
     1088.173733
 20
      991.517698
 30
       19.260065
  0
POINT
  8
Default
 62
255
 10
     1088.123247
 20
      991.529345
 30
       19.308573
  0
POINT
  8
Default
 62
255
 10
     1088.119533
 20
      991.502173
 30
       19.305459
  0
POINT
  8
Default
 62
255
 10
     1088.096168
 20
      991.582824
 30
       19.357280
  0
POINT
  8
Default
 62
255
 10
     1088.073881
 20
      991.539630
 30
       19.358852
  0
POINT
  8
Default
 62
255
 10
     1088.102056
 20
      991.550236
 30
       19.331516
  0
POINT
  8
Default
 62
255
 10
     1088.100485
 20
      991.512321
 30
       19.327651
  0
POINT
  8
Default
 62
255
 10
     1088.052716
 20
      991.494319
 30
       19.370336
  0
POINT
  8
Default
 62
255
 10
     1088.102790
 20
      991.446553
 30
       19.299796
  0
POINT
  8
Default
 62
255
 10
     1088.071300
 20
      991.433701
 30
       19.339415
  0
POINT
  8
Default
 62
255
 10
     1088.082866
 20
      991.483572
 30
       19.336372
  0
POINT
  8
Default
 62
255
 10
     1088.036679
 20
      991.455089
 30
       19.388779
  0
POINT
  8
Default
 62
255
 10
     1088.072972
 20
      991.402336
 30
       19.330379
  0
POINT
  8
Default
 62
255
 10
     1088.634939
 20
      990.945762
 30
       19.406701
  0
POINT
  8
Default
 62
255
 10
     1088.707490
 20
      990.989193
 30
       19.372360
  0
POINT
  8
Default
 62
255
 10
     1088.741401
 20
      991.039951
 30
       19.361764
  0
POINT
  8
Default
 62
255
 10
     1088.686545
 20
      990.998539
 30
       19.350851
  0
POINT
  8
Default
 62
255
 10
     1088.686034
 20
      991.088723
 30
       19.266154
  0
POINT
  8
Default
 62
255
 10
     1088.684523
 20
      991.064229
 30
       19.286280
  0
POINT
  8
Default
 62
255
 10
     1088.655525
 20
      991.042516
 30
       19.296385
  0
POINT
  8
Default
 62
255
 10
     1088.629798
 20
      991.051465
 30
       19.287830
  0
POINT
  8
Default
 62
255
 10
     1088.638703
 20
      991.084653
 30
       19.257418
  0
POINT
  8
Default
 62
255
 10
     1088.608895
 20
      991.041247
 30
       19.296360
  0
POINT
  8
Default
 62
255
 10
     1088.595215
 20
      991.059402
 30
       19.268595
  0
POINT
  8
Default
 62
255
 10
     1088.605066
 20
      991.091001
 30
       19.233396
  0
POINT
  8
Default
 62
255
 10
     1088.682480
 20
      990.979382
 30
       19.370534
  0
POINT
  8
Default
 62
255
 10
     1088.701976
 20
      991.029649
 30
       19.330281
  0
POINT
  8
Default
 62
255
 10
     1088.667850
 20
      991.025804
 30
       19.321342
  0
POINT
  8
Default
 62
255
 10
     1088.691210
 20
      991.048611
 30
       19.302587
  0
POINT
  8
Default
 62
255
 10
     1088.597963
 20
      991.016706
 30
       19.313418
  0
POINT
  8
Default
 62
255
 10
     1088.627536
 20
      991.028826
 30
       19.311496
  0
POINT
  8
Default
 62
255
 10
     1088.627314
 20
      991.003232
 30
       19.342456
  0
POINT
  8
Default
 62
255
 10
     1088.629402
 20
      990.984207
 30
       19.364447
  0
POINT
  8
Default
 62
255
 10
     1088.565929
 20
      991.014014
 30
       19.311452
  0
POINT
  8
Default
 62
255
 10
     1088.561535
 20
      991.050028
 30
       19.242390
  0
POINT
  8
Default
 62
255
 10
     1088.521660
 20
      990.927733
 30
       19.387207
  0
POINT
  8
Default
 62
255
 10
     1088.552012
 20
      990.955235
 30
       19.370998
  0
POINT
  8
Default
 62
255
 10
     1088.543952
 20
      990.997020
 30
       19.313214
  0
POINT
  8
Default
 62
255
 10
     1088.480508
 20
      990.961162
 30
       19.361133
  0
POINT
  8
Default
 62
255
 10
     1088.519221
 20
      990.979608
 30
       19.349548
  0
POINT
  8
Default
 62
255
 10
     1088.523548
 20
      990.950351
 30
       19.378154
  0
POINT
  8
Default
 62
255
 10
     1088.544528
 20
      990.896604
 30
       19.397663
  0
POINT
  8
Default
 62
255
 10
     1088.576936
 20
      990.909496
 30
       19.394612
  0
POINT
  8
Default
 62
255
 10
     1088.619410
 20
      990.930284
 30
       19.405391
  0
POINT
  8
Default
 62
255
 10
     1088.585895
 20
      990.941917
 30
       19.381415
  0
POINT
  8
Default
 62
255
 10
     1088.581196
 20
      990.979375
 30
       19.350277
  0
POINT
  8
Default
 62
255
 10
     1088.491892
 20
      990.925241
 30
       19.386772
  0
POINT
  8
Default
 62
255
 10
     1088.603588
 20
      990.908513
 30
       19.410141
  0
POINT
  8
Default
 62
255
 10
     1088.449497
 20
      991.101020
 30
       19.205848
  0
POINT
  8
Default
 62
255
 10
     1088.415888
 20
      991.085993
 30
       19.228804
  0
POINT
  8
Default
 62
255
 10
     1088.395871
 20
      991.071935
 30
       19.252700
  0
POINT
  8
Default
 62
255
 10
     1088.330468
 20
      991.145061
 30
       19.220165
  0
POINT
  8
Default
 62
255
 10
     1088.370141
 20
      991.139919
 30
       19.199648
  0
POINT
  8
Default
 62
255
 10
     1088.389077
 20
      991.028481
 30
       19.312190
  0
POINT
  8
Default
 62
255
 10
     1088.358919
 20
      991.012674
 30
       19.340081
  0
POINT
  8
Default
 62
255
 10
     1088.363676
 20
      990.983603
 30
       19.370475
  0
POINT
  8
Default
 62
255
 10
     1088.410701
 20
      991.033695
 30
       19.285483
  0
POINT
  8
Default
 62
255
 10
     1088.413455
 20
      990.992697
 30
       19.332966
  0
POINT
  8
Default
 62
255
 10
     1088.448002
 20
      991.074750
 30
       19.224154
  0
POINT
  8
Default
 62
255
 10
     1088.438437
 20
      991.048035
 30
       19.261925
  0
POINT
  8
Default
 62
255
 10
     1088.472649
 20
      991.036177
 30
       19.262274
  0
POINT
  8
Default
 62
255
 10
     1088.483588
 20
      991.056686
 30
       19.235612
  0
POINT
  8
Default
 62
255
 10
     1088.545532
 20
      991.105243
 30
       19.188582
  0
POINT
  8
Default
 62
255
 10
     1088.564226
 20
      991.078604
 30
       19.218055
  0
POINT
  8
Default
 62
255
 10
     1088.527713
 20
      991.060339
 30
       19.222631
  0
POINT
  8
Default
 62
255
 10
     1088.467050
 20
      990.988388
 30
       19.316404
  0
POINT
  8
Default
 62
255
 10
     1088.439602
 20
      991.011325
 30
       19.296771
  0
POINT
  8
Default
 62
255
 10
     1088.476932
 20
      991.015154
 30
       19.286440
  0
POINT
  8
Default
 62
255
 10
     1088.514953
 20
      991.018586
 30
       19.280173
  0
POINT
  8
Default
 62
255
 10
     1088.321282
 20
      991.105336
 30
       19.255559
  0
POINT
  8
Default
 62
255
 10
     1088.339657
 20
      991.081316
 30
       19.277022
  0
POINT
  8
Default
 62
255
 10
     1088.230227
 20
      991.167002
 30
       19.269270
  0
POINT
  8
Default
 62
255
 10
     1088.181736
 20
      991.188512
 30
       19.293865
  0
POINT
  8
Default
 62
255
 10
     1088.259279
 20
      991.194390
 30
       19.212571
  0
POINT
  8
Default
 62
255
 10
     1088.207417
 20
      991.237552
 30
       19.229950
  0
POINT
  8
Default
 62
255
 10
     1088.229703
 20
      991.261042
 30
       19.210457
  0
POINT
  8
Default
 62
255
 10
     1088.231426
 20
      991.299654
 30
       19.188792
  0
POINT
  8
Default
 62
255
 10
     1088.283607
 20
      991.188473
 30
       19.202102
  0
POINT
  8
Default
 62
255
 10
     1088.267340
 20
      991.166888
 30
       19.229966
  0
POINT
  8
Default
 62
255
 10
     1088.310094
 20
      991.181329
 30
       19.195441
  0
POINT
  8
Default
 62
255
 10
     1088.299622
 20
      991.151913
 30
       19.229883
  0
POINT
  8
Default
 62
255
 10
     1089.231933
 20
      991.571878
 30
       19.448673
  0
POINT
  8
Default
 62
255
 10
     1089.224945
 20
      991.617027
 30
       19.446198
  0
POINT
  8
Default
 62
255
 10
     1089.234699
 20
      991.650336
 30
       19.469445
  0
POINT
  8
Default
 62
255
 10
     1089.212122
 20
      991.680825
 30
       19.486603
  0
POINT
  8
Default
 62
255
 10
     1089.220628
 20
      991.669437
 30
       19.482233
  0
POINT
  8
Default
 62
255
 10
     1089.211870
 20
      991.639985
 30
       19.447213
  0
POINT
  8
Default
 62
255
 10
     1089.200381
 20
      991.671725
 30
       19.463771
  0
POINT
  8
Default
 62
255
 10
     1089.181778
 20
      991.677328
 30
       19.454807
  0
POINT
  8
Default
 62
255
 10
     1089.192358
 20
      991.659153
 30
       19.443074
  0
POINT
  8
Default
 62
255
 10
     1089.243040
 20
      991.627324
 30
       19.457587
  0
POINT
  8
Default
 62
255
 10
     1089.264109
 20
      991.582522
 30
       19.456740
  0
POINT
  8
Default
 62
255
 10
     1089.277774
 20
      991.600549
 30
       19.472103
  0
POINT
  8
Default
 62
255
 10
     1089.267731
 20
      991.628447
 30
       19.487159
  0
POINT
  8
Default
 62
255
 10
     1089.247888
 20
      991.642879
 30
       19.488508
  0
POINT
  8
Default
 62
255
 10
     1089.239450
 20
      991.665064
 30
       19.495106
  0
POINT
  8
Default
 62
255
 10
     1089.170972
 20
      991.652366
 30
       19.431871
  0
POINT
  8
Default
 62
255
 10
     1089.191835
 20
      991.639801
 30
       19.433054
  0
POINT
  8
Default
 62
255
 10
     1089.196746
 20
      991.607434
 30
       19.423334
  0
POINT
  8
Default
 62
255
 10
     1089.225517
 20
      991.588236
 30
       19.438938
  0
POINT
  8
Default
 62
255
 10
     1089.206341
 20
      991.570921
 30
       19.415787
  0
POINT
  8
Default
 62
255
 10
     1089.176706
 20
      991.609935
 30
       19.407961
  0
POINT
  8
Default
 62
255
 10
     1089.147069
 20
      991.666910
 30
       19.432032
  0
POINT
  8
Default
 62
255
 10
     1089.208296
 20
      991.698872
 30
       19.491484
  0
POINT
  8
Default
 62
255
 10
     1089.180131
 20
      991.701032
 30
       19.472113
  0
POINT
  8
Default
 62
255
 10
     1089.195194
 20
      991.695242
 30
       19.476182
  0
POINT
  8
Default
 62
255
 10
     1089.142194
 20
      991.651270
 30
       19.418607
  0
POINT
  8
Default
 62
255
 10
     1089.113034
 20
      991.669679
 30
       19.417501
  0
POINT
  8
Default
 62
255
 10
     1089.127904
 20
      991.677148
 30
       19.434666
  0
POINT
  8
Default
 62
255
 10
     1089.156473
 20
      991.684440
 30
       19.451511
  0
POINT
  8
Default
 62
255
 10
     1089.140482
 20
      991.680134
 30
       19.443145
  0
POINT
  8
Default
 62
255
 10
     1089.107073
 20
      991.766301
 30
       19.492037
  0
POINT
  8
Default
 62
255
 10
     1089.089849
 20
      991.769677
 30
       19.468447
  0
POINT
  8
Default
 62
255
 10
     1089.071104
 20
      991.774795
 30
       19.452151
  0
POINT
  8
Default
 62
255
 10
     1089.079031
 20
      991.754798
 30
       19.443615
  0
POINT
  8
Default
 62
255
 10
     1089.127749
 20
      991.756370
 30
       19.481932
  0
POINT
  8
Default
 62
255
 10
     1089.127358
 20
      991.739984
 30
       19.474294
  0
POINT
  8
Default
 62
255
 10
     1089.099582
 20
      991.738959
 30
       19.446310
  0
POINT
  8
Default
 62
255
 10
     1089.117574
 20
      991.725159
 30
       19.455656
  0
POINT
  8
Default
 62
255
 10
     1089.150213
 20
      991.743709
 30
       19.486993
  0
POINT
  8
Default
 62
255
 10
     1089.119842
 20
      991.768548
 30
       19.521716
  0
POINT
  8
Default
 62
255
 10
     1089.055063
 20
      991.789644
 30
       19.556784
  0
POINT
  8
Default
 62
255
 10
     1089.071975
 20
      991.777669
 30
       19.523299
  0
POINT
  8
Default
 62
255
 10
     1089.100029
 20
      991.786358
 30
       19.536120
  0
POINT
  8
Default
 62
255
 10
     1088.062571
 20
      991.291210
 30
       19.386774
  0
POINT
  8
Default
 62
255
 10
     1088.061177
 20
      991.270990
 30
       19.386977
  0
POINT
  8
Default
 62
255
 10
     1088.044048
 20
      991.272995
 30
       19.390761
  0
POINT
  8
Default
 62
255
 10
     1088.053201
 20
      991.256796
 30
       19.385052
  0
POINT
  8
Default
 62
255
 10
     1088.076481
 20
      991.264907
 30
       19.380193
  0
POINT
  8
Default
 62
255
 10
     1088.056284
 20
      991.229018
 30
       19.388036
  0
POINT
  8
Default
 62
255
 10
     1088.035829
 20
      991.252345
 30
       19.409011
  0
POINT
  8
Default
 62
255
 10
     1088.051510
 20
      991.200147
 30
       19.443286
  0
POINT
  8
Default
 62
255
 10
     1088.070851
 20
      991.137810
 30
       19.397022
  0
POINT
  8
Default
 62
255
 10
     1088.070038
 20
      991.187741
 30
       19.392891
  0
POINT
  8
Default
 62
255
 10
     1088.097713
 20
      991.192809
 30
       19.372152
  0
POINT
  8
Default
 62
255
 10
     1088.107608
 20
      991.217282
 30
       19.363861
  0
POINT
  8
Default
 62
255
 10
     1088.126631
 20
      991.215503
 30
       19.350432
  0
POINT
  8
Default
 62
255
 10
     1088.094280
 20
      991.158743
 30
       19.381802
  0
POINT
  8
Default
 62
255
 10
     1088.115350
 20
      991.127704
 30
       19.383642
  0
POINT
  8
Default
 62
255
 10
     1088.110747
 20
      991.091633
 30
       19.401040
  0
POINT
  8
Default
 62
255
 10
     1088.092970
 20
      991.277091
 30
       19.377380
  0
POINT
  8
Default
 62
255
 10
     1088.107889
 20
      991.281006
 30
       19.338113
  0
POINT
  8
Default
 62
255
 10
     1088.109399
 20
      991.242291
 30
       19.330592
  0
POINT
  8
Default
 62
255
 10
     1088.136543
 20
      991.235974
 30
       19.289113
  0
POINT
  8
Default
 62
255
 10
     1088.211276
 20
      991.001367
 30
       19.380902
  0
POINT
  8
Default
 62
255
 10
     1088.198238
 20
      990.979566
 30
       19.389442
  0
POINT
  8
Default
 62
255
 10
     1088.249573
 20
      991.015983
 30
       19.367712
  0
POINT
  8
Default
 62
255
 10
     1088.268825
 20
      991.001668
 30
       19.365274
  0
POINT
  8
Default
 62
255
 10
     1088.303079
 20
      990.990099
 30
       19.366075
  0
POINT
  8
Default
 62
255
 10
     1088.296926
 20
      991.007082
 30
       19.365000
  0
POINT
  8
Default
 62
255
 10
     1088.299686
 20
      990.966896
 30
       19.370734
  0
POINT
  8
Default
 62
255
 10
     1088.219958
 20
      990.975176
 30
       19.486635
  0
POINT
  8
Default
 62
255
 10
     1088.291322
 20
      990.937113
 30
       19.469942
  0
POINT
  8
Default
 62
255
 10
     1088.263646
 20
      990.956021
 30
       19.470485
  0
POINT
  8
Default
 62
255
 10
     1088.203383
 20
      990.988419
 30
       19.470371
  0
POINT
  8
Default
 62
255
 10
     1088.391127
 20
      990.918987
 30
       19.439346
  0
POINT
  8
Default
 62
255
 10
     1088.362383
 20
      990.969880
 30
       19.375886
  0
POINT
  8
Default
 62
255
 10
     1088.340542
 20
      990.943114
 30
       19.384672
  0
POINT
  8
Default
 62
255
 10
     1088.385030
 20
      990.960356
 30
       19.379927
  0
POINT
  8
Default
 62
255
 10
     1088.422124
 20
      990.950546
 30
       19.369862
  0
POINT
  8
Default
 62
255
 10
     1088.367751
 20
      990.943885
 30
       19.384494
  0
POINT
  8
Default
 62
255
 10
     1088.393684
 20
      990.936982
 30
       19.382484
  0
POINT
  8
Default
 62
255
 10
     1088.418121
 20
      990.924763
 30
       19.382301
  0
POINT
  8
Default
 62
255
 10
     1088.445184
 20
      990.929288
 30
       19.378742
  0
POINT
  8
Default
 62
255
 10
     1088.475574
 20
      990.931148
 30
       19.379426
  0
POINT
  8
Default
 62
255
 10
     1088.412261
 20
      990.959744
 30
       19.368811
  0
POINT
  8
Default
 62
255
 10
     1088.488550
 20
      990.975643
 30
       19.332320
  0
POINT
  8
Default
 62
255
 10
     1088.448751
 20
      990.961897
 30
       19.350384
  0
POINT
  8
Default
 62
255
 10
     1088.500627
 20
      990.957211
 30
       19.368364
  0
POINT
  8
Default
 62
255
 10
     1088.403814
 20
      990.976024
 30
       19.351082
  0
POINT
  8
Default
 62
255
 10
     1088.427055
 20
      990.972055
 30
       19.350962
  0
POINT
  8
Default
 62
255
 10
     1088.419557
 20
      991.066638
 30
       19.241194
  0
POINT
  8
Default
 62
255
 10
     1088.370920
 20
      991.057660
 30
       19.285424
  0
POINT
  8
Default
 62
255
 10
     1088.371381
 20
      991.039237
 30
       19.304757
  0
POINT
  8
Default
 62
255
 10
     1088.374459
 20
      991.002845
 30
       19.348876
  0
POINT
  8
Default
 62
255
 10
     1088.400357
 20
      991.019341
 30
       19.322507
  0
POINT
  8
Default
 62
255
 10
     1088.386062
 20
      990.981942
 30
       19.364266
  0
POINT
  8
Default
 62
255
 10
     1088.438858
 20
      990.990474
 30
       19.314591
  0
POINT
  8
Default
 62
255
 10
     1088.365062
 20
      991.074740
 30
       19.270195
  0
POINT
  8
Default
 62
255
 10
     1088.565655
 20
      990.927317
 30
       19.386886
  0
POINT
  8
Default
 62
255
 10
     1088.536044
 20
      990.912717
 30
       19.390641
  0
POINT
  8
Default
 62
255
 10
     1088.513002
 20
      990.910902
 30
       19.398866
  0
POINT
  8
Default
 62
255
 10
     1088.505056
 20
      990.894637
 30
       19.476178
  0
POINT
  8
Default
 62
255
 10
     1088.505131
 20
      990.993465
 30
       19.320044
  0
POINT
  8
Default
 62
255
 10
     1088.579704
 20
      990.883330
 30
       19.405039
  0
POINT
  8
Default
 62
255
 10
     1088.680049
 20
      990.949446
 30
       19.423457
  0
POINT
  8
Default
 62
255
 10
     1088.647014
 20
      991.002832
 30
       19.343221
  0
POINT
  8
Default
 62
255
 10
     1088.602375
 20
      990.979913
 30
       19.355231
  0
POINT
  8
Default
 62
255
 10
     1088.610688
 20
      990.951979
 30
       19.376690
  0
POINT
  8
Default
 62
255
 10
     1088.561529
 20
      991.022352
 30
       19.291680
  0
POINT
  8
Default
 62
255
 10
     1088.645654
 20
      990.965834
 30
       19.382810
  0
POINT
  8
Default
 62
255
 10
     1088.642419
 20
      990.922438
 30
       19.440015
  0
POINT
  8
Default
 62
255
 10
     1088.702473
 20
      990.967865
 30
       19.403423
  0
POINT
  8
Default
 62
255
 10
     1088.750404
 20
      990.952226
 30
       19.498356
  0
POINT
  8
Default
 62
255
 10
     1088.701393
 20
      990.932562
 30
       19.466377
  0
POINT
  8
Default
 62
255
 10
     1088.724824
 20
      990.931748
 30
       19.478261
  0
POINT
  8
Default
 62
255
 10
     1088.713272
 20
      990.959867
 30
       19.437681
  0
POINT
  8
Default
 62
255
 10
     1088.745401
 20
      990.987455
 30
       19.435284
  0
POINT
  8
Default
 62
255
 10
     1088.739296
 20
      990.963889
 30
       19.458921
  0
POINT
  8
Default
 62
255
 10
     1088.669990
 20
      990.934352
 30
       19.449428
  0
POINT
  8
Default
 62
255
 10
     1088.765826
 20
      990.946401
 30
       19.530645
  0
POINT
  8
Default
 62
255
 10
     1088.784768
 20
      990.978037
 30
       19.496613
  0
POINT
  8
Default
 62
255
 10
     1088.793046
 20
      991.006578
 30
       19.448490
  0
POINT
  8
Default
 62
255
 10
     1088.758934
 20
      990.981629
 30
       19.457922
  0
POINT
  8
Default
 62
255
 10
     1088.738680
 20
      991.008162
 30
       19.384104
  0
POINT
  8
Default
 62
255
 10
     1088.767545
 20
      991.007486
 30
       19.429133
  0
POINT
  8
Default
 62
255
 10
     1088.825984
 20
      991.006126
 30
       19.497399
  0
POINT
  8
Default
 62
255
 10
     1088.841771
 20
      991.033131
 30
       19.483646
  0
POINT
  8
Default
 62
255
 10
     1088.830437
 20
      991.048284
 30
       19.439646
  0
POINT
  8
Default
 62
255
 10
     1088.795731
 20
      991.029080
 30
       19.438760
  0
POINT
  8
Default
 62
255
 10
     1088.773293
 20
      991.039276
 30
       19.408759
  0
POINT
  8
Default
 62
255
 10
     1088.818303
 20
      991.057505
 30
       19.421872
  0
POINT
  8
Default
 62
255
 10
     1088.877862
 20
      991.089528
 30
       19.452387
  0
POINT
  8
Default
 62
255
 10
     1088.848562
 20
      991.056789
 30
       19.461928
  0
POINT
  8
Default
 62
255
 10
     1088.755231
 20
      991.009723
 30
       19.407916
  0
POINT
  8
Default
 62
255
 10
     1088.721172
 20
      991.012975
 30
       19.354302
  0
POINT
  8
Default
 62
255
 10
     1088.946005
 20
      991.254717
 30
       19.384290
  0
POINT
  8
Default
 62
255
 10
     1088.967078
 20
      991.299331
 30
       19.393734
  0
POINT
  8
Default
 62
255
 10
     1089.028160
 20
      991.326215
 30
       19.396291
  0
POINT
  8
Default
 62
255
 10
     1089.020879
 20
      991.305222
 30
       19.397340
  0
POINT
  8
Default
 62
255
 10
     1088.986514
 20
      991.278329
 30
       19.392078
  0
POINT
  8
Default
 62
255
 10
     1088.228016
 20
      992.333534
 30
       19.643114
  0
POINT
  8
Default
 62
255
 10
     1088.225570
 20
      992.298475
 30
       19.638238
  0
POINT
  8
Default
 62
255
 10
     1088.236986
 20
      992.273536
 30
       19.627945
  0
POINT
  8
Default
 62
255
 10
     1088.273180
 20
      992.307238
 30
       19.638495
  0
POINT
  8
Default
 62
255
 10
     1088.267287
 20
      992.346432
 30
       19.642020
  0
POINT
  8
Default
 62
255
 10
     1088.245363
 20
      992.366018
 30
       19.651873
  0
POINT
  8
Default
 62
255
 10
     1088.199257
 20
      992.377688
 30
       19.667971
  0
POINT
  8
Default
 62
255
 10
     1088.221642
 20
      992.378977
 30
       19.658931
  0
POINT
  8
Default
 62
255
 10
     1088.185629
 20
      992.346817
 30
       19.659175
  0
POINT
  8
Default
 62
255
 10
     1088.190594
 20
      992.327256
 30
       19.652193
  0
POINT
  8
Default
 62
255
 10
     1088.184109
 20
      992.299882
 30
       19.626680
  0
POINT
  8
Default
 62
255
 10
     1088.197814
 20
      992.269165
 30
       19.626129
  0
POINT
  8
Default
 62
255
 10
     1088.162607
 20
      992.289495
 30
       19.595464
  0
POINT
  8
Default
 62
255
 10
     1088.366569
 20
      992.314118
 30
       19.606927
  0
POINT
  8
Default
 62
255
 10
     1088.399542
 20
      992.325289
 30
       19.614656
  0
POINT
  8
Default
 62
255
 10
     1088.326529
 20
      992.291280
 30
       19.621251
  0
POINT
  8
Default
 62
255
 10
     1088.313069
 20
      992.265081
 30
       19.621863
  0
POINT
  8
Default
 62
255
 10
     1088.328370
 20
      992.270695
 30
       19.595861
  0
POINT
  8
Default
 62
255
 10
     1088.277067
 20
      992.260498
 30
       19.613968
  0
POINT
  8
Default
 62
255
 10
     1088.351026
 20
      992.326095
 30
       19.624220
  0
POINT
  8
Default
 62
255
 10
     1088.321185
 20
      992.379114
 30
       19.664959
  0
POINT
  8
Default
 62
255
 10
     1088.325628
 20
      992.358825
 30
       19.640705
  0
POINT
  8
Default
 62
255
 10
     1088.278332
 20
      992.391017
 30
       19.654203
  0
POINT
  8
Default
 62
255
 10
     1088.220088
 20
      992.407487
 30
       19.673576
  0
POINT
  8
Default
 62
255
 10
     1088.406054
 20
      992.329872
 30
       19.633109
  0
POINT
  8
Default
 62
255
 10
     1088.401548
 20
      992.337174
 30
       19.656385
  0
POINT
  8
Default
 62
255
 10
     1088.348880
 20
      992.386468
 30
       19.717602
  0
POINT
  8
Default
 62
255
 10
     1088.339473
 20
      992.372850
 30
       19.696589
  0
POINT
  8
Default
 62
255
 10
     1088.352437
 20
      992.369185
 30
       19.662134
  0
POINT
  8
Default
 62
255
 10
     1088.357024
 20
      992.362795
 30
       19.703068
  0
POINT
  8
Default
 62
255
 10
     1088.381250
 20
      992.349382
 30
       19.684201
  0
POINT
  8
Default
 62
255
 10
     1088.276569
 20
      992.390723
 30
       19.676489
  0
POINT
  8
Default
 62
255
 10
     1088.307573
 20
      992.394518
 30
       19.700110
  0
POINT
  8
Default
 62
255
 10
     1088.295768
 20
      992.385206
 30
       19.664839
  0
POINT
  8
Default
 62
255
 10
     1088.370096
 20
      992.303746
 30
       19.569998
  0
POINT
  8
Default
 62
255
 10
     1088.495475
 20
      992.221854
 30
       19.581568
  0
POINT
  8
Default
 62
255
 10
     1088.490124
 20
      992.238294
 30
       19.600196
  0
POINT
  8
Default
 62
255
 10
     1088.473472
 20
      992.254302
 30
       19.613208
  0
POINT
  8
Default
 62
255
 10
     1088.460569
 20
      992.265000
 30
       19.607952
  0
POINT
  8
Default
 62
255
 10
     1088.477117
 20
      992.255661
 30
       19.650676
  0
POINT
  8
Default
 62
255
 10
     1088.507913
 20
      992.249196
 30
       19.652825
  0
POINT
  8
Default
 62
255
 10
     1088.512120
 20
      992.265546
 30
       19.666359
  0
POINT
  8
Default
 62
255
 10
     1088.496205
 20
      992.266975
 30
       19.660695
  0
POINT
  8
Default
 62
255
 10
     1088.514831
 20
      992.235660
 30
       19.630471
  0
POINT
  8
Default
 62
255
 10
     1088.518649
 20
      992.213589
 30
       19.601262
  0
POINT
  8
Default
 62
255
 10
     1088.417866
 20
      992.307211
 30
       19.519713
  0
POINT
  8
Default
 62
255
 10
     1088.385002
 20
      992.227224
 30
       19.538151
  0
POINT
  8
Default
 62
255
 10
     1088.352374
 20
      992.203207
 30
       19.556366
  0
POINT
  8
Default
 62
255
 10
     1088.350766
 20
      992.254663
 30
       19.552373
  0
POINT
  8
Default
 62
255
 10
     1088.341363
 20
      992.155021
 30
       19.551550
  0
POINT
  8
Default
 62
255
 10
     1088.370799
 20
      992.171139
 30
       19.545716
  0
POINT
  8
Default
 62
255
 10
     1088.401425
 20
      992.185624
 30
       19.540180
  0
POINT
  8
Default
 62
255
 10
     1088.429170
 20
      992.254019
 30
       19.517978
  0
POINT
  8
Default
 62
255
 10
     1088.415050
 20
      992.274471
 30
       19.517019
  0
POINT
  8
Default
 62
255
 10
     1088.448073
 20
      992.242236
 30
       19.512823
  0
POINT
  8
Default
 62
255
 10
     1088.435996
 20
      992.202404
 30
       19.524964
  0
POINT
  8
Default
 62
255
 10
     1088.481762
 20
      992.232147
 30
       19.513766
  0
POINT
  8
Default
 62
255
 10
     1088.494113
 20
      992.203764
 30
       19.517491
  0
POINT
  8
Default
 62
255
 10
     1088.376414
 20
      992.279127
 30
       19.533649
  0
POINT
  8
Default
 62
255
 10
     1088.446730
 20
      992.273527
 30
       19.512148
  0
POINT
  8
Default
 62
255
 10
     1088.298711
 20
      992.164563
 30
       19.580099
  0
POINT
  8
Default
 62
255
 10
     1088.266400
 20
      992.180890
 30
       19.582537
  0
POINT
  8
Default
 62
255
 10
     1088.244107
 20
      992.180305
 30
       19.589341
  0
POINT
  8
Default
 62
255
 10
     1088.320581
 20
      992.158552
 30
       19.563281
  0
POINT
  8
Default
 62
255
 10
     1088.353468
 20
      992.137041
 30
       19.539872
  0
POINT
  8
Default
 62
255
 10
     1088.414824
 20
      992.165430
 30
       19.535747
  0
POINT
  8
Default
 62
255
 10
     1088.377642
 20
      992.148466
 30
       19.537448
  0
POINT
  8
Default
 62
255
 10
     1088.240215
 20
      992.108465
 30
       19.576060
  0
POINT
  8
Default
 62
255
 10
     1088.273596
 20
      992.131985
 30
       19.580339
  0
POINT
  8
Default
 62
255
 10
     1088.288606
 20
      992.097058
 30
       19.570822
  0
POINT
  8
Default
 62
255
 10
     1088.306720
 20
      992.087235
 30
       19.536394
  0
POINT
  8
Default
 62
255
 10
     1088.374665
 20
      992.125255
 30
       19.520387
  0
POINT
  8
Default
 62
255
 10
     1088.349930
 20
      992.101292
 30
       19.513722
  0
POINT
  8
Default
 62
255
 10
     1088.325188
 20
      992.114367
 30
       19.550453
  0
POINT
  8
Default
 62
255
 10
     1088.378488
 20
      992.106132
 30
       19.493570
  0
POINT
  8
Default
 62
255
 10
     1088.413712
 20
      992.136940
 30
       19.515199
  0
POINT
  8
Default
 62
255
 10
     1088.243134
 20
      992.050819
 30
       19.562157
  0
POINT
  8
Default
 62
255
 10
     1088.242432
 20
      992.030112
 30
       19.548237
  0
POINT
  8
Default
 62
255
 10
     1088.271268
 20
      992.071602
 30
       19.564147
  0
POINT
  8
Default
 62
255
 10
     1088.271075
 20
      992.011873
 30
       19.506309
  0
POINT
  8
Default
 62
255
 10
     1088.301758
 20
      992.038565
 30
       19.498537
  0
POINT
  8
Default
 62
255
 10
     1088.347960
 20
      992.090498
 30
       19.494623
  0
POINT
  8
Default
 62
255
 10
     1088.352642
 20
      992.075796
 30
       19.485780
  0
POINT
  8
Default
 62
255
 10
     1088.425938
 20
      992.106366
 30
       19.481236
  0
POINT
  8
Default
 62
255
 10
     1088.412003
 20
      992.091636
 30
       19.475438
  0
POINT
  8
Default
 62
255
 10
     1088.439647
 20
      992.083833
 30
       19.465386
  0
POINT
  8
Default
 62
255
 10
     1088.410823
 20
      992.067607
 30
       19.462360
  0
POINT
  8
Default
 62
255
 10
     1088.452909
 20
      992.107160
 30
       19.475376
  0
POINT
  8
Default
 62
255
 10
     1088.481132
 20
      992.107984
 30
       19.473872
  0
POINT
  8
Default
 62
255
 10
     1088.477327
 20
      992.135383
 30
       19.499415
  0
POINT
  8
Default
 62
255
 10
     1088.446622
 20
      992.138302
 30
       19.513543
  0
POINT
  8
Default
 62
255
 10
     1088.448769
 20
      992.176519
 30
       19.530413
  0
POINT
  8
Default
 62
255
 10
     1088.512451
 20
      992.090420
 30
       19.470999
  0
POINT
  8
Default
 62
255
 10
     1088.482615
 20
      992.072446
 30
       19.467003
  0
POINT
  8
Default
 62
255
 10
     1088.450282
 20
      992.014086
 30
       19.479529
  0
POINT
  8
Default
 62
255
 10
     1088.559750
 20
      992.146695
 30
       19.493336
  0
POINT
  8
Default
 62
255
 10
     1088.537274
 20
      992.148088
 30
       19.496458
  0
POINT
  8
Default
 62
255
 10
     1088.600892
 20
      992.132941
 30
       19.491158
  0
POINT
  8
Default
 62
255
 10
     1088.525961
 20
      992.068435
 30
       19.478167
  0
POINT
  8
Default
 62
255
 10
     1088.595175
 20
      992.104222
 30
       19.479489
  0
POINT
  8
Default
 62
255
 10
     1088.564252
 20
      992.098220
 30
       19.476802
  0
POINT
  8
Default
 62
255
 10
     1088.545959
 20
      992.101258
 30
       19.475803
  0
POINT
  8
Default
 62
255
 10
     1088.560613
 20
      992.171554
 30
       19.508158
  0
POINT
  8
Default
 62
255
 10
     1088.511869
 20
      992.165041
 30
       19.511958
  0
POINT
  8
Default
 62
255
 10
     1088.517036
 20
      992.196409
 30
       19.524210
  0
POINT
  8
Default
 62
255
 10
     1088.596209
 20
      992.159906
 30
       19.506872
  0
POINT
  8
Default
 62
255
 10
     1088.510653
 20
      991.974984
 30
       19.511640
  0
POINT
  8
Default
 62
255
 10
     1088.530257
 20
      991.948470
 30
       19.519415
  0
POINT
  8
Default
 62
255
 10
     1088.499817
 20
      991.929492
 30
       19.516722
  0
POINT
  8
Default
 62
255
 10
     1088.518094
 20
      991.993448
 30
       19.505491
  0
POINT
  8
Default
 62
255
 10
     1088.567286
 20
      991.924194
 30
       19.555698
  0
POINT
  8
Default
 62
255
 10
     1088.547121
 20
      991.966772
 30
       19.546970
  0
POINT
  8
Default
 62
255
 10
     1088.551355
 20
      991.943241
 30
       19.544625
  0
POINT
  8
Default
 62
255
 10
     1088.556522
 20
      991.913361
 30
       19.527189
  0
POINT
  8
Default
 62
255
 10
     1088.527533
 20
      991.915297
 30
       19.521742
  0
POINT
  8
Default
 62
255
 10
     1088.612342
 20
      991.905962
 30
       19.559751
  0
POINT
  8
Default
 62
255
 10
     1088.623202
 20
      991.889673
 30
       19.552327
  0
POINT
  8
Default
 62
255
 10
     1088.546652
 20
      991.985713
 30
       19.547469
  0
POINT
  8
Default
 62
255
 10
     1088.560222
 20
      991.995037
 30
       19.557473
  0
POINT
  8
Default
 62
255
 10
     1088.577269
 20
      991.983130
 30
       19.560075
  0
POINT
  8
Default
 62
255
 10
     1088.559974
 20
      992.029746
 30
       19.547347
  0
POINT
  8
Default
 62
255
 10
     1088.549527
 20
      992.010709
 30
       19.553361
  0
POINT
  8
Default
 62
255
 10
     1088.535036
 20
      991.980573
 30
       19.532177
  0
POINT
  8
Default
 62
255
 10
     1088.643330
 20
      991.843441
 30
       19.525698
  0
POINT
  8
Default
 62
255
 10
     1088.638080
 20
      991.866521
 30
       19.534391
  0
POINT
  8
Default
 62
255
 10
     1088.584996
 20
      991.804050
 30
       19.506681
  0
POINT
  8
Default
 62
255
 10
     1088.577551
 20
      991.778217
 30
       19.498429
  0
POINT
  8
Default
 62
255
 10
     1088.658483
 20
      991.819932
 30
       19.518426
  0
POINT
  8
Default
 62
255
 10
     1088.673708
 20
      991.784648
 30
       19.506823
  0
POINT
  8
Default
 62
255
 10
     1088.689425
 20
      991.767700
 30
       19.508963
  0
POINT
  8
Default
 62
255
 10
     1088.658814
 20
      991.752332
 30
       19.484503
  0
POINT
  8
Default
 62
255
 10
     1088.711109
 20
      991.708983
 30
       19.444718
  0
POINT
  8
Default
 62
255
 10
     1088.678854
 20
      991.748487
 30
       19.486311
  0
POINT
  8
Default
 62
255
 10
     1088.703178
 20
      991.754619
 30
       19.512403
  0
POINT
  8
Default
 62
255
 10
     1088.665935
 20
      991.839392
 30
       19.570930
  0
POINT
  8
Default
 62
255
 10
     1088.692304
 20
      991.825000
 30
       19.708512
  0
POINT
  8
Default
 62
255
 10
     1088.635628
 20
      991.880851
 30
       19.588033
  0
POINT
  8
Default
 62
255
 10
     1088.644822
 20
      991.865710
 30
       19.576468
  0
POINT
  8
Default
 62
255
 10
     1088.712491
 20
      991.797364
 30
       19.640071
  0
POINT
  8
Default
 62
255
 10
     1088.724411
 20
      991.757709
 30
       19.567533
  0
POINT
  8
Default
 62
255
 10
     1088.625451
 20
      991.853366
 30
       19.523644
  0
POINT
  8
Default
 62
255
 10
     1088.701863
 20
      991.810282
 30
       19.695876
  0
POINT
  8
Default
 62
255
 10
     1088.689655
 20
      991.844576
 30
       19.740300
  0
POINT
  8
Default
 62
255
 10
     1088.675819
 20
      991.860080
 30
       19.744071
  0
POINT
  8
Default
 62
255
 10
     1088.659305
 20
      991.868581
 30
       19.744986
  0
POINT
  8
Default
 62
255
 10
     1088.724454
 20
      991.806964
 30
       19.705743
  0
POINT
  8
Default
 62
255
 10
     1088.761901
 20
      991.774256
 30
       19.715602
  0
POINT
  8
Default
 62
255
 10
     1088.725717
 20
      991.816615
 30
       19.750595
  0
POINT
  8
Default
 62
255
 10
     1088.777318
 20
      991.743403
 30
       19.669301
  0
POINT
  8
Default
 62
255
 10
     1088.781993
 20
      991.731736
 30
       19.639292
  0
POINT
  8
Default
 62
255
 10
     1088.737629
 20
      991.766280
 30
       19.649260
  0
POINT
  8
Default
 62
255
 10
     1088.805779
 20
      991.741850
 30
       19.684126
  0
POINT
  8
Default
 62
255
 10
     1088.697962
 20
      991.850124
 30
       19.751646
  0
POINT
  8
Default
 62
255
 10
     1088.721183
 20
      991.845673
 30
       19.772960
  0
POINT
  8
Default
 62
255
 10
     1088.741509
 20
      991.834638
 30
       19.781703
  0
POINT
  8
Default
 62
255
 10
     1088.658779
 20
      991.856501
 30
       19.739729
  0
POINT
  8
Default
 62
255
 10
     1088.635265
 20
      991.900367
 30
       19.738460
  0
POINT
  8
Default
 62
255
 10
     1088.632426
 20
      991.863581
 30
       19.686008
  0
POINT
  8
Default
 62
255
 10
     1088.628853
 20
      991.865601
 30
       19.728537
  0
POINT
  8
Default
 62
255
 10
     1088.599692
 20
      991.956537
 30
       19.733357
  0
POINT
  8
Default
 62
255
 10
     1088.621538
 20
      991.945541
 30
       19.737969
  0
POINT
  8
Default
 62
255
 10
     1088.596885
 20
      991.943377
 30
       19.723727
  0
POINT
  8
Default
 62
255
 10
     1088.603727
 20
      991.930501
 30
       19.703111
  0
POINT
  8
Default
 62
255
 10
     1088.631909
 20
      991.925700
 30
       19.719016
  0
POINT
  8
Default
 62
255
 10
     1088.586241
 20
      991.949210
 30
       19.713981
  0
POINT
  8
Default
 62
255
 10
     1088.735396
 20
      991.696106
 30
       19.414954
  0
POINT
  8
Default
 62
255
 10
     1088.763710
 20
      991.706335
 30
       19.464144
  0
POINT
  8
Default
 62
255
 10
     1088.810676
 20
      991.720810
 30
       19.480691
  0
POINT
  8
Default
 62
255
 10
     1088.888436
 20
      991.748747
 30
       19.532531
  0
POINT
  8
Default
 62
255
 10
     1088.791833
 20
      991.680891
 30
       19.390690
  0
POINT
  8
Default
 62
255
 10
     1088.803753
 20
      991.697420
 30
       19.413722
  0
POINT
  8
Default
 62
255
 10
     1088.761490
 20
      991.693120
 30
       19.405445
  0
POINT
  8
Default
 62
255
 10
     1088.858041
 20
      991.712402
 30
       19.416935
  0
POINT
  8
Default
 62
255
 10
     1088.936360
 20
      991.758076
 30
       19.472077
  0
POINT
  8
Default
 62
255
 10
     1088.884402
 20
      991.741415
 30
       19.454461
  0
POINT
  8
Default
 62
255
 10
     1088.860366
 20
      991.732527
 30
       19.517980
  0
POINT
  8
Default
 62
255
 10
     1088.844893
 20
      991.729572
 30
       19.491257
  0
POINT
  8
Default
 62
255
 10
     1088.845896
 20
      991.738310
 30
       19.546618
  0
POINT
  8
Default
 62
255
 10
     1088.817428
 20
      991.729835
 30
       19.566873
  0
POINT
  8
Default
 62
255
 10
     1088.816061
 20
      991.743507
 30
       19.615175
  0
POINT
  8
Default
 62
255
 10
     1088.909491
 20
      991.749152
 30
       19.618544
  0
POINT
  8
Default
 62
255
 10
     1088.932128
 20
      991.756453
 30
       19.613183
  0
POINT
  8
Default
 62
255
 10
     1088.948129
 20
      991.759342
 30
       19.701859
  0
POINT
  8
Default
 62
255
 10
     1088.852013
 20
      991.745068
 30
       19.719508
  0
POINT
  8
Default
 62
255
 10
     1088.824487
 20
      991.753984
 30
       19.822606
  0
POINT
  8
Default
 62
255
 10
     1088.866186
 20
      991.764910
 30
       19.632144
  0
POINT
  8
Default
 62
255
 10
     1088.839074
 20
      991.734162
 30
       19.609402
  0
POINT
  8
Default
 62
255
 10
     1088.905973
 20
      991.754486
 30
       19.713934
  0
POINT
  8
Default
 62
255
 10
     1088.889558
 20
      991.747197
 30
       19.698326
  0
POINT
  8
Default
 62
255
 10
     1088.986486
 20
      991.773752
 30
       19.794426
  0
POINT
  8
Default
 62
255
 10
     1089.034344
 20
      991.771830
 30
       19.737322
  0
POINT
  8
Default
 62
255
 10
     1089.004058
 20
      991.774397
 30
       19.793473
  0
POINT
  8
Default
 62
255
 10
     1088.963587
 20
      991.764695
 30
       19.716092
  0
POINT
  8
Default
 62
255
 10
     1089.021152
 20
      991.770934
 30
       19.685565
  0
POINT
  8
Default
 62
255
 10
     1089.081787
 20
      991.777403
 30
       19.680308
  0
POINT
  8
Default
 62
255
 10
     1088.977416
 20
      991.784048
 30
       19.737662
  0
POINT
  8
Default
 62
255
 10
     1088.939724
 20
      991.772403
 30
       19.732725
  0
POINT
  8
Default
 62
255
 10
     1088.598566
 20
      991.982082
 30
       19.816727
  0
POINT
  8
Default
 62
255
 10
     1088.570271
 20
      992.005186
 30
       19.787205
  0
POINT
  8
Default
 62
255
 10
     1088.622848
 20
      991.945030
 30
       19.781874
  0
POINT
  8
Default
 62
255
 10
     1088.589213
 20
      991.968573
 30
       19.762870
  0
POINT
  8
Default
 62
255
 10
     1088.603847
 20
      991.964804
 30
       19.801620
  0
POINT
  8
Default
 62
255
 10
     1088.600721
 20
      991.997008
 30
       19.827260
  0
POINT
  8
Default
 62
255
 10
     1088.617306
 20
      991.990604
 30
       19.876964
  0
POINT
  8
Default
 62
255
 10
     1088.628235
 20
      991.992616
 30
       19.912572
  0
POINT
  8
Default
 62
255
 10
     1088.646934
 20
      991.935718
 30
       19.840936
  0
POINT
  8
Default
 62
255
 10
     1088.638845
 20
      991.950860
 30
       19.850341
  0
POINT
  8
Default
 62
255
 10
     1088.653549
 20
      991.949759
 30
       19.880452
  0
POINT
  8
Default
 62
255
 10
     1088.656337
 20
      991.961173
 30
       19.917837
  0
POINT
  8
Default
 62
255
 10
     1088.645310
 20
      991.974650
 30
       19.915463
  0
POINT
  8
Default
 62
255
 10
     1088.693313
 20
      991.908984
 30
       19.882262
  0
POINT
  8
Default
 62
255
 10
     1088.682131
 20
      991.892659
 30
       19.790873
  0
POINT
  8
Default
 62
255
 10
     1088.647609
 20
      991.936175
 30
       19.810283
  0
POINT
  8
Default
 62
255
 10
     1088.648017
 20
      991.916222
 30
       19.795316
  0
POINT
  8
Default
 62
255
 10
     1088.701972
 20
      991.929609
 30
       19.926239
  0
POINT
  8
Default
 62
255
 10
     1088.710055
 20
      991.916516
 30
       19.910137
  0
POINT
  8
Default
 62
255
 10
     1088.680417
 20
      991.933265
 30
       19.899571
  0
POINT
  8
Default
 62
255
 10
     1088.701239
 20
      991.870265
 30
       19.790969
  0
POINT
  8
Default
 62
255
 10
     1088.709609
 20
      991.875452
 30
       19.834915
  0
POINT
  8
Default
 62
255
 10
     1088.666343
 20
      991.898144
 30
       19.773382
  0
POINT
  8
Default
 62
255
 10
     1088.686392
 20
      991.910319
 30
       19.851641
  0
POINT
  8
Default
 62
255
 10
     1088.698870
 20
      991.887704
 30
       19.824430
  0
POINT
  8
Default
 62
255
 10
     1088.666274
 20
      991.924244
 30
       19.836549
  0
POINT
  8
Default
 62
255
 10
     1088.673595
 20
      991.909840
 30
       19.825242
  0
POINT
  8
Default
 62
255
 10
     1088.760161
 20
      991.846469
 30
       19.862191
  0
POINT
  8
Default
 62
255
 10
     1088.735179
 20
      991.865729
 30
       19.856272
  0
POINT
  8
Default
 62
255
 10
     1088.717461
 20
      991.861076
 30
       19.823105
  0
POINT
  8
Default
 62
255
 10
     1088.737997
 20
      991.850465
 30
       19.823781
  0
POINT
  8
Default
 62
255
 10
     1088.766899
 20
      991.880525
 30
       19.919071
  0
POINT
  8
Default
 62
255
 10
     1088.745727
 20
      991.897767
 30
       19.926593
  0
POINT
  8
Default
 62
255
 10
     1088.730623
 20
      991.904472
 30
       19.920398
  0
POINT
  8
Default
 62
255
 10
     1088.741634
 20
      991.880895
 30
       19.901155
  0
POINT
  8
Default
 62
255
 10
     1088.763978
 20
      991.866778
 30
       19.890936
  0
POINT
  8
Default
 62
255
 10
     1088.787080
 20
      991.858733
 30
       19.914595
  0
POINT
  8
Default
 62
255
 10
     1088.782066
 20
      991.876504
 30
       19.934946
  0
POINT
  8
Default
 62
255
 10
     1088.809082
 20
      991.870237
 30
       19.943786
  0
POINT
  8
Default
 62
255
 10
     1088.720946
 20
      991.880173
 30
       19.862119
  0
POINT
  8
Default
 62
255
 10
     1088.708739
 20
      991.892590
 30
       19.864601
  0
POINT
  8
Default
 62
255
 10
     1088.788269
 20
      991.828497
 30
       19.875979
  0
POINT
  8
Default
 62
255
 10
     1088.775498
 20
      991.842104
 30
       19.883775
  0
POINT
  8
Default
 62
255
 10
     1088.779050
 20
      991.825644
 30
       19.863717
  0
POINT
  8
Default
 62
255
 10
     1088.800413
 20
      991.847739
 30
       19.907186
  0
POINT
  8
Default
 62
255
 10
     1088.788594
 20
      991.893099
 30
       19.965236
  0
POINT
  8
Default
 62
255
 10
     1088.762473
 20
      991.908249
 30
       19.955909
  0
POINT
  8
Default
 62
255
 10
     1088.727042
 20
      991.919534
 30
       19.933597
  0
POINT
  8
Default
 62
255
 10
     1088.741210
 20
      991.929383
 30
       19.951336
  0
POINT
  8
Default
 62
255
 10
     1088.745166
 20
      991.939712
 30
       19.976068
  0
POINT
  8
Default
 62
255
 10
     1088.717368
 20
      991.938439
 30
       19.949502
  0
POINT
  8
Default
 62
255
 10
     1088.699048
 20
      991.953362
 30
       19.958581
  0
POINT
  8
Default
 62
255
 10
     1088.681115
 20
      991.966347
 30
       19.941687
  0
POINT
  8
Default
 62
255
 10
     1088.677657
 20
      992.000058
 30
       19.973033
  0
POINT
  8
Default
 62
255
 10
     1088.661380
 20
      991.986272
 30
       19.949677
  0
POINT
  8
Default
 62
255
 10
     1088.646068
 20
      992.012662
 30
       19.947462
  0
POINT
  8
Default
 62
255
 10
     1088.656156
 20
      992.021979
 30
       19.978507
  0
POINT
  8
Default
 62
255
 10
     1088.631344
 20
      992.012200
 30
       19.929873
  0
POINT
  8
Default
 62
255
 10
     1088.697414
 20
      991.972144
 30
       19.969167
  0
POINT
  8
Default
 62
255
 10
     1088.698134
 20
      992.012719
 30
       19.996364
  0
POINT
  8
Default
 62
255
 10
     1088.825845
 20
      991.849700
 30
       19.916244
  0
POINT
  8
Default
 62
255
 10
     1088.863130
 20
      991.872687
 30
       19.930843
  0
POINT
  8
Default
 62
255
 10
     1088.810957
 20
      991.890083
 30
       19.981678
  0
POINT
  8
Default
 62
255
 10
     1088.784052
 20
      991.903165
 30
       19.975621
  0
POINT
  8
Default
 62
255
 10
     1088.772167
 20
      991.920049
 30
       19.981380
  0
POINT
  8
Default
 62
255
 10
     1088.780887
 20
      991.943547
 30
       19.992518
  0
POINT
  8
Default
 62
255
 10
     1088.751083
 20
      991.952184
 30
       19.994134
  0
POINT
  8
Default
 62
255
 10
     1088.714741
 20
      992.006454
 30
       20.000151
  0
POINT
  8
Default
 62
255
 10
     1088.738699
 20
      991.990845
 30
       20.002780
  0
POINT
  8
Default
 62
255
 10
     1088.728602
 20
      992.019436
 30
       20.000601
  0
POINT
  8
Default
 62
255
 10
     1088.763122
 20
      991.968289
 30
       20.002880
  0
POINT
  8
Default
 62
255
 10
     1088.820960
 20
      991.921598
 30
       19.994733
  0
POINT
  8
Default
 62
255
 10
     1088.740019
 20
      991.960225
 30
       20.002388
  0
POINT
  8
Default
 62
255
 10
     1088.710277
 20
      991.961951
 30
       19.970364
  0
POINT
  8
Default
 62
255
 10
     1088.664920
 20
      992.067156
 30
       19.974394
  0
POINT
  8
Default
 62
255
 10
     1088.692591
 20
      992.083799
 30
       19.973405
  0
POINT
  8
Default
 62
255
 10
     1088.720623
 20
      992.107233
 30
       19.969052
  0
POINT
  8
Default
 62
255
 10
     1088.756042
 20
      992.051562
 30
       19.975557
  0
POINT
  8
Default
 62
255
 10
     1088.691115
 20
      992.063585
 30
       19.976369
  0
POINT
  8
Default
 62
255
 10
     1088.759410
 20
      992.006264
 30
       19.987128
  0
POINT
  8
Default
 62
255
 10
     1088.820552
 20
      991.937947
 30
       19.994657
  0
POINT
  8
Default
 62
255
 10
     1088.810417
 20
      991.964199
 30
       19.990678
  0
POINT
  8
Default
 62
255
 10
     1088.804646
 20
      991.994517
 30
       19.981078
  0
POINT
  8
Default
 62
255
 10
     1088.790617
 20
      991.979568
 30
       19.989306
  0
POINT
  8
Default
 62
255
 10
     1088.779731
 20
      992.002687
 30
       19.984736
  0
POINT
  8
Default
 62
255
 10
     1088.773101
 20
      992.019937
 30
       19.983790
  0
POINT
  8
Default
 62
255
 10
     1088.759719
 20
      992.025492
 30
       19.983453
  0
POINT
  8
Default
 62
255
 10
     1088.690476
 20
      992.035552
 30
       19.993165
  0
POINT
  8
Default
 62
255
 10
     1088.707632
 20
      992.077033
 30
       19.973946
  0
POINT
  8
Default
 62
255
 10
     1088.695745
 20
      992.107048
 30
       19.970388
  0
POINT
  8
Default
 62
255
 10
     1088.733728
 20
      992.075388
 30
       19.972841
  0
POINT
  8
Default
 62
255
 10
     1088.713997
 20
      992.039505
 30
       20.005521
  0
POINT
  8
Default
 62
255
 10
     1088.746258
 20
      992.101818
 30
       19.967578
  0
POINT
  8
Default
 62
255
 10
     1088.730925
 20
      992.087194
 30
       19.969501
  0
POINT
  8
Default
 62
255
 10
     1088.660977
 20
      992.107736
 30
       19.970406
  0
POINT
  8
Default
 62
255
 10
     1088.656061
 20
      992.092773
 30
       19.970623
  0
POINT
  8
Default
 62
255
 10
     1088.674820
 20
      992.084313
 30
       19.973889
  0
POINT
  8
Default
 62
255
 10
     1088.704503
 20
      992.124663
 30
       19.970011
  0
POINT
  8
Default
 62
255
 10
     1088.689994
 20
      992.136554
 30
       19.971838
  0
POINT
  8
Default
 62
255
 10
     1088.658039
 20
      992.132202
 30
       19.978100
  0
POINT
  8
Default
 62
255
 10
     1088.663842
 20
      992.119858
 30
       19.974328
  0
POINT
  8
Default
 62
255
 10
     1088.674902
 20
      992.106673
 30
       19.979358
  0
POINT
  8
Default
 62
255
 10
     1088.750633
 20
      992.078028
 30
       19.971192
  0
POINT
  8
Default
 62
255
 10
     1088.806130
 20
      992.053256
 30
       19.965096
  0
POINT
  8
Default
 62
255
 10
     1088.835259
 20
      992.004565
 30
       19.959212
  0
POINT
  8
Default
 62
255
 10
     1088.850161
 20
      991.997807
 30
       19.948936
  0
POINT
  8
Default
 62
255
 10
     1088.351919
 20
      992.369542
 30
       19.791264
  0
POINT
  8
Default
 62
255
 10
     1088.366103
 20
      992.360234
 30
       19.802421
  0
POINT
  8
Default
 62
255
 10
     1088.369439
 20
      992.346017
 30
       19.783617
  0
POINT
  8
Default
 62
255
 10
     1088.369467
 20
      992.375698
 30
       19.816376
  0
POINT
  8
Default
 62
255
 10
     1088.387359
 20
      992.362121
 30
       19.814093
  0
POINT
  8
Default
 62
255
 10
     1088.406565
 20
      992.357846
 30
       19.837734
  0
POINT
  8
Default
 62
255
 10
     1088.391181
 20
      992.345724
 30
       19.805282
  0
POINT
  8
Default
 62
255
 10
     1088.444382
 20
      992.333853
 30
       19.834392
  0
POINT
  8
Default
 62
255
 10
     1088.427552
 20
      992.328727
 30
       19.819391
  0
POINT
  8
Default
 62
255
 10
     1088.405378
 20
      992.319615
 30
       19.799329
  0
POINT
  8
Default
 62
255
 10
     1088.393841
 20
      992.323890
 30
       19.770724
  0
POINT
  8
Default
 62
255
 10
     1088.382049
 20
      992.329293
 30
       19.756873
  0
POINT
  8
Default
 62
255
 10
     1088.448777
 20
      992.308515
 30
       19.817087
  0
POINT
  8
Default
 62
255
 10
     1088.467583
 20
      992.270488
 30
       19.749135
  0
POINT
  8
Default
 62
255
 10
     1088.453239
 20
      992.278066
 30
       19.737945
  0
POINT
  8
Default
 62
255
 10
     1088.463759
 20
      992.282090
 30
       19.756642
  0
POINT
  8
Default
 62
255
 10
     1088.500652
 20
      992.246355
 30
       19.779226
  0
POINT
  8
Default
 62
255
 10
     1088.452479
 20
      992.296697
 30
       19.846604
  0
POINT
  8
Default
 62
255
 10
     1088.488556
 20
      992.275100
 30
       19.863609
  0
POINT
  8
Default
 62
255
 10
     1088.472647
 20
      992.276488
 30
       19.851562
  0
POINT
  8
Default
 62
255
 10
     1088.408490
 20
      992.325166
 30
       19.722428
  0
POINT
  8
Default
 62
255
 10
     1088.433490
 20
      992.306728
 30
       19.736343
  0
POINT
  8
Default
 62
255
 10
     1088.513672
 20
      992.268031
 30
       19.883806
  0
POINT
  8
Default
 62
255
 10
     1088.538600
 20
      992.249478
 30
       19.826871
  0
POINT
  8
Default
 62
255
 10
     1088.510489
 20
      992.245311
 30
       19.811231
  0
POINT
  8
Default
 62
255
 10
     1088.525079
 20
      992.232364
 30
       19.796073
  0
POINT
  8
Default
 62
255
 10
     1088.551565
 20
      992.196468
 30
       19.844047
  0
POINT
  8
Default
 62
255
 10
     1088.490251
 20
      992.269309
 30
       19.823716
  0
POINT
  8
Default
 62
255
 10
     1088.472252
 20
      992.266892
 30
       19.817291
  0
POINT
  8
Default
 62
255
 10
     1088.467920
 20
      992.286566
 30
       19.788226
  0
POINT
  8
Default
 62
255
 10
     1088.497485
 20
      992.254696
 30
       19.808210
  0
POINT
  8
Default
 62
255
 10
     1088.490733
 20
      992.298964
 30
       19.913869
  0
POINT
  8
Default
 62
255
 10
     1088.494472
 20
      992.310364
 30
       19.934377
  0
POINT
  8
Default
 62
255
 10
     1088.512022
 20
      992.301075
 30
       19.933384
  0
POINT
  8
Default
 62
255
 10
     1088.475770
 20
      992.298512
 30
       19.884881
  0
POINT
  8
Default
 62
255
 10
     1088.464174
 20
      992.286055
 30
       19.857590
  0
POINT
  8
Default
 62
255
 10
     1088.451346
 20
      992.309219
 30
       19.865701
  0
POINT
  8
Default
 62
255
 10
     1088.609193
 20
      991.918504
 30
       19.583719
  0
POINT
  8
Default
 62
255
 10
     1088.598294
 20
      991.938673
 30
       19.605554
  0
POINT
  8
Default
 62
255
 10
     1088.593131
 20
      991.940883
 30
       19.572700
  0
POINT
  8
Default
 62
255
 10
     1088.599804
 20
      991.940757
 30
       19.649243
  0
POINT
  8
Default
 62
255
 10
     1088.636070
 20
      991.916757
 30
       19.602967
  0
POINT
  8
Default
 62
255
 10
     1088.709313
 20
      991.830673
 30
       19.750489
  0
POINT
  8
Default
 62
255
 10
     1088.742594
 20
      991.799557
 30
       19.750314
  0
POINT
  8
Default
 62
255
 10
     1088.758026
 20
      991.799233
 30
       19.762465
  0
POINT
  8
Default
 62
255
 10
     1088.753819
 20
      991.815554
 30
       19.773050
  0
POINT
  8
Default
 62
255
 10
     1088.769154
 20
      991.813124
 30
       19.827063
  0
POINT
  8
Default
 62
255
 10
     1088.791090
 20
      991.819001
 30
       19.853030
  0
POINT
  8
Default
 62
255
 10
     1088.786830
 20
      991.807017
 30
       19.846576
  0
POINT
  8
Default
 62
255
 10
     1088.784552
 20
      991.785158
 30
       19.825691
  0
POINT
  8
Default
 62
255
 10
     1088.811088
 20
      991.766729
 30
       19.835642
  0
POINT
  8
Default
 62
255
 10
     1088.773839
 20
      991.783301
 30
       19.773430
  0
POINT
  8
Default
 62
255
 10
     1088.801164
 20
      991.796941
 30
       19.849125
  0
POINT
  8
Default
 62
255
 10
     1088.826220
 20
      991.802117
 30
       19.856894
  0
POINT
  8
Default
 62
255
 10
     1088.865442
 20
      991.770448
 30
       19.861399
  0
POINT
  8
Default
 62
255
 10
     1088.849642
 20
      991.755172
 30
       19.845061
  0
POINT
  8
Default
 62
255
 10
     1088.697666
 20
      991.866775
 30
       19.756438
  0
POINT
  8
Default
 62
255
 10
     1088.703288
 20
      991.798430
 30
       19.615967
  0
POINT
  8
Default
 62
255
 10
     1088.671935
 20
      991.801216
 30
       19.514380
  0
POINT
  8
Default
 62
255
 10
     1088.573048
 20
      991.822127
 30
       19.514860
  0
POINT
  8
Default
 62
255
 10
     1088.556878
 20
      991.854345
 30
       19.521301
  0
POINT
  8
Default
 62
255
 10
     1088.511802
 20
      991.872099
 30
       19.521471
  0
POINT
  8
Default
 62
255
 10
     1088.605283
 20
      991.742329
 30
       19.461312
  0
POINT
  8
Default
 62
255
 10
     1088.848662
 20
      991.795628
 30
       19.863626
  0
POINT
  8
Default
 62
255
 10
     1088.830445
 20
      991.818068
 30
       19.870077
  0
POINT
  8
Default
 62
255
 10
     1088.818585
 20
      991.776920
 30
       19.851947
  0
POINT
  8
Default
 62
255
 10
     1088.891678
 20
      991.763242
 30
       19.856625
  0
POINT
  8
Default
 62
255
 10
     1088.863110
 20
      991.820052
 30
       19.876407
  0
POINT
  8
Default
 62
255
 10
     1088.937236
 20
      991.885935
 30
       19.925041
  0
POINT
  8
Default
 62
255
 10
     1088.942984
 20
      991.842791
 30
       19.924441
  0
POINT
  8
Default
 62
255
 10
     1088.918430
 20
      991.820201
 30
       19.911267
  0
POINT
  8
Default
 62
255
 10
     1088.918139
 20
      991.798296
 30
       19.909368
  0
POINT
  8
Default
 62
255
 10
     1088.951262
 20
      991.782514
 30
       19.904733
  0
POINT
  8
Default
 62
255
 10
     1088.899004
 20
      991.802313
 30
       19.906842
  0
POINT
  8
Default
 62
255
 10
     1088.889160
 20
      991.811315
 30
       19.903190
  0
POINT
  8
Default
 62
255
 10
     1088.938793
 20
      991.807301
 30
       19.911395
  0
POINT
  8
Default
 62
255
 10
     1088.973923
 20
      991.777488
 30
       19.898307
  0
POINT
  8
Default
 62
255
 10
     1088.955407
 20
      991.761977
 30
       19.894264
  0
POINT
  8
Default
 62
255
 10
     1088.978364
 20
      991.755081
 30
       19.876021
  0
POINT
  8
Default
 62
255
 10
     1088.965615
 20
      991.742616
 30
       19.869504
  0
POINT
  8
Default
 62
255
 10
     1088.942208
 20
      991.758772
 30
       19.895662
  0
POINT
  8
Default
 62
255
 10
     1088.922573
 20
      991.766609
 30
       19.902438
  0
POINT
  8
Default
 62
255
 10
     1088.905375
 20
      991.762988
 30
       19.901182
  0
POINT
  8
Default
 62
255
 10
     1088.896987
 20
      991.774435
 30
       19.904858
  0
POINT
  8
Default
 62
255
 10
     1089.042388
 20
      991.852452
 30
       19.914166
  0
POINT
  8
Default
 62
255
 10
     1089.029765
 20
      991.845472
 30
       19.911968
  0
POINT
  8
Default
 62
255
 10
     1089.013124
 20
      991.821571
 30
       19.916071
  0
POINT
  8
Default
 62
255
 10
     1089.029371
 20
      991.864006
 30
       19.907061
  0
POINT
  8
Default
 62
255
 10
     1089.066865
 20
      991.834645
 30
       19.908867
  0
POINT
  8
Default
 62
255
 10
     1089.248853
 20
      991.643152
 30
       19.565346
  0
POINT
  8
Default
 62
255
 10
     1089.273866
 20
      991.639864
 30
       19.561000
  0
POINT
  8
Default
 62
255
 10
     1089.243580
 20
      991.658010
 30
       19.569815
  0
POINT
  8
Default
 62
255
 10
     1089.245161
 20
      991.678942
 30
       19.585482
  0
POINT
  8
Default
 62
255
 10
     1089.241273
 20
      991.671166
 30
       19.568388
  0
POINT
  8
Default
 62
255
 10
     1089.277352
 20
      991.674393
 30
       19.609344
  0
POINT
  8
Default
 62
255
 10
     1089.231121
 20
      991.686721
 30
       19.586707
  0
POINT
  8
Default
 62
255
 10
     1089.221836
 20
      991.697393
 30
       19.580226
  0
POINT
  8
Default
 62
255
 10
     1089.203013
 20
      991.699012
 30
       19.551744
  0
POINT
  8
Default
 62
255
 10
     1089.205640
 20
      991.702957
 30
       19.631139
  0
POINT
  8
Default
 62
255
 10
     1089.197249
 20
      991.722589
 30
       19.613988
  0
POINT
  8
Default
 62
255
 10
     1089.191103
 20
      991.749975
 30
       19.640226
  0
POINT
  8
Default
 62
255
 10
     1089.126487
 20
      991.758361
 30
       19.583274
  0
POINT
  8
Default
 62
255
 10
     1089.176037
 20
      991.752244
 30
       19.623898
  0
POINT
  8
Default
 62
255
 10
     1089.164714
 20
      991.745185
 30
       19.605439
  0
POINT
  8
Default
 62
255
 10
     1089.159842
 20
      991.738365
 30
       19.578184
  0
POINT
  8
Default
 62
255
 10
     1089.143939
 20
      991.743715
 30
       19.578191
  0
POINT
  8
Default
 62
255
 10
     1089.149674
 20
      991.761874
 30
       19.609921
  0
POINT
  8
Default
 62
255
 10
     1089.135989
 20
      991.770238
 30
       19.603578
  0
POINT
  8
Default
 62
255
 10
     1089.120931
 20
      991.778005
 30
       19.596836
  0
POINT
  8
Default
 62
255
 10
     1089.118054
 20
      991.788557
 30
       19.591358
  0
POINT
  8
Default
 62
255
 10
     1089.162319
 20
      991.761622
 30
       19.658799
  0
POINT
  8
Default
 62
255
 10
     1089.135546
 20
      991.780891
 30
       19.631116
  0
POINT
  8
Default
 62
255
 10
     1089.158402
 20
      991.780646
 30
       19.664388
  0
POINT
  8
Default
 62
255
 10
     1089.157473
 20
      991.790250
 30
       19.672978
  0
POINT
  8
Default
 62
255
 10
     1089.112124
 20
      991.793416
 30
       19.700301
  0
POINT
  8
Default
 62
255
 10
     1089.116186
 20
      991.776466
 30
       19.668182
  0
POINT
  8
Default
 62
255
 10
     1089.099936
 20
      991.785528
 30
       19.690071
  0
POINT
  8
Default
 62
255
 10
     1089.146431
 20
      991.815649
 30
       19.732633
  0
POINT
  8
Default
 62
255
 10
     1089.158005
 20
      991.808669
 30
       19.711189
  0
POINT
  8
Default
 62
255
 10
     1089.129441
 20
      991.806481
 30
       19.699229
  0
POINT
  8
Default
 62
255
 10
     1089.168349
 20
      991.775250
 30
       19.722261
  0
POINT
  8
Default
 62
255
 10
     1089.164500
 20
      991.766725
 30
       19.704348
  0
POINT
  8
Default
 62
255
 10
     1089.184926
 20
      991.767032
 30
       19.739288
  0
POINT
  8
Default
 62
255
 10
     1089.170226
 20
      991.749437
 30
       19.683024
  0
POINT
  8
Default
 62
255
 10
     1089.192719
 20
      991.750825
 30
       19.729562
  0
POINT
  8
Default
 62
255
 10
     1089.193158
 20
      991.754188
 30
       19.753457
  0
POINT
  8
Default
 62
255
 10
     1089.190727
 20
      991.729192
 30
       19.701871
  0
POINT
  8
Default
 62
255
 10
     1089.177301
 20
      991.749060
 30
       19.703082
  0
POINT
  8
Default
 62
255
 10
     1089.171786
 20
      991.765351
 30
       19.713565
  0
POINT
  8
Default
 62
255
 10
     1089.199517
 20
      991.730233
 30
       19.732816
  0
POINT
  8
Default
 62
255
 10
     1089.207690
 20
      991.715911
 30
       19.718967
  0
POINT
  8
Default
 62
255
 10
     1089.207195
 20
      991.733149
 30
       19.764382
  0
POINT
  8
Default
 62
255
 10
     1089.218475
 20
      991.704991
 30
       19.706871
  0
POINT
  8
Default
 62
255
 10
     1089.204166
 20
      991.710202
 30
       19.692429
  0
POINT
  8
Default
 62
255
 10
     1089.222548
 20
      991.727072
 30
       19.768818
  0
POINT
  8
Default
 62
255
 10
     1089.231187
 20
      991.694195
 30
       19.727370
  0
POINT
  8
Default
 62
255
 10
     1089.233777
 20
      991.679128
 30
       19.683014
  0
POINT
  8
Default
 62
255
 10
     1089.250300
 20
      991.704822
 30
       19.763701
  0
POINT
  8
Default
 62
255
 10
     1089.240034
 20
      991.692544
 30
       19.742693
  0
POINT
  8
Default
 62
255
 10
     1089.248273
 20
      991.672093
 30
       19.710193
  0
POINT
  8
Default
 62
255
 10
     1089.275913
 20
      991.662541
 30
       19.705248
  0
POINT
  8
Default
 62
255
 10
     1089.282910
 20
      991.644844
 30
       19.692837
  0
POINT
  8
Default
 62
255
 10
     1088.548501
 20
      992.221520
 30
       19.611630
  0
POINT
  8
Default
 62
255
 10
     1088.575077
 20
      992.244564
 30
       19.640334
  0
POINT
  8
Default
 62
255
 10
     1088.560940
 20
      992.230796
 30
       19.627210
  0
POINT
  8
Default
 62
255
 10
     1088.589211
 20
      992.230997
 30
       19.620572
  0
POINT
  8
Default
 62
255
 10
     1088.579123
 20
      992.195883
 30
       19.581569
  0
POINT
  8
Default
 62
255
 10
     1088.586062
 20
      992.185011
 30
       19.602492
  0
POINT
  8
Default
 62
255
 10
     1088.596305
 20
      992.192224
 30
       19.628176
  0
POINT
  8
Default
 62
255
 10
     1088.603003
 20
      992.191916
 30
       19.645797
  0
POINT
  8
Default
 62
255
 10
     1088.599904
 20
      992.210439
 30
       19.642109
  0
POINT
  8
Default
 62
255
 10
     1088.626767
 20
      992.145285
 30
       19.582276
  0
POINT
  8
Default
 62
255
 10
     1088.641224
 20
      992.147125
 30
       19.602503
  0
POINT
  8
Default
 62
255
 10
     1088.592749
 20
      992.173307
 30
       19.599067
  0
POINT
  8
Default
 62
255
 10
     1088.599888
 20
      992.162420
 30
       19.594684
  0
POINT
  8
Default
 62
255
 10
     1088.601990
 20
      992.174539
 30
       19.616911
  0
POINT
  8
Default
 62
255
 10
     1088.608012
 20
      992.182927
 30
       19.633678
  0
POINT
  8
Default
 62
255
 10
     1088.616770
 20
      992.172184
 30
       19.629393
  0
POINT
  8
Default
 62
255
 10
     1088.609372
 20
      992.160230
 30
       19.608853
  0
POINT
  8
Default
 62
255
 10
     1088.600867
 20
      992.225335
 30
       19.654556
  0
POINT
  8
Default
 62
255
 10
     1088.628353
 20
      992.207036
 30
       19.663123
  0
POINT
  8
Default
 62
255
 10
     1088.650082
 20
      992.135021
 30
       19.514709
  0
POINT
  8
Default
 62
255
 10
     1088.611836
 20
      992.151358
 30
       19.506350
  0
POINT
  8
Default
 62
255
 10
     1088.560126
 20
      992.182526
 30
       19.515389
  0
POINT
  8
Default
 62
255
 10
     1088.579781
 20
      992.192464
 30
       19.522732
  0
POINT
  8
Default
 62
255
 10
     1088.589599
 20
      992.175211
 30
       19.506598
  0
POINT
  8
Default
 62
255
 10
     1088.577432
 20
      992.142710
 30
       19.495080
  0
POINT
  8
Default
 62
255
 10
     1088.645760
 20
      992.116162
 30
       19.504530
  0
POINT
  8
Default
 62
255
 10
     1088.547715
 20
      992.197868
 30
       19.518857
  0
POINT
  8
Default
 62
255
 10
     1088.556772
 20
      992.215419
 30
       19.567493
  0
POINT
  8
Default
 62
255
 10
     1088.555744
 20
      992.221097
 30
       19.785087
  0
POINT
  8
Default
 62
255
 10
     1088.524343
 20
      992.246761
 30
       19.713454
  0
POINT
  8
Default
 62
255
 10
     1088.505174
 20
      992.258641
 30
       19.730087
  0
POINT
  8
Default
 62
255
 10
     1088.539104
 20
      992.245556
 30
       19.728700
  0
POINT
  8
Default
 62
255
 10
     1088.564035
 20
      992.229869
 30
       19.716835
  0
POINT
  8
Default
 62
255
 10
     1088.550572
 20
      992.236576
 30
       19.716443
  0
POINT
  8
Default
 62
255
 10
     1088.619449
 20
      992.205349
 30
       19.704356
  0
POINT
  8
Default
 62
255
 10
     1088.484277
 20
      992.260674
 30
       19.734834
  0
POINT
  8
Default
 62
255
 10
     1088.566419
 20
      992.191282
 30
       19.812735
  0
POINT
  8
Default
 62
255
 10
     1088.595812
 20
      992.042825
 30
       19.865091
  0
POINT
  8
Default
 62
255
 10
     1088.599141
 20
      992.027377
 30
       19.831243
  0
POINT
  8
Default
 62
255
 10
     1088.581820
 20
      992.005778
 30
       19.800548
  0
POINT
  8
Default
 62
255
 10
     1088.588216
 20
      992.041436
 30
       19.817642
  0
POINT
  8
Default
 62
255
 10
     1088.571589
 20
      992.027917
 30
       19.775805
  0
POINT
  8
Default
 62
255
 10
     1088.639158
 20
      992.055530
 30
       19.946013
  0
POINT
  8
Default
 62
255
 10
     1088.622667
 20
      992.055388
 30
       19.932940
  0
POINT
  8
Default
 62
255
 10
     1088.588776
 20
      991.990026
 30
       19.796141
  0
POINT
  8
Default
 62
255
 10
     1088.580375
 20
      992.074312
 30
       19.792707
  0
POINT
  8
Default
 62
255
 10
     1088.580850
 20
      992.048165
 30
       19.773340
  0
POINT
  8
Default
 62
255
 10
     1088.607065
 20
      992.101144
 30
       19.815875
  0
POINT
  8
Default
 62
255
 10
     1088.605768
 20
      992.087791
 30
       19.806597
  0
POINT
  8
Default
 62
255
 10
     1088.575608
 20
      992.142741
 30
       19.912528
  0
POINT
  8
Default
 62
255
 10
     1088.634322
 20
      992.123915
 30
       19.933228
  0
POINT
  8
Default
 62
255
 10
     1088.625748
 20
      992.146958
 30
       19.944434
  0
POINT
  8
Default
 62
255
 10
     1088.640487
 20
      992.112123
 30
       19.938387
  0
POINT
  8
Default
 62
255
 10
     1088.639777
 20
      992.086467
 30
       19.929793
  0
POINT
  8
Default
 62
255
 10
     1088.621699
 20
      992.124102
 30
       19.909450
  0
POINT
  8
Default
 62
255
 10
     1088.606740
 20
      992.151781
 30
       19.911988
  0
POINT
  8
Default
 62
255
 10
     1088.583991
 20
      992.150742
 30
       19.916344
  0
POINT
  8
Default
 62
255
 10
     1088.581169
 20
      992.161408
 30
       19.928411
  0
POINT
  8
Default
 62
255
 10
     1088.606005
 20
      992.154181
 30
       19.819936
  0
POINT
  8
Default
 62
255
 10
     1088.601615
 20
      992.131449
 30
       19.815553
  0
POINT
  8
Default
 62
255
 10
     1088.594488
 20
      992.149538
 30
       19.856494
  0
POINT
  8
Default
 62
255
 10
     1088.562387
 20
      992.206260
 30
       19.868460
  0
POINT
  8
Default
 62
255
 10
     1088.579282
 20
      992.173379
 30
       19.851019
  0
POINT
  8
Default
 62
255
 10
     1088.566631
 20
      992.190773
 30
       19.857295
  0
POINT
  8
Default
 62
255
 10
     1088.551054
 20
      992.217277
 30
       19.862999
  0
POINT
  8
Default
 62
255
 10
     1088.562960
 20
      992.223505
 30
       19.884187
  0
POINT
  8
Default
 62
255
 10
     1088.581828
 20
      992.183062
 30
       19.885495
  0
POINT
  8
Default
 62
255
 10
     1088.554263
 20
      992.161586
 30
       20.059565
  0
POINT
  8
Default
 62
255
 10
     1088.511762
 20
      992.175178
 30
       20.043792
  0
POINT
  8
Default
 62
255
 10
     1088.506263
 20
      992.194350
 30
       20.059484
  0
POINT
  8
Default
 62
255
 10
     1088.482823
 20
      992.201198
 30
       20.043706
  0
POINT
  8
Default
 62
255
 10
     1088.587279
 20
      992.148245
 30
       20.053354
  0
POINT
  8
Default
 62
255
 10
     1088.606437
 20
      992.157232
 30
       20.051763
  0
POINT
  8
Default
 62
255
 10
     1088.615354
 20
      992.197656
 30
       20.052550
  0
POINT
  8
Default
 62
255
 10
     1088.588512
 20
      992.197182
 30
       20.072127
  0
POINT
  8
Default
 62
255
 10
     1088.581827
 20
      992.177048
 30
       20.072319
  0
POINT
  8
Default
 62
255
 10
     1088.603153
 20
      992.207467
 30
       20.069714
  0
POINT
  8
Default
 62
255
 10
     1088.608642
 20
      992.174022
 30
       20.052689
  0
POINT
  8
Default
 62
255
 10
     1088.584681
 20
      992.170652
 30
       20.061719
  0
POINT
  8
Default
 62
255
 10
     1088.620856
 20
      992.158673
 30
       20.023605
  0
POINT
  8
Default
 62
255
 10
     1088.624280
 20
      992.211304
 30
       20.053109
  0
POINT
  8
Default
 62
255
 10
     1088.639275
 20
      992.251254
 30
       19.966795
  0
POINT
  8
Default
 62
255
 10
     1088.597774
 20
      992.274009
 30
       20.056571
  0
POINT
  8
Default
 62
255
 10
     1088.583642
 20
      992.292562
 30
       20.062722
  0
POINT
  8
Default
 62
255
 10
     1088.539284
 20
      992.264889
 30
       20.061493
  0
POINT
  8
Default
 62
255
 10
     1089.163552
 20
      991.759696
 30
       19.822364
  0
POINT
  8
Default
 62
255
 10
     1089.171368
 20
      991.765801
 30
       19.842222
  0
POINT
  8
Default
 62
255
 10
     1089.148532
 20
      991.790916
 30
       19.848976
  0
POINT
  8
Default
 62
255
 10
     1089.146412
 20
      991.785517
 30
       19.837560
  0
POINT
  8
Default
 62
255
 10
     1089.151136
 20
      991.771993
 30
       19.824523
  0
POINT
  8
Default
 62
255
 10
     1089.214176
 20
      991.743408
 30
       19.811507
  0
POINT
  8
Default
 62
255
 10
     1089.198189
 20
      991.754105
 30
       19.821381
  0
POINT
  8
Default
 62
255
 10
     1089.087926
 20
      991.807554
 30
       19.724170
  0
POINT
  8
Default
 62
255
 10
     1089.120805
 20
      991.820111
 30
       19.736927
  0
POINT
  8
Default
 62
255
 10
     1089.130950
 20
      991.831331
 30
       19.754647
  0
POINT
  8
Default
 62
255
 10
     1089.183420
 20
      991.768027
 30
       19.905430
  0
POINT
  8
Default
 62
255
 10
     1089.180499
 20
      991.764181
 30
       19.876977
  0
POINT
  8
Default
 62
255
 10
     1089.153545
 20
      991.795872
 30
       19.894677
  0
POINT
  8
Default
 62
255
 10
     1089.134248
 20
      991.793786
 30
       19.875420
  0
POINT
  8
Default
 62
255
 10
     1089.306973
 20
      991.656567
 30
       19.774899
  0
POINT
  8
Default
 62
255
 10
     1089.320415
 20
      991.634443
 30
       19.819991
  0
POINT
  8
Default
 62
255
 10
     1089.340362
 20
      991.622234
 30
       19.796611
  0
POINT
  8
Default
 62
255
 10
     1089.351863
 20
      991.620208
 30
       19.836732
  0
POINT
  8
Default
 62
255
 10
     1089.347700
 20
      991.608103
 30
       19.820608
  0
POINT
  8
Default
 62
255
 10
     1089.357891
 20
      991.650196
 30
       19.835041
  0
POINT
  8
Default
 62
255
 10
     1089.318947
 20
      991.668742
 30
       19.845120
  0
POINT
  8
Default
 62
255
 10
     1089.283304
 20
      991.671773
 30
       19.726548
  0
POINT
  8
Default
 62
255
 10
     1089.301699
 20
      991.629394
 30
       19.701848
  0
POINT
  8
Default
 62
255
 10
     1089.328847
 20
      991.613244
 30
       19.710584
  0
POINT
  8
Default
 62
255
 10
     1089.327341
 20
      991.626520
 30
       19.727143
  0
POINT
  8
Default
 62
255
 10
     1089.352449
 20
      991.594377
 30
       19.743111
  0
POINT
  8
Default
 62
255
 10
     1089.314658
 20
      991.602281
 30
       19.538428
  0
POINT
  8
Default
 62
255
 10
     1089.330656
 20
      991.600224
 30
       19.615973
  0
POINT
  8
Default
 62
255
 10
     1089.329093
 20
      991.577454
 30
       19.605697
  0
POINT
  8
Default
 62
255
 10
     1089.311106
 20
      991.567428
 30
       19.584742
  0
POINT
  8
Default
 62
255
 10
     1089.296502
 20
      991.546380
 30
       19.562616
  0
POINT
  8
Default
 62
255
 10
     1089.341622
 20
      991.588317
 30
       19.642422
  0
POINT
  8
Default
 62
255
 10
     1089.324240
 20
      991.584111
 30
       19.599312
  0
POINT
  8
Default
 62
255
 10
     1089.322982
 20
      991.618654
 30
       19.549925
  0
POINT
  8
Default
 62
255
 10
     1089.325095
 20
      991.611651
 30
       19.592228
  0
POINT
  8
Default
 62
255
 10
     1089.295495
 20
      991.678333
 30
       19.807700
  0
POINT
  8
Default
 62
255
 10
     1089.260755
 20
      991.692769
 30
       19.794476
  0
POINT
  8
Default
 62
255
 10
     1089.195665
 20
      991.741801
 30
       19.915896
  0
POINT
  8
Default
 62
255
 10
     1089.128336
 20
      991.825535
 30
       19.912421
  0
POINT
  8
Default
 62
255
 10
     1089.207096
 20
      991.740576
 30
       19.941000
  0
POINT
  8
Default
 62
255
 10
     1088.910023
 20
      991.832453
 30
       19.912202
  0
POINT
  8
Default
 62
255
 10
     1088.966635
 20
      991.836598
 30
       19.907570
  0
POINT
  8
Default
 62
255
 10
     1089.012243
 20
      991.861995
 30
       19.904280
  0
POINT
  8
Default
 62
255
 10
     1089.047752
 20
      991.868773
 30
       19.912009
  0
POINT
  8
Default
 62
255
 10
     1089.059929
 20
      992.063269
 30
       19.805070
  0
POINT
  8
Default
 62
255
 10
     1089.029321
 20
      992.023763
 30
       19.825536
  0
POINT
  8
Default
 62
255
 10
     1088.987466
 20
      992.001049
 30
       19.839932
  0
POINT
  8
Default
 62
255
 10
     1088.925003
 20
      992.019580
 30
       19.839305
  0
POINT
  8
Default
 62
255
 10
     1088.961220
 20
      992.067913
 30
       19.812163
  0
POINT
  8
Default
 62
255
 10
     1088.984431
 20
      992.062603
 30
       19.818168
  0
POINT
  8
Default
 62
255
 10
     1088.961991
 20
      992.021137
 30
       19.831876
  0
POINT
  8
Default
 62
255
 10
     1089.005441
 20
      992.043686
 30
       19.824563
  0
POINT
  8
Default
 62
255
 10
     1089.055162
 20
      992.015343
 30
       19.838685
  0
POINT
  8
Default
 62
255
 10
     1088.943578
 20
      991.961274
 30
       19.871012
  0
POINT
  8
Default
 62
255
 10
     1088.984748
 20
      991.953822
 30
       19.887849
  0
POINT
  8
Default
 62
255
 10
     1088.949393
 20
      991.982551
 30
       19.871241
  0
POINT
  8
Default
 62
255
 10
     1089.045427
 20
      991.969447
 30
       19.852850
  0
POINT
  8
Default
 62
255
 10
     1089.056210
 20
      991.931968
 30
       19.870131
  0
POINT
  8
Default
 62
255
 10
     1089.099221
 20
      991.987880
 30
       19.842584
  0
POINT
  8
Default
 62
255
 10
     1089.031988
 20
      992.001813
 30
       19.825636
  0
POINT
  8
Default
 62
255
 10
     1089.051593
 20
      992.046519
 30
       19.811712
  0
POINT
  8
Default
 62
255
 10
     1089.152600
 20
      991.863912
 30
       19.994310
  0
POINT
  8
Default
 62
255
 10
     1089.102631
 20
      991.871384
 30
       19.988121
  0
POINT
  8
Default
 62
255
 10
     1089.141624
 20
      992.025189
 30
       19.988403
  0
POINT
  8
Default
 62
255
 10
     1089.147709
 20
      991.986526
 30
       20.000231
  0
POINT
  8
Default
 62
255
 10
     1089.119433
 20
      992.013603
 30
       19.956307
  0
POINT
  8
Default
 62
255
 10
     1089.120266
 20
      992.001143
 30
       19.963593
  0
POINT
  8
Default
 62
255
 10
     1089.093225
 20
      991.961057
 30
       19.951071
  0
POINT
  8
Default
 62
255
 10
     1089.091315
 20
      991.925702
 30
       19.963965
  0
POINT
  8
Default
 62
255
 10
     1089.073451
 20
      991.919492
 30
       19.933590
  0
POINT
  8
Default
 62
255
 10
     1089.076335
 20
      991.894084
 30
       19.949387
  0
POINT
  8
Default
 62
255
 10
     1089.092302
 20
      991.983466
 30
       19.949906
  0
POINT
  8
Default
 62
255
 10
     1089.112014
 20
      991.959417
 30
       19.977583
  0
POINT
  8
Default
 62
255
 10
     1089.134419
 20
      991.955638
 30
       19.991354
  0
POINT
  8
Default
 62
255
 10
     1089.122172
 20
      991.895902
 30
       20.032346
  0
POINT
  8
Default
 62
255
 10
     1089.095173
 20
      991.891035
 30
       19.978413
  0
POINT
  8
Default
 62
255
 10
     1089.118185
 20
      991.860488
 30
       20.015113
  0
POINT
  8
Default
 62
255
 10
     1089.108627
 20
      992.030839
 30
       19.930286
  0
POINT
  8
Default
 62
255
 10
     1089.168364
 20
      991.948718
 30
       20.007454
  0
POINT
  8
Default
 62
255
 10
     1089.290992
 20
      991.696495
 30
       20.019721
  0
POINT
  8
Default
 62
255
 10
     1089.301567
 20
      991.681427
 30
       20.005454
  0
POINT
  8
Default
 62
255
 10
     1089.314638
 20
      991.692887
 30
       20.059633
  0
POINT
  8
Default
 62
255
 10
     1089.329488
 20
      991.697045
 30
       20.083030
  0
POINT
  8
Default
 62
255
 10
     1089.344146
 20
      991.666384
 30
       20.080412
  0
POINT
  8
Default
 62
255
 10
     1089.388904
 20
      991.686823
 30
       20.089147
  0
POINT
  8
Default
 62
255
 10
     1089.401832
 20
      991.651977
 30
       20.084872
  0
POINT
  8
Default
 62
255
 10
     1089.413042
 20
      991.640690
 30
       20.088664
  0
POINT
  8
Default
 62
255
 10
     1089.385444
 20
      991.672771
 30
       20.086667
  0
POINT
  8
Default
 62
255
 10
     1089.288078
 20
      991.704841
 30
       20.048047
  0
POINT
  8
Default
 62
255
 10
     1089.371611
 20
      991.714947
 30
       20.094433
  0
POINT
  8
Default
 62
255
 10
     1089.364216
 20
      991.725398
 30
       20.095019
  0
POINT
  8
Default
 62
255
 10
     1089.351220
 20
      991.720188
 30
       20.090788
  0
POINT
  8
Default
 62
255
 10
     1089.354889
 20
      991.700486
 30
       20.090298
  0
POINT
  8
Default
 62
255
 10
     1089.326528
 20
      991.675848
 30
       20.076295
  0
POINT
  8
Default
 62
255
 10
     1089.336660
 20
      991.720792
 30
       20.089568
  0
POINT
  8
Default
 62
255
 10
     1089.320292
 20
      991.733206
 30
       20.084637
  0
POINT
  8
Default
 62
255
 10
     1089.290190
 20
      991.739413
 30
       20.067785
  0
POINT
  8
Default
 62
255
 10
     1089.342702
 20
      991.763713
 30
       20.084909
  0
POINT
  8
Default
 62
255
 10
     1089.326369
 20
      991.768277
 30
       20.081376
  0
POINT
  8
Default
 62
255
 10
     1089.265027
 20
      991.714301
 30
       20.023458
  0
POINT
  8
Default
 62
255
 10
     1089.286089
 20
      991.719425
 30
       20.055376
  0
POINT
  8
Default
 62
255
 10
     1089.314919
 20
      991.708398
 30
       20.076150
  0
POINT
  8
Default
 62
255
 10
     1089.305830
 20
      991.714415
 30
       20.064100
  0
POINT
  8
Default
 62
255
 10
     1089.304152
 20
      991.735366
 30
       20.077023
  0
POINT
  8
Default
 62
255
 10
     1089.308627
 20
      991.752112
 30
       20.077855
  0
POINT
  8
Default
 62
255
 10
     1089.352016
 20
      991.740215
 30
       20.092266
  0
POINT
  8
Default
 62
255
 10
     1089.392480
 20
      991.625656
 30
       20.080760
  0
POINT
  8
Default
 62
255
 10
     1089.391845
 20
      991.596627
 30
       20.060166
  0
POINT
  8
Default
 62
255
 10
     1089.367027
 20
      991.597898
 30
       20.042822
  0
POINT
  8
Default
 62
255
 10
     1089.351183
 20
      991.644745
 30
       20.032625
  0
POINT
  8
Default
 62
255
 10
     1089.353790
 20
      991.596459
 30
       20.022256
  0
POINT
  8
Default
 62
255
 10
     1089.323194
 20
      991.667913
 30
       20.018508
  0
POINT
  8
Default
 62
255
 10
     1089.342071
 20
      991.670063
 30
       20.022726
  0
POINT
  8
Default
 62
255
 10
     1089.278708
 20
      991.744583
 30
       20.050272
  0
POINT
  8
Default
 62
255
 10
     1089.275901
 20
      991.745269
 30
       20.019587
  0
POINT
  8
Default
 62
255
 10
     1089.257316
 20
      991.722070
 30
       20.002110
  0
POINT
  8
Default
 62
255
 10
     1089.244331
 20
      991.737261
 30
       19.981306
  0
POINT
  8
Default
 62
255
 10
     1089.238832
 20
      991.765965
 30
       19.984067
  0
POINT
  8
Default
 62
255
 10
     1089.232593
 20
      991.937598
 30
       19.980351
  0
POINT
  8
Default
 62
255
 10
     1089.221504
 20
      991.960444
 30
       19.986714
  0
POINT
  8
Default
 62
255
 10
     1088.535145
 20
      992.300107
 30
       20.067773
  0
POINT
  8
Default
 62
255
 10
     1088.520563
 20
      992.292654
 30
       20.065537
  0
POINT
  8
Default
 62
255
 10
     1088.600997
 20
      992.291409
 30
       20.056457
  0
POINT
  8
Default
 62
255
 10
     1088.553088
 20
      992.277045
 30
       20.072423
  0
POINT
  8
Default
 62
255
 10
     1088.549773
 20
      992.241585
 30
       20.089823
  0
POINT
  8
Default
 62
255
 10
     1088.577175
 20
      992.246995
 30
       20.085557
  0
POINT
  8
Default
 62
255
 10
     1088.558428
 20
      992.262704
 30
       20.075668
  0
POINT
  8
Default
 62
255
 10
     1088.534116
 20
      992.226645
 30
       20.087238
  0
POINT
  8
Default
 62
255
 10
     1088.518430
 20
      992.263950
 30
       20.068144
  0
POINT
  8
Default
 62
255
 10
     1088.520196
 20
      992.282019
 30
       20.070490
  0
POINT
  8
Default
 62
255
 10
     1088.549082
 20
      992.191897
 30
       20.072168
  0
POINT
  8
Default
 62
255
 10
     1088.527671
 20
      992.195177
 30
       20.062020
  0
POINT
  8
Default
 62
255
 10
     1088.560275
 20
      992.203165
 30
       20.086337
  0
POINT
  8
Default
 62
255
 10
     1088.538858
 20
      992.203392
 30
       20.069824
  0
POINT
  8
Default
 62
255
 10
     1088.623958
 20
      992.230474
 30
       20.064979
  0
POINT
  8
Default
 62
255
 10
     1088.571561
 20
      992.277342
 30
       20.053035
  0
POINT
  8
Default
 62
255
 10
     1088.625584
 20
      992.190345
 30
       20.036321
  0
POINT
  8
Default
 62
255
 10
     1088.625626
 20
      992.170975
 30
       20.034732
  0
POINT
  8
Default
 62
255
 10
     1088.557065
 20
      992.325401
 30
       20.049937
  0
POINT
  8
Default
 62
255
 10
     1088.566497
 20
      992.335652
 30
       20.048872
  0
POINT
  8
Default
 62
255
 10
     1088.572007
 20
      992.292003
 30
       20.075850
  0
POINT
  8
Default
 62
255
 10
     1088.603810
 20
      992.314388
 30
       20.057636
  0
POINT
  8
Default
 62
255
 10
     1088.539863
 20
      992.277807
 30
       20.068627
  0
POINT
  8
Default
 62
255
 10
     1088.975919
 20
      992.099648
 30
       19.798929
  0
POINT
  8
Default
 62
255
 10
     1088.887843
 20
      992.296173
 30
       19.748607
  0
POINT
  8
Default
 62
255
 10
     1088.857494
 20
      992.258747
 30
       19.757754
  0
POINT
  8
Default
 62
255
 10
     1088.901776
 20
      992.268478
 30
       19.754118
  0
POINT
  8
Default
 62
255
 10
     1088.890932
 20
      992.241612
 30
       19.756853
  0
POINT
  8
Default
 62
255
 10
     1088.879038
 20
      992.277332
 30
       19.752569
  0
POINT
  8
Default
 62
255
 10
     1088.844236
 20
      992.281099
 30
       19.755526
  0
POINT
  8
Default
 62
255
 10
     1088.965593
 20
      992.266196
 30
       19.745496
  0
POINT
  8
Default
 62
255
 10
     1088.945086
 20
      992.273697
 30
       19.749976
  0
POINT
  8
Default
 62
255
 10
     1088.912425
 20
      992.210481
 30
       19.758923
  0
POINT
  8
Default
 62
255
 10
     1088.916690
 20
      992.248899
 30
       19.754138
  0
POINT
  8
Default
 62
255
 10
     1088.921763
 20
      992.158068
 30
       19.770603
  0
POINT
  8
Default
 62
255
 10
     1088.957650
 20
      992.230238
 30
       19.750948
  0
POINT
  8
Default
 62
255
 10
     1088.869604
 20
      992.308825
 30
       19.750339
  0
POINT
  8
Default
 62
255
 10
     1088.906761
 20
      992.383381
 30
       19.667898
  0
POINT
  8
Default
 62
255
 10
     1088.926704
 20
      992.348845
 30
       19.677359
  0
POINT
  8
Default
 62
255
 10
     1088.966403
 20
      992.389352
 30
       19.668629
  0
POINT
  8
Default
 62
255
 10
     1088.997327
 20
      992.375680
 30
       19.672885
  0
POINT
  8
Default
 62
255
 10
     1089.025790
 20
      992.398222
 30
       19.681386
  0
POINT
  8
Default
 62
255
 10
     1088.942251
 20
      992.439876
 30
       19.659863
  0
POINT
  8
Default
 62
255
 10
     1088.878291
 20
      992.487780
 30
       19.644221
  0
POINT
  8
Default
 62
255
 10
     1088.907843
 20
      992.451841
 30
       19.655971
  0
POINT
  8
Default
 62
255
 10
     1088.864660
 20
      992.443248
 30
       19.659092
  0
POINT
  8
Default
 62
255
 10
     1088.916303
 20
      992.424621
 30
       19.668521
  0
POINT
  8
Default
 62
255
 10
     1088.856330
 20
      992.420603
 30
       19.672841
  0
POINT
  8
Default
 62
255
 10
     1088.989779
 20
      992.331803
 30
       19.677731
  0
POINT
  8
Default
 62
255
 10
     1089.026200
 20
      992.352181
 30
       19.673744
  0
POINT
  8
Default
 62
255
 10
     1089.107248
 20
      992.298937
 30
       19.679464
  0
POINT
  8
Default
 62
255
 10
     1089.139103
 20
      992.282846
 30
       19.674912
  0
POINT
  8
Default
 62
255
 10
     1089.020228
 20
      992.090953
 30
       19.805232
  0
POINT
  8
Default
 62
255
 10
     1089.047265
 20
      992.127880
 30
       19.783237
  0
POINT
  8
Default
 62
255
 10
     1088.980091
 20
      992.160701
 30
       19.751826
  0
POINT
  8
Default
 62
255
 10
     1089.014219
 20
      992.180437
 30
       19.738885
  0
POINT
  8
Default
 62
255
 10
     1089.081313
 20
      992.190070
 30
       19.718684
  0
POINT
  8
Default
 62
255
 10
     1089.115000
 20
      991.523000
 30
       19.399000
  0
POINT
  8
Default
 62
255
 10
     1088.326000
 20
      990.730000
 30
       19.619000
  0
POINT
  8
Default
 62
255
 10
     1087.582000
 20
      991.343000
 30
       19.556000
  0
POINT
  8
Default
 62
255
 10
     1088.302000
 20
      992.327000
 30
       19.640000
  0
LINE
  8
Default
 62
255
 10
     1088.252776
 20
      990.906625
 30
       19.604986
 11
     1088.138221
 21
      990.974388
 31
       19.589885
  0
LINE
  8
Default
 62
255
 10
     1088.138221
 20
      990.974388
 30
       19.589885
 11
     1088.065100
 21
      991.072122
 31
       19.582951
  0
LINE
  8
Default
 62
255
 10
     1088.065100
 20
      991.072122
 30
       19.582951
 11
     1088.035475
 21
      991.105554
 31
       19.584912
  0
LINE
  8
Default
 62
255
 10
     1088.035475
 20
      991.105554
 30
       19.584912
 11
     1087.972955
 21
      991.324857
 31
       19.571242
  0
LINE
  8
Default
 62
255
 10
     1087.972955
 20
      991.324857
 30
       19.571242
 11
     1087.954786
 21
      991.413856
 31
       19.560186
  0
LINE
  8
Default
 62
255
 10
     1087.954786
 20
      991.413856
 30
       19.560186
 11
     1088.018996
 21
      991.596249
 31
       19.496988
  0
LINE
  8
Default
 62
255
 10
     1088.355465
 20
      991.795393
 30
       19.512450
 11
     1088.390730
 21
      991.776841
 31
       19.517915
  0
LINE
  8
Default
 62
255
 10
     1088.390730
 20
      991.776841
 30
       19.517915
 11
     1088.412780
 21
      991.773318
 31
       19.520559
  0
LINE
  8
Default
 62
255
 10
     1088.412780
 20
      991.773318
 30
       19.520559
 11
     1088.437972
 21
      991.768995
 31
       19.520253
  0
LINE
  8
Default
 62
255
 10
     1088.437972
 20
      991.768995
 30
       19.520253
 11
     1088.456371
 21
      991.763196
 31
       19.518308
  0
LINE
  8
Default
 62
255
 10
     1088.456371
 20
      991.763196
 30
       19.518308
 11
     1088.573542
 21
      991.756472
 31
       19.481580
  0
LINE
  8
Default
 62
255
 10
     1088.573542
 20
      991.756472
 30
       19.481580
 11
     1088.605283
 21
      991.742329
 31
       19.461312
  0
LINE
  8
Default
 62
255
 10
     1088.605283
 20
      991.742329
 30
       19.461312
 11
     1088.659947
 21
      991.730089
 31
       19.479234
  0
LINE
  8
Default
 62
255
 10
     1088.659947
 20
      991.730089
 30
       19.479234
 11
     1088.696729
 21
      991.721546
 31
       19.471564
  0
LINE
  8
Default
 62
255
 10
     1088.696729
 20
      991.721546
 30
       19.471564
 11
     1088.757863
 21
      991.710962
 31
       19.491026
  0
LINE
  8
Default
 62
255
 10
     1088.252776
 20
      990.906625
 30
       19.604986
 11
     1088.275153
 21
      990.883745
 31
       19.613822
  0
LINE
  8
Default
 62
255
 10
     1088.275153
 20
      990.883745
 30
       19.613822
 11
     1088.335097
 21
      990.854464
 31
       19.612217
  0
LINE
  8
Default
 62
255
 10
     1088.335097
 20
      990.854464
 30
       19.612217
 11
     1088.366248
 21
      990.856118
 31
       19.608655
  0
LINE
  8
Default
 62
255
 10
     1088.366248
 20
      990.856118
 30
       19.608655
 11
     1088.416453
 21
      990.844574
 31
       19.612074
  0
LINE
  8
Default
 62
255
 10
     1088.416453
 20
      990.844574
 30
       19.612074
 11
     1088.482837
 21
      990.849599
 31
       19.596005
  0
LINE
  8
Default
 62
255
 10
     1088.482837
 20
      990.849599
 30
       19.596005
 11
     1088.588253
 21
      990.852121
 31
       19.608932
  0
LINE
  8
Default
 62
255
 10
     1088.833317
 20
      991.676132
 30
       19.397982
 11
     1088.839702
 21
      991.661092
 31
       19.391676
  0
LINE
  8
Default
 62
255
 10
     1088.839702
 20
      991.661092
 30
       19.391676
 11
     1088.853721
 21
      991.636038
 31
       19.388745
  0
LINE
  8
Default
 62
255
 10
     1088.853721
 20
      991.636038
 30
       19.388745
 11
     1088.863433
 21
      991.615859
 31
       19.382848
  0
LINE
  8
Default
 62
255
 10
     1088.863433
 20
      991.615859
 30
       19.382848
 11
     1088.879460
 21
      991.585661
 31
       19.379770
  0
LINE
  8
Default
 62
255
 10
     1088.879460
 20
      991.585661
 30
       19.379770
 11
     1088.915085
 21
      991.525543
 31
       19.382717
  0
LINE
  8
Default
 62
255
 10
     1088.915085
 20
      991.525543
 30
       19.382717
 11
     1088.925450
 21
      991.509944
 31
       19.391076
  0
LINE
  8
Default
 62
255
 10
     1088.925450
 20
      991.509944
 30
       19.391076
 11
     1088.927399
 21
      991.491602
 31
       19.387495
  0
LINE
  8
Default
 62
255
 10
     1088.927399
 20
      991.491602
 30
       19.387495
 11
     1088.939663
 21
      991.435776
 31
       19.384527
  0
LINE
  8
Default
 62
255
 10
     1088.939663
 20
      991.435776
 30
       19.384527
 11
     1088.929204
 21
      991.357591
 31
       19.385913
  0
LINE
  8
Default
 62
255
 10
     1088.929204
 20
      991.357591
 30
       19.385913
 11
     1088.919216
 21
      991.309853
 31
       19.377581
  0
LINE
  8
Default
 62
255
 10
     1088.919216
 20
      991.309853
 30
       19.377581
 11
     1088.914445
 21
      991.289184
 31
       19.371103
  0
LINE
  8
Default
 62
255
 10
     1088.914445
 20
      991.289184
 30
       19.371103
 11
     1088.891311
 21
      991.213259
 31
       19.381473
  0
LINE
  8
Default
 62
255
 10
     1088.891311
 20
      991.213259
 30
       19.381473
 11
     1088.853666
 21
      991.125729
 31
       19.403853
  0
LINE
  8
Default
 62
255
 10
     1088.853666
 20
      991.125729
 30
       19.403853
 11
     1088.846547
 21
      991.107862
 31
       19.409608
  0
LINE
  8
Default
 62
255
 10
     1088.846547
 20
      991.107862
 30
       19.409608
 11
     1088.819140
 21
      991.081266
 31
       19.409339
  0
LINE
  8
Default
 62
255
 10
     1088.803753
 20
      991.697420
 30
       19.413722
 11
     1088.833317
 21
      991.676132
 31
       19.397982
  0
LINE
  8
Default
 62
255
 10
     1088.803753
 20
      991.697420
 30
       19.413722
 11
     1088.858041
 21
      991.712402
 31
       19.416935
  0
LINE
  8
Default
 62
255
 10
     1088.858041
 20
      991.712402
 30
       19.416935
 11
     1088.877836
 21
      991.714868
 31
       19.416712
  0
LINE
  8
Default
 62
255
 10
     1088.877836
 20
      991.714868
 30
       19.416712
 11
     1088.919262
 21
      991.733145
 31
       19.420648
  0
LINE
  8
Default
 62
255
 10
     1088.919262
 20
      991.733145
 30
       19.420648
 11
     1089.027166
 21
      991.784833
 31
       19.478918
  0
LINE
  8
Default
 62
255
 10
     1089.027166
 20
      991.784833
 30
       19.478918
 11
     1089.071975
 21
      991.777669
 31
       19.523299
  0
LINE
  8
Default
 62
255
 10
     1089.071975
 20
      991.777669
 30
       19.523299
 11
     1089.119842
 21
      991.768548
 31
       19.521716
  0
LINE
  8
Default
 62
255
 10
     1089.119842
 20
      991.768548
 30
       19.521716
 11
     1089.208296
 21
      991.698872
 31
       19.491484
  0
LINE
  8
Default
 62
255
 10
     1089.208296
 20
      991.698872
 30
       19.491484
 11
     1089.239450
 21
      991.665064
 31
       19.495106
  0
LINE
  8
Default
 62
255
 10
     1089.239450
 20
      991.665064
 30
       19.495106
 11
     1089.267731
 21
      991.628447
 31
       19.487159
  0
LINE
  8
Default
 62
255
 10
     1089.267731
 20
      991.628447
 30
       19.487159
 11
     1089.277774
 21
      991.600549
 31
       19.472103
  0
LINE
  8
Default
 62
255
 10
     1089.392480
 20
      991.625656
 30
       20.080760
 11
     1089.326528
 21
      991.675848
 31
       20.076295
  0
LINE
  8
Default
 62
255
 10
     1089.326528
 20
      991.675848
 30
       20.076295
 11
     1089.314638
 21
      991.692887
 31
       20.059633
  0
LINE
  8
Default
 62
255
 10
     1089.314638
 20
      991.692887
 30
       20.059633
 11
     1089.288078
 21
      991.704841
 31
       20.048047
  0
LINE
  8
Default
 62
255
 10
     1089.288078
 20
      991.704841
 30
       20.048047
 11
     1089.265027
 21
      991.714301
 31
       20.023458
  0
LINE
  8
Default
 62
255
 10
     1089.265027
 20
      991.714301
 30
       20.023458
 11
     1089.257316
 21
      991.722070
 31
       20.002110
  0
LINE
  8
Default
 62
255
 10
     1089.257316
 20
      991.722070
 30
       20.002110
 11
     1089.244331
 21
      991.737261
 31
       19.981306
  0
LINE
  8
Default
 62
255
 10
     1088.349504
 20
      991.901486
 30
       19.507160
 11
     1088.359151
 21
      991.921638
 31
       19.509731
  0
LINE
  8
Default
 62
255
 10
     1088.359151
 20
      991.921638
 30
       19.509731
 11
     1088.441210
 21
      991.956527
 31
       19.510529
  0
LINE
  8
Default
 62
255
 10
     1088.441210
 20
      991.956527
 30
       19.510529
 11
     1088.478679
 21
      991.985651
 31
       19.505518
  0
LINE
  8
Default
 62
255
 10
     1088.478679
 20
      991.985651
 30
       19.505518
 11
     1088.518094
 21
      991.993448
 31
       19.505491
  0
LINE
  8
Default
 62
255
 10
     1088.256960
 20
      990.499243
 30
       19.609988
 11
     1088.291635
 21
      990.543276
 31
       19.617379
  0
LINE
  8
Default
 62
255
 10
     1088.291635
 20
      990.543276
 30
       19.617379
 11
     1088.480009
 21
      990.714162
 31
       19.623960
  0
LINE
  8
Default
 62
255
 10
     1088.480009
 20
      990.714162
 30
       19.623960
 11
     1088.499710
 21
      990.738901
 31
       19.621306
  0
LINE
  8
Default
 62
255
 10
     1088.499710
 20
      990.738901
 30
       19.621306
 11
     1088.558158
 21
      990.799239
 31
       19.620000
  0
LINE
  8
Default
 62
255
 10
     1088.558158
 20
      990.799239
 30
       19.620000
 11
     1088.588253
 21
      990.852121
 31
       19.608932
  0
LINE
  8
Default
 62
255
 10
     1088.963236
 20
      991.212573
 30
       19.392659
 11
     1089.122761
 21
      991.418349
 31
       19.397014
  0
LINE
  8
Default
 62
255
 10
     1088.256960
 20
      990.499243
 30
       19.609988
 11
     1088.203083
 21
      990.546474
 31
       19.604617
  0
LINE
  8
Default
 62
255
 10
     1088.203083
 20
      990.546474
 30
       19.604617
 11
     1088.161935
 21
      990.600469
 31
       19.611276
  0
LINE
  8
Default
 62
255
 10
     1088.161935
 20
      990.600469
 30
       19.611276
 11
     1088.057995
 21
      990.710846
 31
       19.610308
  0
LINE
  8
Default
 62
255
 10
     1088.057995
 20
      990.710846
 30
       19.610308
 11
     1087.978241
 21
      990.756110
 31
       19.599796
  0
LINE
  8
Default
 62
255
 10
     1087.978241
 20
      990.756110
 30
       19.599796
 11
     1087.943053
 21
      990.795947
 31
       19.599712
  0
LINE
  8
Default
 62
255
 10
     1087.943053
 20
      990.795947
 30
       19.599712
 11
     1087.908129
 21
      990.818117
 31
       19.583889
  0
LINE
  8
Default
 62
255
 10
     1087.908129
 20
      990.818117
 30
       19.583889
 11
     1087.859924
 21
      990.861554
 31
       19.581639
  0
LINE
  8
Default
 62
255
 10
     1087.859924
 20
      990.861554
 30
       19.581639
 11
     1087.820651
 21
      990.892113
 31
       19.579306
  0
LINE
  8
Default
 62
255
 10
     1087.820651
 20
      990.892113
 30
       19.579306
 11
     1087.796441
 21
      990.908751
 31
       19.580919
  0
LINE
  8
Default
 62
255
 10
     1087.796441
 20
      990.908751
 30
       19.580919
 11
     1087.741855
 21
      990.965887
 31
       19.577597
  0
LINE
  8
Default
 62
255
 10
     1087.741855
 20
      990.965887
 30
       19.577597
 11
     1087.532867
 21
      991.161878
 31
       19.554333
  0
LINE
  8
Default
 62
255
 10
     1087.532867
 20
      991.161878
 30
       19.554333
 11
     1087.496236
 21
      991.204414
 31
       19.567784
  0
LINE
  8
Default
 62
255
 10
     1087.496236
 20
      991.204414
 30
       19.567784
 11
     1087.470958
 21
      991.250895
 31
       19.564477
  0
LINE
  8
Default
 62
255
 10
     1087.470958
 20
      991.250895
 30
       19.564477
 11
     1087.444839
 21
      991.273454
 31
       19.568122
  0
LINE
  8
Default
 62
255
 10
     1087.444839
 20
      991.273454
 30
       19.568122
 11
     1087.398748
 21
      991.375783
 31
       19.576886
  0
LINE
  8
Default
 62
255
 10
     1087.398748
 20
      991.375783
 30
       19.576886
 11
     1087.443310
 21
      991.413374
 31
       19.590079
  0
LINE
  8
Default
 62
255
 10
     1087.443310
 20
      991.413374
 30
       19.590079
 11
     1087.476829
 21
      991.436737
 31
       19.594838
  0
LINE
  8
Default
 62
255
 10
     1087.476829
 20
      991.436737
 30
       19.594838
 11
     1087.489019
 21
      991.466303
 31
       19.592478
  0
LINE
  8
Default
 62
255
 10
     1087.489019
 20
      991.466303
 30
       19.592478
 11
     1087.531218
 21
      991.602395
 31
       19.572790
  0
LINE
  8
Default
 62
255
 10
     1087.531218
 20
      991.602395
 30
       19.572790
 11
     1087.575441
 21
      991.726184
 31
       19.568159
  0
LINE
  8
Default
 62
255
 10
     1087.575441
 20
      991.726184
 30
       19.568159
 11
     1087.609697
 21
      991.747279
 31
       19.576138
  0
LINE
  8
Default
 62
255
 10
     1087.609697
 20
      991.747279
 30
       19.576138
 11
     1087.700446
 21
      991.825244
 31
       19.602522
  0
LINE
  8
Default
 62
255
 10
     1087.700446
 20
      991.825244
 30
       19.602522
 11
     1087.728611
 21
      991.841868
 31
       19.604146
  0
LINE
  8
Default
 62
255
 10
     1087.728611
 20
      991.841868
 30
       19.604146
 11
     1087.770739
 21
      991.888202
 31
       19.621371
  0
LINE
  8
Default
 62
255
 10
     1087.770739
 20
      991.888202
 30
       19.621371
 11
     1087.840061
 21
      991.955895
 31
       19.605199
  0
LINE
  8
Default
 62
255
 10
     1087.840061
 20
      991.955895
 30
       19.605199
 11
     1087.922103
 21
      992.068762
 31
       19.587555
  0
LINE
  8
Default
 62
255
 10
     1087.922103
 20
      992.068762
 30
       19.587555
 11
     1087.957505
 21
      992.154702
 31
       19.631462
  0
LINE
  8
Default
 62
255
 10
     1087.957505
 20
      992.154702
 30
       19.631462
 11
     1088.004551
 21
      992.191287
 31
       19.633557
  0
LINE
  8
Default
 62
255
 10
     1088.004551
 20
      992.191287
 30
       19.633557
 11
     1088.199257
 21
      992.377688
 31
       19.667971
  0
LINE
  8
Default
 62
255
 10
     1088.199257
 20
      992.377688
 30
       19.667971
 11
     1088.220088
 21
      992.407487
 31
       19.673576
  0
LINE
  8
Default
 62
255
 10
     1088.220088
 20
      992.407487
 30
       19.673576
 11
     1088.278332
 21
      992.391017
 31
       19.654203
  0
LINE
  8
Default
 62
255
 10
     1088.278332
 20
      992.391017
 30
       19.654203
 11
     1088.325628
 21
      992.358825
 31
       19.640705
  0
LINE
  8
Default
 62
255
 10
     1088.325628
 20
      992.358825
 30
       19.640705
 11
     1088.406054
 21
      992.329872
 31
       19.633109
  0
LINE
  8
Default
 62
255
 10
     1088.406054
 20
      992.329872
 30
       19.633109
 11
     1088.326529
 21
      992.291280
 31
       19.621251
  0
LINE
  8
Default
 62
255
 10
     1088.326529
 20
      992.291280
 30
       19.621251
 11
     1088.313069
 21
      992.265081
 31
       19.621863
  0
LINE
  8
Default
 62
255
 10
     1088.313069
 20
      992.265081
 30
       19.621863
 11
     1088.277067
 21
      992.260498
 31
       19.613968
  0
LINE
  8
Default
 62
255
 10
     1088.406054
 20
      992.329872
 30
       19.633109
 11
     1088.399542
 21
      992.325289
 31
       19.614656
  0
LINE
  8
Default
 62
255
 10
     1088.399542
 20
      992.325289
 30
       19.614656
 11
     1088.417866
 21
      992.307211
 31
       19.519713
  0
LINE
  8
Default
 62
255
 10
     1088.417866
 20
      992.307211
 30
       19.519713
 11
     1088.446730
 21
      992.273527
 31
       19.512148
  0
LINE
  8
Default
 62
255
 10
     1088.446730
 20
      992.273527
 30
       19.512148
 11
     1088.481762
 21
      992.232147
 31
       19.513766
  0
LINE
  8
Default
 62
255
 10
     1088.481762
 20
      992.232147
 30
       19.513766
 11
     1088.494113
 21
      992.203764
 31
       19.517491
  0
LINE
  8
Default
 62
255
 10
     1089.073451
 20
      991.919492
 30
       19.933590
 11
     1089.076335
 21
      991.894084
 31
       19.949387
  0
LINE
  8
Default
 62
255
 10
     1089.076335
 20
      991.894084
 30
       19.949387
 11
     1089.102631
 21
      991.871384
 31
       19.988121
  0
LINE
  8
Default
 62
255
 10
     1089.102631
 20
      991.871384
 30
       19.988121
 11
     1089.118185
 21
      991.860488
 31
       20.015113
  0
LINE
  8
Default
 62
255
 10
     1089.118185
 20
      991.860488
 30
       20.015113
 11
     1089.152600
 21
      991.863912
 31
       19.994310
  0
LINE
  8
Default
 62
255
 10
     1089.073451
 20
      991.919492
 30
       19.933590
 11
     1089.108627
 21
      992.030839
 31
       19.930286
  0
LINE
  8
Default
 62
255
 10
     1088.678872
 20
      990.909057
 30
       19.519858
 11
     1088.666509
 21
      990.908076
 31
       19.485104
  0
LINE
  8
Default
 62
255
 10
     1088.666509
 20
      990.908076
 30
       19.485104
 11
     1088.579704
 21
      990.883330
 31
       19.405039
  0
LINE
  8
Default
 62
255
 10
     1088.579704
 20
      990.883330
 30
       19.405039
 11
     1088.544528
 21
      990.896604
 31
       19.397663
  0
LINE
  8
Default
 62
255
 10
     1088.544528
 20
      990.896604
 30
       19.397663
 11
     1088.513002
 21
      990.910902
 31
       19.398866
  0
LINE
  8
Default
 62
255
 10
     1088.513002
 20
      990.910902
 30
       19.398866
 11
     1088.491892
 21
      990.925241
 31
       19.386772
  0
LINE
  8
Default
 62
255
 10
     1088.491892
 20
      990.925241
 30
       19.386772
 11
     1088.475574
 21
      990.931148
 31
       19.379426
  0
LINE
  8
Default
 62
255
 10
     1088.475574
 20
      990.931148
 30
       19.379426
 11
     1088.445184
 21
      990.929288
 31
       19.378742
  0
LINE
  8
Default
 62
255
 10
     1088.445184
 20
      990.929288
 30
       19.378742
 11
     1088.418121
 21
      990.924763
 31
       19.382301
  0
LINE
  8
Default
 62
255
 10
     1088.418121
 20
      990.924763
 30
       19.382301
 11
     1088.393684
 21
      990.936982
 31
       19.382484
  0
LINE
  8
Default
 62
255
 10
     1088.393684
 20
      990.936982
 30
       19.382484
 11
     1088.367751
 21
      990.943885
 31
       19.384494
  0
LINE
  8
Default
 62
255
 10
     1088.367751
 20
      990.943885
 30
       19.384494
 11
     1088.340542
 21
      990.943114
 31
       19.384672
  0
LINE
  8
Default
 62
255
 10
     1088.340542
 20
      990.943114
 30
       19.384672
 11
     1088.297998
 21
      990.950554
 31
       19.376697
  0
LINE
  8
Default
 62
255
 10
     1088.297998
 20
      990.950554
 30
       19.376697
 11
     1088.269820
 21
      990.952814
 31
       19.373111
  0
LINE
  8
Default
 62
255
 10
     1088.269820
 20
      990.952814
 30
       19.373111
 11
     1088.250527
 21
      990.969584
 31
       19.374137
  0
LINE
  8
Default
 62
255
 10
     1088.250527
 20
      990.969584
 30
       19.374137
 11
     1088.224535
 21
      990.978847
 31
       19.381060
  0
LINE
  8
Default
 62
255
 10
     1088.224535
 20
      990.978847
 30
       19.381060
 11
     1088.183996
 21
      991.023721
 31
       19.386558
  0
LINE
  8
Default
 62
255
 10
     1088.183996
 20
      991.023721
 30
       19.386558
 11
     1088.140812
 21
      991.070442
 31
       19.405308
  0
LINE
  8
Default
 62
255
 10
     1088.140812
 20
      991.070442
 30
       19.405308
 11
     1088.110747
 21
      991.091633
 31
       19.401040
  0
LINE
  8
Default
 62
255
 10
     1088.110747
 20
      991.091633
 30
       19.401040
 11
     1088.087114
 21
      991.116760
 31
       19.399071
  0
LINE
  8
Default
 62
255
 10
     1088.087114
 20
      991.116760
 30
       19.399071
 11
     1088.070851
 21
      991.137810
 31
       19.397022
  0
LINE
  8
Default
 62
255
 10
     1088.070851
 20
      991.137810
 30
       19.397022
 11
     1088.044048
 21
      991.272995
 31
       19.390761
  0
LINE
  8
Default
 62
255
 10
     1088.044048
 20
      991.272995
 30
       19.390761
 11
     1088.036679
 21
      991.455089
 31
       19.388779
  0
LINE
  8
Default
 62
255
 10
     1088.036679
 20
      991.455089
 30
       19.388779
 11
     1088.052716
 21
      991.494319
 31
       19.370336
  0
LINE
  8
Default
 62
255
 10
     1088.052716
 20
      991.494319
 30
       19.370336
 11
     1088.073881
 21
      991.539630
 31
       19.358852
  0
LINE
  8
Default
 62
255
 10
     1088.073881
 20
      991.539630
 30
       19.358852
 11
     1088.096168
 21
      991.582824
 31
       19.357280
  0
LINE
  8
Default
 62
255
 10
     1088.096168
 20
      991.582824
 30
       19.357280
 11
     1088.167321
 21
      991.667495
 31
       19.354001
  0
LINE
  8
Default
 62
255
 10
     1088.355465
 20
      991.795393
 30
       19.512450
 11
     1088.349504
 21
      991.901486
 31
       19.507160
  0
LINE
  8
Default
 62
255
 10
     1088.494113
 20
      992.203764
 30
       19.517491
 11
     1088.517036
 21
      992.196409
 31
       19.524210
  0
LINE
  8
Default
 62
255
 10
     1088.517036
 20
      992.196409
 30
       19.524210
 11
     1088.547715
 21
      992.197868
 31
       19.518857
  0
LINE
  8
Default
 62
255
 10
     1088.547715
 20
      992.197868
 30
       19.518857
 11
     1088.579781
 21
      992.192464
 31
       19.522732
  0
LINE
  8
Default
 62
255
 10
     1088.579781
 20
      992.192464
 30
       19.522732
 11
     1088.589599
 21
      992.175211
 31
       19.506598
  0
LINE
  8
Default
 62
255
 10
     1088.589599
 20
      992.175211
 30
       19.506598
 11
     1088.596209
 21
      992.159906
 31
       19.506872
  0
LINE
  8
Default
 62
255
 10
     1088.596209
 20
      992.159906
 30
       19.506872
 11
     1088.611836
 21
      992.151358
 31
       19.506350
  0
LINE
  8
Default
 62
255
 10
     1088.611836
 20
      992.151358
 30
       19.506350
 11
     1088.650082
 21
      992.135021
 31
       19.514709
  0
LINE
  8
Default
 62
255
 10
     1089.122761
 20
      991.418349
 30
       19.397014
 11
     1089.264109
 21
      991.582522
 31
       19.456740
  0
LINE
  8
Default
 62
255
 10
     1089.264109
 20
      991.582522
 30
       19.456740
 11
     1089.277774
 21
      991.600549
 31
       19.472103
  0
LINE
  8
Default
 62
255
 10
     1088.588253
 20
      990.852121
 30
       19.608932
 11
     1088.644784
 21
      990.874680
 31
       19.583623
  0
LINE
  8
Default
 62
255
 10
     1088.644784
 20
      990.874680
 30
       19.583623
 11
     1088.678872
 21
      990.909057
 31
       19.519858
  0
LINE
  8
Default
 62
255
 10
     1088.644784
 20
      990.874680
 30
       19.583623
 11
     1088.765826
 21
      990.946401
 31
       19.530645
  0
LINE
  8
Default
 62
255
 10
     1088.765826
 20
      990.946401
 30
       19.530645
 11
     1088.825984
 21
      991.006126
 31
       19.497399
  0
LINE
  8
Default
 62
255
 10
     1088.825984
 20
      991.006126
 30
       19.497399
 11
     1088.841771
 21
      991.033131
 31
       19.483646
  0
LINE
  8
Default
 62
255
 10
     1088.841771
 20
      991.033131
 30
       19.483646
 11
     1088.877862
 21
      991.089528
 31
       19.452387
  0
LINE
  8
Default
 62
255
 10
     1088.877862
 20
      991.089528
 30
       19.452387
 11
     1088.963236
 21
      991.212573
 31
       19.392659
  0
LINE
  8
Default
 62
255
 10
     1088.167321
 20
      991.667495
 30
       19.354001
 11
     1088.233009
 21
      991.694756
 31
       19.319141
  0
LINE
  8
Default
 62
255
 10
     1088.233009
 20
      991.694756
 30
       19.319141
 11
     1088.292409
 21
      991.715157
 31
       19.291639
  0
LINE
  8
Default
 62
255
 10
     1088.292409
 20
      991.715157
 30
       19.291639
 11
     1088.431868
 21
      991.735832
 31
       19.253146
  0
LINE
  8
Default
 62
255
 10
     1088.600997
 20
      992.291409
 30
       20.056457
 11
     1088.597774
 21
      992.274009
 31
       20.056571
  0
LINE
  8
Default
 62
255
 10
     1088.603810
 20
      992.314388
 30
       20.057636
 11
     1088.600997
 21
      992.291409
 31
       20.056457
  0
LINE
  8
Default
 62
255
 10
     1088.597774
 20
      992.274009
 30
       20.056571
 11
     1088.577175
 21
      992.246995
 31
       20.085557
  0
LINE
  8
Default
 62
255
 10
     1088.577175
 20
      992.246995
 30
       20.085557
 11
     1088.560275
 21
      992.203165
 31
       20.086337
  0
LINE
  8
Default
 62
255
 10
     1088.560275
 20
      992.203165
 30
       20.086337
 11
     1088.615354
 21
      992.197656
 31
       20.052550
  0
LINE
  8
Default
 62
255
 10
     1088.615354
 20
      992.197656
 30
       20.052550
 11
     1088.689994
 21
      992.136554
 31
       19.971838
  0
LINE
  8
Default
 62
255
 10
     1088.689994
 20
      992.136554
 30
       19.971838
 11
     1088.674902
 21
      992.106673
 31
       19.979358
  0
LINE
  8
Default
 62
255
 10
     1088.674902
 20
      992.106673
 30
       19.979358
 11
     1088.674820
 21
      992.084313
 31
       19.973889
  0
LINE
  8
Default
 62
255
 10
     1088.674820
 20
      992.084313
 30
       19.973889
 11
     1088.664920
 21
      992.067156
 31
       19.974394
  0
LINE
  8
Default
 62
255
 10
     1088.664920
 20
      992.067156
 30
       19.974394
 11
     1088.690476
 21
      992.035552
 31
       19.993165
  0
LINE
  8
Default
 62
255
 10
     1088.690476
 20
      992.035552
 30
       19.993165
 11
     1088.698134
 21
      992.012719
 31
       19.996364
  0
LINE
  8
Default
 62
255
 10
     1088.698134
 20
      992.012719
 30
       19.996364
 11
     1088.714741
 21
      992.006454
 31
       20.000151
  0
LINE
  8
Default
 62
255
 10
     1088.714741
 20
      992.006454
 30
       20.000151
 11
     1088.738699
 21
      991.990845
 31
       20.002780
  0
LINE
  8
Default
 62
255
 10
     1088.738699
 20
      991.990845
 30
       20.002780
 11
     1088.820552
 21
      991.937947
 31
       19.994657
  0
LINE
  8
Default
 62
255
 10
     1088.820552
 20
      991.937947
 30
       19.994657
 11
     1088.820960
 21
      991.921598
 31
       19.994733
  0
LINE
  8
Default
 62
255
 10
     1088.820960
 20
      991.921598
 30
       19.994733
 11
     1088.889160
 21
      991.811315
 31
       19.903190
  0
LINE
  8
Default
 62
255
 10
     1088.889160
 20
      991.811315
 30
       19.903190
 11
     1088.899004
 21
      991.802313
 31
       19.906842
  0
LINE
  8
Default
 62
255
 10
     1088.899004
 20
      991.802313
 30
       19.906842
 11
     1088.918139
 21
      991.798296
 31
       19.909368
  0
LINE
  8
Default
 62
255
 10
     1088.918139
 20
      991.798296
 30
       19.909368
 11
     1088.938793
 21
      991.807301
 31
       19.911395
  0
LINE
  8
Default
 62
255
 10
     1088.938793
 20
      991.807301
 30
       19.911395
 11
     1089.013124
 21
      991.821571
 31
       19.916071
  0
LINE
  8
Default
 62
255
 10
     1089.013124
 20
      991.821571
 30
       19.916071
 11
     1089.042388
 21
      991.852452
 31
       19.914166
  0
LINE
  8
Default
 62
255
 10
     1089.152600
 20
      991.863912
 30
       19.994310
 11
     1089.122172
 21
      991.895902
 31
       20.032346
  0
LINE
  8
Default
 62
255
 10
     1089.122172
 20
      991.895902
 30
       20.032346
 11
     1089.168364
 21
      991.948718
 31
       20.007454
  0
LINE
  8
Default
 62
255
 10
     1089.244331
 20
      991.737261
 30
       19.981306
 11
     1089.238832
 21
      991.765965
 31
       19.984067
  0
LINE
  8
Default
 62
255
 10
     1089.238832
 20
      991.765965
 30
       19.984067
 11
     1089.152600
 21
      991.863912
 31
       19.994310
  0
LINE
  8
Default
 62
255
 10
     1089.076335
 20
      991.894084
 30
       19.949387
 11
     1089.042388
 21
      991.852452
 31
       19.914166
  0
LINE
  8
Default
 62
255
 10
     1088.355465
 20
      991.795393
 30
       19.512450
 11
     1088.258705
 21
      991.760170
 31
       19.480803
  0
LINE
  8
Default
 62
255
 10
     1088.258705
 20
      991.760170
 30
       19.480803
 11
     1088.177931
 21
      991.718585
 31
       19.441447
  0
LINE
  8
Default
 62
255
 10
     1088.177931
 20
      991.718585
 30
       19.441447
 11
     1088.142954
 21
      991.708973
 31
       19.438266
  0
LINE
  8
Default
 62
255
 10
     1088.142954
 20
      991.708973
 30
       19.438266
 11
     1088.103192
 21
      991.687780
 31
       19.448133
  0
LINE
  8
Default
 62
255
 10
     1088.103192
 20
      991.687780
 30
       19.448133
 11
     1088.063828
 21
      991.640079
 31
       19.455282
  0
LINE
  8
Default
 62
255
 10
     1088.063828
 20
      991.640079
 30
       19.455282
 11
     1088.018996
 21
      991.596249
 31
       19.496988
  0
ENDSEC
  0
EOF
