  0
SECTION
  2
HEADER
  9
$PDMODE
 70
   34
  9
$PDSIZE
 40
   -3.0
  0
ENDSEC
  0
SECTION
  2
TABLES
  0
TABLE
  2
LTYPE
 70
 1
  0
LTYPE
  2
CONTINUOUS
  70
 64
  3
Solid line
  72
 65
 73
 0
  40
 0.0
  0
ENDTAB
  0
TABLE
  2
LAYER
 70
 1
 0
LAYER
  2
Default
  70
 0
 62
 7
  6
CONTINUOUS
  0
ENDTAB
  0 
ENDSEC
  0
SECTION
  2
ENTITIES
  0
POINT
  8
Default
 62
255
 10
     1101.937000
 20
     1000.821000
 30
       19.286000
  0
POINT
  8
Default
 62
255
 10
     1102.610000
 20
     1001.858000
 30
       19.295000
  0
POINT
  8
Default
 62
255
 10
     1103.239000
 20
     1001.376000
 30
       19.251000
  0
POINT
  8
Default
 62
255
 10
     1102.636000
 20
     1000.419000
 30
       19.306000
  0
POINT
  8
Default
 62
255
 10
     1101.979316
 20
     1000.875285
 30
       19.297941
  0
POINT
  8
Default
 62
255
 10
     1102.053181
 20
     1000.928180
 30
       19.159274
  0
POINT
  8
Default
 62
255
 10
     1102.122623
 20
     1001.084175
 30
       19.119714
  0
POINT
  8
Default
 62
255
 10
     1101.971965
 20
     1000.778405
 30
       19.302691
  0
POINT
  8
Default
 62
255
 10
     1101.996978
 20
     1000.690009
 30
       19.334960
  0
POINT
  8
Default
 62
255
 10
     1102.119088
 20
     1000.623576
 30
       19.320400
  0
POINT
  8
Default
 62
255
 10
     1102.190587
 20
     1000.756535
 30
       19.298071
  0
POINT
  8
Default
 62
255
 10
     1102.309145
 20
     1001.745187
 30
       19.328583
  0
POINT
  8
Default
 62
255
 10
     1102.392246
 20
     1001.719325
 30
       19.328798
  0
POINT
  8
Default
 62
255
 10
     1102.272147
 20
     1001.648021
 30
       19.339226
  0
POINT
  8
Default
 62
255
 10
     1102.270726
 20
     1001.552636
 30
       19.341744
  0
POINT
  8
Default
 62
255
 10
     1102.367508
 20
     1001.441351
 30
       19.053569
  0
POINT
  8
Default
 62
255
 10
     1102.449188
 20
     1001.507481
 30
       19.049460
  0
POINT
  8
Default
 62
255
 10
     1102.516680
 20
     1001.429367
 30
       19.054314
  0
POINT
  8
Default
 62
255
 10
     1102.840885
 20
     1001.778691
 30
       19.281717
  0
POINT
  8
Default
 62
255
 10
     1102.790411
 20
     1001.701542
 30
       19.285184
  0
POINT
  8
Default
 62
255
 10
     1102.981866
 20
     1001.526343
 30
       19.282329
  0
POINT
  8
Default
 62
255
 10
     1102.880446
 20
     1001.752187
 30
       19.306541
  0
POINT
  8
Default
 62
255
 10
     1103.301070
 20
     1001.218543
 30
       19.312659
  0
POINT
  8
Default
 62
255
 10
     1103.232458
 20
     1001.257771
 30
       19.202551
  0
POINT
  8
Default
 62
255
 10
     1103.190645
 20
     1001.208832
 30
       19.128530
  0
POINT
  8
Default
 62
255
 10
     1102.804785
 20
     1001.423947
 30
       19.050038
  0
POINT
  8
Default
 62
255
 10
     1102.985006
 20
     1001.308358
 30
       18.982855
  0
POINT
  8
Default
 62
255
 10
     1103.143625
 20
     1000.979861
 30
       19.319815
  0
POINT
  8
Default
 62
255
 10
     1102.982936
 20
     1001.065757
 30
       19.000592
  0
POINT
  8
Default
 62
255
 10
     1102.888372
 20
     1001.078084
 30
       19.012620
  0
POINT
  8
Default
 62
255
 10
     1102.996629
 20
     1000.800232
 30
       19.280161
  0
POINT
  8
Default
 62
255
 10
     1102.816776
 20
     1000.935672
 30
       19.052817
  0
POINT
  8
Default
 62
255
 10
     1102.495307
 20
     1000.324112
 30
       19.324902
  0
POINT
  8
Default
 62
255
 10
     1102.759200
 20
     1000.620939
 30
       19.111364
  0
POINT
  8
Default
 62
255
 10
     1102.419247
 20
     1000.731997
 30
       19.077328
  0
POINT
  8
Default
 62
255
 10
     1102.638460
 20
     1001.046431
 30
       19.061102
  0
POINT
  8
Default
 62
255
 10
     1102.479269
 20
     1001.141334
 30
       19.107145
  0
POINT
  8
Default
 62
255
 10
     1102.357206
 20
     1001.272391
 30
       19.095408
  0
POINT
  8
Default
 62
255
 10
     1102.509616
 20
     1000.881774
 30
       19.092983
  0
POINT
  8
Default
 62
255
 10
     1102.447233
 20
     1000.950156
 30
       19.109046
  0
POINT
  8
Default
 62
255
 10
     1102.356201
 20
     1000.991400
 30
       19.105672
  0
POINT
  8
Default
 62
255
 10
     1102.784628
 20
     1001.132971
 30
       19.050522
  0
POINT
  8
Default
 62
255
 10
     1102.677484
 20
     1001.220409
 30
       19.066318
  0
POINT
  8
Default
 62
255
 10
     1102.563862
 20
     1001.315701
 30
       19.058673
  0
POINT
  8
Default
 62
255
 10
     1102.711490
 20
     1000.411352
 30
       19.337993
  0
POINT
  8
Default
 62
255
 10
     1102.727700
 20
     1000.436046
 30
       19.329153
  0
POINT
  8
Default
 62
255
 10
     1102.726810
 20
     1000.450364
 30
       19.319175
  0
POINT
  8
Default
 62
255
 10
     1102.740874
 20
     1000.480637
 30
       19.306701
  0
POINT
  8
Default
 62
255
 10
     1102.779034
 20
     1000.500862
 30
       19.311871
  0
POINT
  8
Default
 62
255
 10
     1102.780959
 20
     1000.438613
 30
       19.330362
  0
POINT
  8
Default
 62
255
 10
     1102.820089
 20
     1000.422937
 30
       19.315556
  0
POINT
  8
Default
 62
255
 10
     1102.766907
 20
     1000.333731
 30
       19.331340
  0
POINT
  8
Default
 62
255
 10
     1102.676583
 20
     1000.361723
 30
       19.348063
  0
POINT
  8
Default
 62
255
 10
     1102.628497
 20
     1000.340723
 30
       19.339010
  0
POINT
  8
Default
 62
255
 10
     1102.693117
 20
     1000.453333
 30
       19.305417
  0
POINT
  8
Default
 62
255
 10
     1102.657143
 20
     1000.396250
 30
       19.321011
  0
POINT
  8
Default
 62
255
 10
     1102.644726
 20
     1000.495378
 30
       19.286743
  0
POINT
  8
Default
 62
255
 10
     1102.563208
 20
     1000.412214
 30
       19.302639
  0
POINT
  8
Default
 62
255
 10
     1102.519636
 20
     1000.442045
 30
       19.315388
  0
POINT
  8
Default
 62
255
 10
     1102.607078
 20
     1000.473161
 30
       19.300007
  0
POINT
  8
Default
 62
255
 10
     1102.571389
 20
     1000.502561
 30
       19.295876
  0
POINT
  8
Default
 62
255
 10
     1102.752754
 20
     1000.536571
 30
       19.289291
  0
POINT
  8
Default
 62
255
 10
     1102.562607
 20
     1000.458363
 30
       19.318663
  0
POINT
  8
Default
 62
255
 10
     1102.628713
 20
     1000.309003
 30
       19.355660
  0
POINT
  8
Default
 62
255
 10
     1102.683761
 20
     1000.307667
 30
       19.365247
  0
POINT
  8
Default
 62
255
 10
     1102.572154
 20
     1000.348842
 30
       19.316118
  0
POINT
  8
Default
 62
255
 10
     1102.613220
 20
     1000.361844
 30
       19.319080
  0
POINT
  8
Default
 62
255
 10
     1102.412719
 20
     1000.650605
 30
       19.250855
  0
POINT
  8
Default
 62
255
 10
     1102.375856
 20
     1000.611625
 30
       19.281836
  0
POINT
  8
Default
 62
255
 10
     1102.408304
 20
     1000.578679
 30
       19.300670
  0
POINT
  8
Default
 62
255
 10
     1102.388669
 20
     1000.551531
 30
       19.306059
  0
POINT
  8
Default
 62
255
 10
     1102.475496
 20
     1000.584617
 30
       19.278764
  0
POINT
  8
Default
 62
255
 10
     1102.441274
 20
     1000.611588
 30
       19.277938
  0
POINT
  8
Default
 62
255
 10
     1102.456978
 20
     1000.547794
 30
       19.295363
  0
POINT
  8
Default
 62
255
 10
     1102.435390
 20
     1000.575969
 30
       19.281864
  0
POINT
  8
Default
 62
255
 10
     1102.480321
 20
     1000.528141
 30
       19.305321
  0
POINT
  8
Default
 62
255
 10
     1102.414918
 20
     1000.616237
 30
       19.276267
  0
POINT
  8
Default
 62
255
 10
     1102.387155
 20
     1000.597021
 30
       19.288701
  0
POINT
  8
Default
 62
255
 10
     1102.334139
 20
     1000.531899
 30
       19.297881
  0
POINT
  8
Default
 62
255
 10
     1102.360703
 20
     1000.562599
 30
       19.297766
  0
POINT
  8
Default
 62
255
 10
     1102.376627
 20
     1000.513716
 30
       19.304296
  0
POINT
  8
Default
 62
255
 10
     1102.423845
 20
     1000.531232
 30
       19.303414
  0
POINT
  8
Default
 62
255
 10
     1102.535793
 20
     1000.507345
 30
       19.296541
  0
POINT
  8
Default
 62
255
 10
     1102.543314
 20
     1000.561343
 30
       19.255265
  0
POINT
  8
Default
 62
255
 10
     1102.514963
 20
     1000.516760
 30
       19.297771
  0
POINT
  8
Default
 62
255
 10
     1102.515927
 20
     1000.556881
 30
       19.279870
  0
POINT
  8
Default
 62
255
 10
     1102.482461
 20
     1000.461619
 30
       19.308505
  0
POINT
  8
Default
 62
255
 10
     1102.555926
 20
     1000.528326
 30
       19.273577
  0
POINT
  8
Default
 62
255
 10
     1102.412270
 20
     1000.482250
 30
       19.307950
  0
POINT
  8
Default
 62
255
 10
     1102.440853
 20
     1000.476974
 30
       19.311287
  0
POINT
  8
Default
 62
255
 10
     1102.515909
 20
     1000.426517
 30
       19.323215
  0
POINT
  8
Default
 62
255
 10
     1102.525859
 20
     1000.391520
 30
       19.322918
  0
POINT
  8
Default
 62
255
 10
     1102.516599
 20
     1000.373770
 30
       19.317833
  0
POINT
  8
Default
 62
255
 10
     1102.475337
 20
     1000.367479
 30
       19.328920
  0
POINT
  8
Default
 62
255
 10
     1102.509820
 20
     1000.352326
 30
       19.321507
  0
POINT
  8
Default
 62
255
 10
     1102.422752
 20
     1000.379392
 30
       19.332861
  0
POINT
  8
Default
 62
255
 10
     1102.445059
 20
     1000.357392
 30
       19.331224
  0
POINT
  8
Default
 62
255
 10
     1102.369123
 20
     1000.474893
 30
       19.311123
  0
POINT
  8
Default
 62
255
 10
     1102.390183
 20
     1000.462454
 30
       19.313706
  0
POINT
  8
Default
 62
255
 10
     1102.481325
 20
     1000.430225
 30
       19.320893
  0
POINT
  8
Default
 62
255
 10
     1102.465877
 20
     1000.400752
 30
       19.324318
  0
POINT
  8
Default
 62
255
 10
     1102.430771
 20
     1000.418785
 30
       19.324044
  0
POINT
  8
Default
 62
255
 10
     1102.221772
 20
     1000.773330
 30
       19.284160
  0
POINT
  8
Default
 62
255
 10
     1102.351742
 20
     1000.686418
 30
       19.268361
  0
POINT
  8
Default
 62
255
 10
     1102.340864
 20
     1000.650586
 30
       19.277292
  0
POINT
  8
Default
 62
255
 10
     1102.315227
 20
     1000.642457
 30
       19.284498
  0
POINT
  8
Default
 62
255
 10
     1102.321764
 20
     1000.677462
 30
       19.276851
  0
POINT
  8
Default
 62
255
 10
     1102.292953
 20
     1000.706952
 30
       19.281808
  0
POINT
  8
Default
 62
255
 10
     1102.274692
 20
     1000.616105
 30
       19.298186
  0
POINT
  8
Default
 62
255
 10
     1102.247151
 20
     1000.597239
 30
       19.303660
  0
POINT
  8
Default
 62
255
 10
     1102.189216
 20
     1000.575119
 30
       19.320328
  0
POINT
  8
Default
 62
255
 10
     1102.209407
 20
     1000.632704
 30
       19.313573
  0
POINT
  8
Default
 62
255
 10
     1102.206088
 20
     1000.662247
 30
       19.305638
  0
POINT
  8
Default
 62
255
 10
     1102.168141
 20
     1000.626510
 30
       19.314561
  0
POINT
  8
Default
 62
255
 10
     1102.166570
 20
     1000.666374
 30
       19.312025
  0
POINT
  8
Default
 62
255
 10
     1102.132860
 20
     1000.567259
 30
       19.331313
  0
POINT
  8
Default
 62
255
 10
     1102.153318
 20
     1000.545418
 30
       19.330847
  0
POINT
  8
Default
 62
255
 10
     1102.208296
 20
     1000.521508
 30
       19.329723
  0
POINT
  8
Default
 62
255
 10
     1102.250927
 20
     1000.627650
 30
       19.306522
  0
POINT
  8
Default
 62
255
 10
     1102.272170
 20
     1000.648396
 30
       19.293986
  0
POINT
  8
Default
 62
255
 10
     1102.264408
 20
     1000.698636
 30
       19.291870
  0
POINT
  8
Default
 62
255
 10
     1102.279831
 20
     1000.684844
 30
       19.288569
  0
POINT
  8
Default
 62
255
 10
     1102.253665
 20
     1000.726452
 30
       19.288955
  0
POINT
  8
Default
 62
255
 10
     1102.310718
 20
     1000.733529
 30
       19.275469
  0
POINT
  8
Default
 62
255
 10
     1102.292794
 20
     1000.747777
 30
       19.273705
  0
POINT
  8
Default
 62
255
 10
     1102.230576
 20
     1000.728196
 30
       19.294847
  0
POINT
  8
Default
 62
255
 10
     1102.284848
 20
     1000.763206
 30
       19.264346
  0
POINT
  8
Default
 62
255
 10
     1102.270116
 20
     1000.772126
 30
       19.266966
  0
POINT
  8
Default
 62
255
 10
     1102.191685
 20
     1000.730306
 30
       19.299073
  0
POINT
  8
Default
 62
255
 10
     1102.246555
 20
     1000.762724
 30
       19.283509
  0
POINT
  8
Default
 62
255
 10
     1102.262829
 20
     1000.577691
 30
       19.305719
  0
POINT
  8
Default
 62
255
 10
     1102.235312
 20
     1000.512566
 30
       19.326646
  0
POINT
  8
Default
 62
255
 10
     1102.310392
 20
     1000.527596
 30
       19.296047
  0
POINT
  8
Default
 62
255
 10
     1102.282111
 20
     1000.497147
 30
       19.316984
  0
POINT
  8
Default
 62
255
 10
     1102.263442
 20
     1000.426528
 30
       19.333339
  0
POINT
  8
Default
 62
255
 10
     1102.202578
 20
     1000.685182
 30
       19.298641
  0
POINT
  8
Default
 62
255
 10
     1102.177048
 20
     1000.697374
 30
       19.304713
  0
POINT
  8
Default
 62
255
 10
     1102.243213
 20
     1000.692594
 30
       19.295737
  0
POINT
  8
Default
 62
255
 10
     1102.063571
 20
     1000.806622
 30
       19.301398
  0
POINT
  8
Default
 62
255
 10
     1102.100018
 20
     1000.852674
 30
       19.285641
  0
POINT
  8
Default
 62
255
 10
     1102.070464
 20
     1000.776114
 30
       19.295283
  0
POINT
  8
Default
 62
255
 10
     1102.016440
 20
     1000.774780
 30
       19.296856
  0
POINT
  8
Default
 62
255
 10
     1102.031926
 20
     1000.889668
 30
       19.278392
  0
POINT
  8
Default
 62
255
 10
     1101.999393
 20
     1000.899172
 30
       19.283701
  0
POINT
  8
Default
 62
255
 10
     1101.997185
 20
     1000.842474
 30
       19.308330
  0
POINT
  8
Default
 62
255
 10
     1102.039330
 20
     1000.883054
 30
       19.282539
  0
POINT
  8
Default
 62
255
 10
     1102.041707
 20
     1000.870039
 30
       19.303516
  0
POINT
  8
Default
 62
255
 10
     1102.060782
 20
     1000.834390
 30
       19.306135
  0
POINT
  8
Default
 62
255
 10
     1102.082578
 20
     1000.874599
 30
       19.287972
  0
POINT
  8
Default
 62
255
 10
     1102.007992
 20
     1000.793286
 30
       19.295474
  0
POINT
  8
Default
 62
255
 10
     1102.002883
 20
     1000.817440
 30
       19.300846
  0
POINT
  8
Default
 62
255
 10
     1102.107927
 20
     1000.788212
 30
       19.295394
  0
POINT
  8
Default
 62
255
 10
     1102.165816
 20
     1000.748508
 30
       19.303481
  0
POINT
  8
Default
 62
255
 10
     1102.203788
 20
     1000.777903
 30
       19.283243
  0
POINT
  8
Default
 62
255
 10
     1102.209695
 20
     1000.802561
 30
       19.275615
  0
POINT
  8
Default
 62
255
 10
     1102.184234
 20
     1000.791214
 30
       19.289915
  0
POINT
  8
Default
 62
255
 10
     1102.158587
 20
     1000.790226
 30
       19.295579
  0
POINT
  8
Default
 62
255
 10
     1102.099233
 20
     1000.828820
 30
       19.296751
  0
POINT
  8
Default
 62
255
 10
     1102.112314
 20
     1000.843556
 30
       19.283498
  0
POINT
  8
Default
 62
255
 10
     1102.102441
 20
     1000.864758
 30
       19.275525
  0
POINT
  8
Default
 62
255
 10
     1102.119863
 20
     1000.858230
 30
       19.276055
  0
POINT
  8
Default
 62
255
 10
     1102.138739
 20
     1000.844918
 30
       19.279622
  0
POINT
  8
Default
 62
255
 10
     1102.167964
 20
     1000.839710
 30
       19.284471
  0
POINT
  8
Default
 62
255
 10
     1102.196092
 20
     1000.827843
 30
       19.259334
  0
POINT
  8
Default
 62
255
 10
     1102.217777
 20
     1000.812077
 30
       19.251410
  0
POINT
  8
Default
 62
255
 10
     1101.969092
 20
     1000.685487
 30
       19.332914
  0
POINT
  8
Default
 62
255
 10
     1102.048999
 20
     1000.651409
 30
       19.334315
  0
POINT
  8
Default
 62
255
 10
     1102.020561
 20
     1000.672415
 30
       19.333233
  0
POINT
  8
Default
 62
255
 10
     1102.077155
 20
     1000.675434
 30
       19.322787
  0
POINT
  8
Default
 62
255
 10
     1102.112320
 20
     1000.631422
 30
       19.324478
  0
POINT
  8
Default
 62
255
 10
     1102.107526
 20
     1000.654862
 30
       19.321007
  0
POINT
  8
Default
 62
255
 10
     1102.100545
 20
     1000.679593
 30
       19.317253
  0
POINT
  8
Default
 62
255
 10
     1102.001574
 20
     1000.706374
 30
       19.318850
  0
POINT
  8
Default
 62
255
 10
     1101.990034
 20
     1000.739086
 30
       19.311187
  0
POINT
  8
Default
 62
255
 10
     1102.023700
 20
     1000.744040
 30
       19.308091
  0
POINT
  8
Default
 62
255
 10
     1102.036583
 20
     1000.700525
 30
       19.320046
  0
POINT
  8
Default
 62
255
 10
     1102.045432
 20
     1000.724999
 30
       19.312537
  0
POINT
  8
Default
 62
255
 10
     1102.126298
 20
     1000.774448
 30
       19.301493
  0
POINT
  8
Default
 62
255
 10
     1102.095957
 20
     1000.758221
 30
       19.305089
  0
POINT
  8
Default
 62
255
 10
     1102.136580
 20
     1000.754120
 30
       19.305896
  0
POINT
  8
Default
 62
255
 10
     1102.150435
 20
     1000.704718
 30
       19.309462
  0
POINT
  8
Default
 62
255
 10
     1102.090753
 20
     1000.709035
 30
       19.320029
  0
POINT
  8
Default
 62
255
 10
     1102.111341
 20
     1000.731747
 30
       19.311116
  0
POINT
  8
Default
 62
255
 10
     1102.081197
 20
     1000.727691
 30
       19.315514
  0
POINT
  8
Default
 62
255
 10
     1102.056509
 20
     1000.675024
 30
       19.326454
  0
POINT
  8
Default
 62
255
 10
     1101.970372
 20
     1000.913138
 30
       19.287243
  0
POINT
  8
Default
 62
255
 10
     1101.979904
 20
     1000.928759
 30
       19.291111
  0
POINT
  8
Default
 62
255
 10
     1102.015978
 20
     1000.928834
 30
       19.291133
  0
POINT
  8
Default
 62
255
 10
     1101.973189
 20
     1000.892326
 30
       19.293735
  0
POINT
  8
Default
 62
255
 10
     1101.946174
 20
     1000.863686
 30
       19.301147
  0
POINT
  8
Default
 62
255
 10
     1101.945494
 20
     1000.883383
 30
       19.302335
  0
POINT
  8
Default
 62
255
 10
     1101.932375
 20
     1000.911842
 30
       19.307583
  0
POINT
  8
Default
 62
255
 10
     1101.973167
 20
     1000.968513
 30
       19.313502
  0
POINT
  8
Default
 62
255
 10
     1101.933578
 20
     1000.953885
 30
       19.319889
  0
POINT
  8
Default
 62
255
 10
     1101.910664
 20
     1000.961299
 30
       19.336504
  0
POINT
  8
Default
 62
255
 10
     1101.977595
 20
     1000.984770
 30
       19.297986
  0
POINT
  8
Default
 62
255
 10
     1101.989066
 20
     1000.974891
 30
       19.293311
  0
POINT
  8
Default
 62
255
 10
     1101.951146
 20
     1000.930759
 30
       19.296570
  0
POINT
  8
Default
 62
255
 10
     1101.926879
 20
     1000.864001
 30
       19.306216
  0
POINT
  8
Default
 62
255
 10
     1101.915874
 20
     1000.846885
 30
       19.310144
  0
POINT
  8
Default
 62
255
 10
     1101.897259
 20
     1000.880513
 30
       19.320170
  0
POINT
  8
Default
 62
255
 10
     1101.877052
 20
     1000.887040
 30
       19.335908
  0
POINT
  8
Default
 62
255
 10
     1101.892512
 20
     1000.903582
 30
       19.328190
  0
POINT
  8
Default
 62
255
 10
     1101.846568
 20
     1000.895297
 30
       19.332468
  0
POINT
  8
Default
 62
255
 10
     1101.923828
 20
     1000.776551
 30
       19.309110
  0
POINT
  8
Default
 62
255
 10
     1101.897100
 20
     1000.822590
 30
       19.315058
  0
POINT
  8
Default
 62
255
 10
     1101.925662
 20
     1000.711612
 30
       19.322626
  0
POINT
  8
Default
 62
255
 10
     1101.903897
 20
     1000.751176
 30
       19.317742
  0
POINT
  8
Default
 62
255
 10
     1101.867219
 20
     1000.739071
 30
       19.322634
  0
POINT
  8
Default
 62
255
 10
     1101.860527
 20
     1000.791640
 30
       19.323962
  0
POINT
  8
Default
 62
255
 10
     1101.858086
 20
     1000.813397
 30
       19.323903
  0
POINT
  8
Default
 62
255
 10
     1101.840375
 20
     1000.876002
 30
       19.362836
  0
POINT
  8
Default
 62
255
 10
     1101.857431
 20
     1000.866284
 30
       19.348139
  0
POINT
  8
Default
 62
255
 10
     1101.828580
 20
     1000.841253
 30
       19.353566
  0
POINT
  8
Default
 62
255
 10
     1101.842947
 20
     1000.826361
 30
       19.339160
  0
POINT
  8
Default
 62
255
 10
     1101.821550
 20
     1000.791573
 30
       19.344030
  0
POINT
  8
Default
 62
255
 10
     1101.840436
 20
     1000.701272
 30
       19.332243
  0
POINT
  8
Default
 62
255
 10
     1103.337169
 20
     1001.370482
 30
       19.268448
  0
POINT
  8
Default
 62
255
 10
     1103.313493
 20
     1001.346765
 30
       19.266024
  0
POINT
  8
Default
 62
255
 10
     1103.346532
 20
     1001.330300
 30
       19.285089
  0
POINT
  8
Default
 62
255
 10
     1103.297145
 20
     1001.356621
 30
       19.251926
  0
POINT
  8
Default
 62
255
 10
     1103.282281
 20
     1001.309501
 30
       19.242924
  0
POINT
  8
Default
 62
255
 10
     1103.264284
 20
     1001.435055
 30
       19.251154
  0
POINT
  8
Default
 62
255
 10
     1103.295670
 20
     1001.418344
 30
       19.254462
  0
POINT
  8
Default
 62
255
 10
     1103.317121
 20
     1001.416462
 30
       19.264784
  0
POINT
  8
Default
 62
255
 10
     1103.321105
 20
     1001.383552
 30
       19.261239
  0
POINT
  8
Default
 62
255
 10
     1103.242146
 20
     1001.321620
 30
       19.222278
  0
POINT
  8
Default
 62
255
 10
     1103.263323
 20
     1001.346765
 30
       19.237711
  0
POINT
  8
Default
 62
255
 10
     1103.324579
 20
     1001.293029
 30
       19.292366
  0
POINT
  8
Default
 62
255
 10
     1103.256855
 20
     1001.303636
 30
       19.222068
  0
POINT
  8
Default
 62
255
 10
     1103.353425
 20
     1001.373693
 30
       19.283176
  0
POINT
  8
Default
 62
255
 10
     1103.358796
 20
     1001.414089
 30
       19.281408
  0
POINT
  8
Default
 62
255
 10
     1103.362744
 20
     1001.353771
 30
       19.292125
  0
POINT
  8
Default
 62
255
 10
     1103.390834
 20
     1001.358246
 30
       19.308034
  0
POINT
  8
Default
 62
255
 10
     1103.403072
 20
     1001.435055
 30
       19.296339
  0
POINT
  8
Default
 62
255
 10
     1103.388081
 20
     1001.388018
 30
       19.300053
  0
POINT
  8
Default
 62
255
 10
     1103.371834
 20
     1001.317988
 30
       19.306643
  0
POINT
  8
Default
 62
255
 10
     1103.364084
 20
     1001.292238
 30
       19.309824
  0
POINT
  8
Default
 62
255
 10
     1103.339986
 20
     1001.279502
 30
       19.312107
  0
POINT
  8
Default
 62
255
 10
     1103.113164
 20
     1001.430025
 30
       19.284024
  0
POINT
  8
Default
 62
255
 10
     1103.112031
 20
     1001.408516
 30
       19.288944
  0
POINT
  8
Default
 62
255
 10
     1103.163834
 20
     1001.428199
 30
       19.277940
  0
POINT
  8
Default
 62
255
 10
     1103.178105
 20
     1001.425714
 30
       19.279433
  0
POINT
  8
Default
 62
255
 10
     1103.160140
 20
     1001.456869
 30
       19.270039
  0
POINT
  8
Default
 62
255
 10
     1103.142633
 20
     1001.474995
 30
       19.268840
  0
POINT
  8
Default
 62
255
 10
     1103.106796
 20
     1001.448439
 30
       19.276413
  0
POINT
  8
Default
 62
255
 10
     1103.138200
 20
     1001.417876
 30
       19.279944
  0
POINT
  8
Default
 62
255
 10
     1103.147701
 20
     1001.433190
 30
       19.276472
  0
POINT
  8
Default
 62
255
 10
     1103.119490
 20
     1001.379957
 30
       19.286789
  0
POINT
  8
Default
 62
255
 10
     1103.203962
 20
     1001.500506
 30
       19.267696
  0
POINT
  8
Default
 62
255
 10
     1103.184343
 20
     1001.474445
 30
       19.271263
  0
POINT
  8
Default
 62
255
 10
     1103.186559
 20
     1001.513770
 30
       19.270654
  0
POINT
  8
Default
 62
255
 10
     1103.180579
 20
     1001.532771
 30
       19.272447
  0
POINT
  8
Default
 62
255
 10
     1103.209424
 20
     1001.466749
 30
       19.262015
  0
POINT
  8
Default
 62
255
 10
     1103.112401
 20
     1001.479764
 30
       19.267428
  0
POINT
  8
Default
 62
255
 10
     1103.153525
 20
     1001.497452
 30
       19.271547
  0
POINT
  8
Default
 62
255
 10
     1103.145762
 20
     1001.525285
 30
       19.273645
  0
POINT
  8
Default
 62
255
 10
     1103.087495
 20
     1001.475963
 30
       19.268860
  0
POINT
  8
Default
 62
255
 10
     1103.096291
 20
     1001.494877
 30
       19.272001
  0
POINT
  8
Default
 62
255
 10
     1103.118106
 20
     1001.505829
 30
       19.268328
  0
POINT
  8
Default
 62
255
 10
     1103.078656
 20
     1001.493037
 30
       19.267689
  0
POINT
  8
Default
 62
255
 10
     1103.091718
 20
     1001.512374
 30
       19.265234
  0
POINT
  8
Default
 62
255
 10
     1103.104604
 20
     1001.532766
 30
       19.269967
  0
POINT
  8
Default
 62
255
 10
     1103.125283
 20
     1001.525358
 30
       19.269450
  0
POINT
  8
Default
 62
255
 10
     1103.082412
 20
     1001.542008
 30
       19.268793
  0
POINT
  8
Default
 62
255
 10
     1103.109863
 20
     1001.548894
 30
       19.276006
  0
POINT
  8
Default
 62
255
 10
     1103.133939
 20
     1001.542287
 30
       19.275397
  0
POINT
  8
Default
 62
255
 10
     1103.117185
 20
     1001.570782
 30
       19.278703
  0
POINT
  8
Default
 62
255
 10
     1103.088999
 20
     1001.558366
 30
       19.276820
  0
POINT
  8
Default
 62
255
 10
     1103.172037
 20
     1001.549994
 30
       19.272670
  0
POINT
  8
Default
 62
255
 10
     1103.141991
 20
     1001.559773
 30
       19.278394
  0
POINT
  8
Default
 62
255
 10
     1103.076588
 20
     1001.442476
 30
       19.280777
  0
POINT
  8
Default
 62
255
 10
     1103.055272
 20
     1001.450661
 30
       19.281815
  0
POINT
  8
Default
 62
255
 10
     1103.059653
 20
     1001.477881
 30
       19.269796
  0
POINT
  8
Default
 62
255
 10
     1103.091329
 20
     1001.433484
 30
       19.286930
  0
POINT
  8
Default
 62
255
 10
     1103.079117
 20
     1001.407211
 30
       19.276972
  0
POINT
  8
Default
 62
255
 10
     1103.096992
 20
     1001.419545
 30
       19.289040
  0
POINT
  8
Default
 62
255
 10
     1103.097204
 20
     1001.404395
 30
       19.289235
  0
POINT
  8
Default
 62
255
 10
     1103.035416
 20
     1001.424621
 30
       19.270170
  0
POINT
  8
Default
 62
255
 10
     1103.053023
 20
     1001.416291
 30
       19.267166
  0
POINT
  8
Default
 62
255
 10
     1103.017090
 20
     1001.443816
 30
       19.272259
  0
POINT
  8
Default
 62
255
 10
     1103.008596
 20
     1001.463084
 30
       19.269241
  0
POINT
  8
Default
 62
255
 10
     1103.031972
 20
     1001.485739
 30
       19.267177
  0
POINT
  8
Default
 62
255
 10
     1103.031068
 20
     1001.462184
 30
       19.275799
  0
POINT
  8
Default
 62
255
 10
     1102.977603
 20
     1001.466302
 30
       19.269501
  0
POINT
  8
Default
 62
255
 10
     1102.988365
 20
     1001.499162
 30
       19.263602
  0
POINT
  8
Default
 62
255
 10
     1102.951516
 20
     1001.484226
 30
       19.268446
  0
POINT
  8
Default
 62
255
 10
     1102.961024
 20
     1001.465058
 30
       19.263023
  0
POINT
  8
Default
 62
255
 10
     1103.008909
 20
     1001.513830
 30
       19.262210
  0
POINT
  8
Default
 62
255
 10
     1103.029659
 20
     1001.503977
 30
       19.267374
  0
POINT
  8
Default
 62
255
 10
     1103.026104
 20
     1001.524895
 30
       19.263535
  0
POINT
  8
Default
 62
255
 10
     1103.043206
 20
     1001.546053
 30
       19.264185
  0
POINT
  8
Default
 62
255
 10
     1103.009299
 20
     1001.533429
 30
       19.263828
  0
POINT
  8
Default
 62
255
 10
     1103.018141
 20
     1001.553325
 30
       19.262853
  0
POINT
  8
Default
 62
255
 10
     1102.951597
 20
     1001.508157
 30
       19.262857
  0
POINT
  8
Default
 62
255
 10
     1103.068500
 20
     1001.558928
 30
       19.262686
  0
POINT
  8
Default
 62
255
 10
     1103.073647
 20
     1001.528978
 30
       19.263756
  0
POINT
  8
Default
 62
255
 10
     1103.041373
 20
     1001.518411
 30
       19.268599
  0
POINT
  8
Default
 62
255
 10
     1103.081788
 20
     1001.568940
 30
       19.273467
  0
POINT
  8
Default
 62
255
 10
     1103.079337
 20
     1001.585404
 30
       19.271316
  0
POINT
  8
Default
 62
255
 10
     1103.073170
 20
     1001.601060
 30
       19.273777
  0
POINT
  8
Default
 62
255
 10
     1103.047805
 20
     1001.568487
 30
       19.264037
  0
POINT
  8
Default
 62
255
 10
     1103.031012
 20
     1001.575023
 30
       19.263042
  0
POINT
  8
Default
 62
255
 10
     1103.050490
 20
     1001.593630
 30
       19.265605
  0
POINT
  8
Default
 62
255
 10
     1103.014815
 20
     1001.592672
 30
       19.265348
  0
POINT
  8
Default
 62
255
 10
     1103.026621
 20
     1001.626280
 30
       19.273922
  0
POINT
  8
Default
 62
255
 10
     1103.043652
 20
     1001.633001
 30
       19.276138
  0
POINT
  8
Default
 62
255
 10
     1103.064342
 20
     1001.626820
 30
       19.275843
  0
POINT
  8
Default
 62
255
 10
     1102.994717
 20
     1001.612689
 30
       19.267286
  0
POINT
  8
Default
 62
255
 10
     1103.008197
 20
     1001.631101
 30
       19.269518
  0
POINT
  8
Default
 62
255
 10
     1102.800977
 20
     1001.644497
 30
       19.265097
  0
POINT
  8
Default
 62
255
 10
     1102.828860
 20
     1001.684159
 30
       19.281319
  0
POINT
  8
Default
 62
255
 10
     1102.824892
 20
     1001.650408
 30
       19.272455
  0
POINT
  8
Default
 62
255
 10
     1102.827479
 20
     1001.664944
 30
       19.274794
  0
POINT
  8
Default
 62
255
 10
     1102.845249
 20
     1001.714242
 30
       19.281436
  0
POINT
  8
Default
 62
255
 10
     1102.862097
 20
     1001.703959
 30
       19.282812
  0
POINT
  8
Default
 62
255
 10
     1102.860894
 20
     1001.684942
 30
       19.280829
  0
POINT
  8
Default
 62
255
 10
     1102.862272
 20
     1001.658784
 30
       19.276462
  0
POINT
  8
Default
 62
255
 10
     1102.876219
 20
     1001.642783
 30
       19.274562
  0
POINT
  8
Default
 62
255
 10
     1102.853053
 20
     1001.646569
 30
       19.269407
  0
POINT
  8
Default
 62
255
 10
     1102.839165
 20
     1001.644600
 30
       19.273002
  0
POINT
  8
Default
 62
255
 10
     1102.792028
 20
     1001.666710
 30
       19.270306
  0
POINT
  8
Default
 62
255
 10
     1102.793145
 20
     1001.684720
 30
       19.273575
  0
POINT
  8
Default
 62
255
 10
     1102.805287
 20
     1001.625919
 30
       19.262072
  0
POINT
  8
Default
 62
255
 10
     1102.810392
 20
     1001.670901
 30
       19.277880
  0
POINT
  8
Default
 62
255
 10
     1102.813882
 20
     1001.719832
 30
       19.283094
  0
POINT
  8
Default
 62
255
 10
     1102.821656
 20
     1001.700040
 30
       19.288750
  0
POINT
  8
Default
 62
255
 10
     1102.843519
 20
     1001.690798
 30
       19.282776
  0
POINT
  8
Default
 62
255
 10
     1102.807706
 20
     1001.692233
 30
       19.283601
  0
POINT
  8
Default
 62
255
 10
     1102.826236
 20
     1001.725411
 30
       19.280063
  0
POINT
  8
Default
 62
255
 10
     1102.830363
 20
     1001.757260
 30
       19.299215
  0
POINT
  8
Default
 62
255
 10
     1102.803557
 20
     1001.742471
 30
       19.282178
  0
POINT
  8
Default
 62
255
 10
     1102.767422
 20
     1001.702256
 30
       19.283562
  0
POINT
  8
Default
 62
255
 10
     1102.777341
 20
     1001.733261
 30
       19.284351
  0
POINT
  8
Default
 62
255
 10
     1102.760580
 20
     1001.683261
 30
       19.269973
  0
POINT
  8
Default
 62
255
 10
     1102.779136
 20
     1001.682837
 30
       19.277750
  0
POINT
  8
Default
 62
255
 10
     1102.733484
 20
     1001.700138
 30
       19.279990
  0
POINT
  8
Default
 62
255
 10
     1102.742187
 20
     1001.730680
 30
       19.283995
  0
POINT
  8
Default
 62
255
 10
     1102.763404
 20
     1001.722259
 30
       19.281883
  0
POINT
  8
Default
 62
255
 10
     1102.849674
 20
     1001.737805
 30
       19.280590
  0
POINT
  8
Default
 62
255
 10
     1102.828137
 20
     1001.599080
 30
       19.262232
  0
POINT
  8
Default
 62
255
 10
     1102.807585
 20
     1001.598496
 30
       19.262129
  0
POINT
  8
Default
 62
255
 10
     1102.830444
 20
     1001.584831
 30
       19.260567
  0
POINT
  8
Default
 62
255
 10
     1102.851673
 20
     1001.580773
 30
       19.268358
  0
POINT
  8
Default
 62
255
 10
     1102.862914
 20
     1001.590945
 30
       19.268886
  0
POINT
  8
Default
 62
255
 10
     1102.861036
 20
     1001.557464
 30
       19.257163
  0
POINT
  8
Default
 62
255
 10
     1102.836657
 20
     1001.620262
 30
       19.267270
  0
POINT
  8
Default
 62
255
 10
     1102.868106
 20
     1001.625131
 30
       19.267697
  0
POINT
  8
Default
 62
255
 10
     1102.850590
 20
     1001.620552
 30
       19.266756
  0
POINT
  8
Default
 62
255
 10
     1102.870817
 20
     1001.606340
 30
       19.268825
  0
POINT
  8
Default
 62
255
 10
     1102.899014
 20
     1001.592761
 30
       19.266067
  0
POINT
  8
Default
 62
255
 10
     1102.886930
 20
     1001.577747
 30
       19.260315
  0
POINT
  8
Default
 62
255
 10
     1102.878328
 20
     1001.585367
 30
       19.263132
  0
POINT
  8
Default
 62
255
 10
     1102.886365
 20
     1001.615892
 30
       19.270091
  0
POINT
  8
Default
 62
255
 10
     1102.836840
 20
     1001.557685
 30
       19.262933
  0
POINT
  8
Default
 62
255
 10
     1102.854529
 20
     1001.542156
 30
       19.252351
  0
POINT
  8
Default
 62
255
 10
     1102.867386
 20
     1001.528327
 30
       19.245279
  0
POINT
  8
Default
 62
255
 10
     1102.883443
 20
     1001.538961
 30
       19.254791
  0
POINT
  8
Default
 62
255
 10
     1102.877290
 20
     1001.545994
 30
       19.257270
  0
POINT
  8
Default
 62
255
 10
     1102.894678
 20
     1001.553005
 30
       19.259010
  0
POINT
  8
Default
 62
255
 10
     1102.901765
 20
     1001.577208
 30
       19.263873
  0
POINT
  8
Default
 62
255
 10
     1102.916930
 20
     1001.534810
 30
       19.260657
  0
POINT
  8
Default
 62
255
 10
     1102.894907
 20
     1001.528486
 30
       19.253235
  0
POINT
  8
Default
 62
255
 10
     1102.981608
 20
     1001.607837
 30
       19.263228
  0
POINT
  8
Default
 62
255
 10
     1102.968485
 20
     1001.659785
 30
       19.281038
  0
POINT
  8
Default
 62
255
 10
     1102.949710
 20
     1001.687484
 30
       19.284099
  0
POINT
  8
Default
 62
255
 10
     1102.955904
 20
     1001.650093
 30
       19.280759
  0
POINT
  8
Default
 62
255
 10
     1102.975411
 20
     1001.683500
 30
       19.283933
  0
POINT
  8
Default
 62
255
 10
     1102.992215
 20
     1001.646345
 30
       19.271760
  0
POINT
  8
Default
 62
255
 10
     1102.971513
 20
     1001.637818
 30
       19.273569
  0
POINT
  8
Default
 62
255
 10
     1102.963479
 20
     1001.675998
 30
       19.285184
  0
POINT
  8
Default
 62
255
 10
     1102.937563
 20
     1001.705805
 30
       19.285745
  0
POINT
  8
Default
 62
255
 10
     1103.040481
 20
     1001.666242
 30
       19.288829
  0
POINT
  8
Default
 62
255
 10
     1103.016946
 20
     1001.660187
 30
       19.282933
  0
POINT
  8
Default
 62
255
 10
     1103.022804
 20
     1001.686838
 30
       19.289508
  0
POINT
  8
Default
 62
255
 10
     1102.981534
 20
     1001.694992
 30
       19.292329
  0
POINT
  8
Default
 62
255
 10
     1102.986141
 20
     1001.718430
 30
       19.292303
  0
POINT
  8
Default
 62
255
 10
     1103.013303
 20
     1001.703475
 30
       19.290636
  0
POINT
  8
Default
 62
255
 10
     1103.015114
 20
     1001.739908
 30
       19.295151
  0
POINT
  8
Default
 62
255
 10
     1103.037291
 20
     1001.724697
 30
       19.291845
  0
POINT
  8
Default
 62
255
 10
     1103.090059
 20
     1001.707817
 30
       19.282841
  0
POINT
  8
Default
 62
255
 10
     1103.060445
 20
     1001.696509
 30
       19.285163
  0
POINT
  8
Default
 62
255
 10
     1102.987257
 20
     1001.744605
 30
       19.297324
  0
POINT
  8
Default
 62
255
 10
     1102.954255
 20
     1001.726937
 30
       19.294510
  0
POINT
  8
Default
 62
255
 10
     1102.948644
 20
     1001.752240
 30
       19.295259
  0
POINT
  8
Default
 62
255
 10
     1102.937415
 20
     1001.773226
 30
       19.291547
  0
POINT
  8
Default
 62
255
 10
     1102.977824
 20
     1001.771957
 30
       19.298325
  0
POINT
  8
Default
 62
255
 10
     1102.963755
 20
     1001.781070
 30
       19.298282
  0
POINT
  8
Default
 62
255
 10
     1102.937323
 20
     1001.731723
 30
       19.295754
  0
POINT
  8
Default
 62
255
 10
     1102.910715
 20
     1001.779079
 30
       19.289311
  0
POINT
  8
Default
 62
255
 10
     1102.920586
 20
     1001.752576
 30
       19.290185
  0
POINT
  8
Default
 62
255
 10
     1102.877868
 20
     1001.796091
 30
       19.285979
  0
POINT
  8
Default
 62
255
 10
     1102.935433
 20
     1001.806706
 30
       19.294422
  0
POINT
  8
Default
 62
255
 10
     1102.863838
 20
     1001.770085
 30
       19.287635
  0
POINT
  8
Default
 62
255
 10
     1102.670916
 20
     1001.682620
 30
       19.263144
  0
POINT
  8
Default
 62
255
 10
     1102.688391
 20
     1001.688246
 30
       19.274607
  0
POINT
  8
Default
 62
255
 10
     1102.692700
 20
     1001.700249
 30
       19.278264
  0
POINT
  8
Default
 62
255
 10
     1102.668944
 20
     1001.695729
 30
       19.268200
  0
POINT
  8
Default
 62
255
 10
     1102.696668
 20
     1001.726509
 30
       19.277183
  0
POINT
  8
Default
 62
255
 10
     1102.715623
 20
     1001.701363
 30
       19.267830
  0
POINT
  8
Default
 62
255
 10
     1102.717250
 20
     1001.712793
 30
       19.279200
  0
POINT
  8
Default
 62
255
 10
     1102.678619
 20
     1001.712341
 30
       19.279032
  0
POINT
  8
Default
 62
255
 10
     1102.667012
 20
     1001.718647
 30
       19.274482
  0
POINT
  8
Default
 62
255
 10
     1102.675393
 20
     1001.731687
 30
       19.276097
  0
POINT
  8
Default
 62
255
 10
     1102.652449
 20
     1001.715532
 30
       19.261196
  0
POINT
  8
Default
 62
255
 10
     1102.653990
 20
     1001.704280
 30
       19.262456
  0
POINT
  8
Default
 62
255
 10
     1102.721777
 20
     1001.731552
 30
       19.280201
  0
POINT
  8
Default
 62
255
 10
     1102.710110
 20
     1001.755710
 30
       19.284228
  0
POINT
  8
Default
 62
255
 10
     1102.748307
 20
     1001.748157
 30
       19.280022
  0
POINT
  8
Default
 62
255
 10
     1102.727137
 20
     1001.755330
 30
       19.282316
  0
POINT
  8
Default
 62
255
 10
     1102.699437
 20
     1001.739073
 30
       19.279556
  0
POINT
  8
Default
 62
255
 10
     1102.691450
 20
     1001.762795
 30
       19.282411
  0
POINT
  8
Default
 62
255
 10
     1102.707500
 20
     1001.769047
 30
       19.288287
  0
POINT
  8
Default
 62
255
 10
     1102.715341
 20
     1001.778344
 30
       19.286474
  0
POINT
  8
Default
 62
255
 10
     1102.770503
 20
     1001.774979
 30
       19.280546
  0
POINT
  8
Default
 62
255
 10
     1102.786719
 20
     1001.776870
 30
       19.281785
  0
POINT
  8
Default
 62
255
 10
     1102.807132
 20
     1001.779342
 30
       19.278087
  0
POINT
  8
Default
 62
255
 10
     1102.837716
 20
     1001.789154
 30
       19.283953
  0
POINT
  8
Default
 62
255
 10
     1102.815678
 20
     1001.793533
 30
       19.278657
  0
POINT
  8
Default
 62
255
 10
     1102.760762
 20
     1001.783284
 30
       19.283604
  0
POINT
  8
Default
 62
255
 10
     1102.727429
 20
     1001.795486
 30
       19.283646
  0
POINT
  8
Default
 62
255
 10
     1102.778506
 20
     1001.793546
 30
       19.280672
  0
POINT
  8
Default
 62
255
 10
     1102.748105
 20
     1001.814473
 30
       19.284387
  0
POINT
  8
Default
 62
255
 10
     1102.725717
 20
     1001.824055
 30
       19.279891
  0
POINT
  8
Default
 62
255
 10
     1102.761821
 20
     1001.804977
 30
       19.278640
  0
POINT
  8
Default
 62
255
 10
     1102.666804
 20
     1001.848865
 30
       19.291305
  0
POINT
  8
Default
 62
255
 10
     1102.674283
 20
     1001.839392
 30
       19.287307
  0
POINT
  8
Default
 62
255
 10
     1102.683977
 20
     1001.864952
 30
       19.299817
  0
POINT
  8
Default
 62
255
 10
     1102.686366
 20
     1001.889384
 30
       19.294839
  0
POINT
  8
Default
 62
255
 10
     1102.657743
 20
     1001.835825
 30
       19.282952
  0
POINT
  8
Default
 62
255
 10
     1102.680298
 20
     1001.812660
 30
       19.279381
  0
POINT
  8
Default
 62
255
 10
     1102.661258
 20
     1001.819771
 30
       19.276977
  0
POINT
  8
Default
 62
255
 10
     1102.680179
 20
     1001.789800
 30
       19.282905
  0
POINT
  8
Default
 62
255
 10
     1102.708954
 20
     1001.826596
 30
       19.282807
  0
POINT
  8
Default
 62
255
 10
     1102.699435
 20
     1001.873213
 30
       19.297438
  0
POINT
  8
Default
 62
255
 10
     1102.711464
 20
     1001.862897
 30
       19.290518
  0
POINT
  8
Default
 62
255
 10
     1102.645612
 20
     1001.859829
 30
       19.289632
  0
POINT
  8
Default
 62
255
 10
     1102.742762
 20
     1001.832004
 30
       19.283134
  0
POINT
  8
Default
 62
255
 10
     1102.727337
 20
     1001.839105
 30
       19.283443
  0
POINT
  8
Default
 62
255
 10
     1102.718360
 20
     1001.847853
 30
       19.285712
  0
POINT
  8
Default
 62
255
 10
     1102.615591
 20
     1001.907302
 30
       19.300559
  0
POINT
  8
Default
 62
255
 10
     1102.630900
 20
     1001.927189
 30
       19.302859
  0
POINT
  8
Default
 62
255
 10
     1102.631181
 20
     1001.894786
 30
       19.296321
  0
POINT
  8
Default
 62
255
 10
     1102.665534
 20
     1001.885585
 30
       19.294785
  0
POINT
  8
Default
 62
255
 10
     1102.705392
 20
     1001.919448
 30
       19.300016
  0
POINT
  8
Default
 62
255
 10
     1102.568546
 20
     1001.862477
 30
       19.294069
  0
POINT
  8
Default
 62
255
 10
     1102.595619
 20
     1001.894717
 30
       19.299059
  0
POINT
  8
Default
 62
255
 10
     1102.634865
 20
     1001.875977
 30
       19.293144
  0
POINT
  8
Default
 62
255
 10
     1102.652482
 20
     1001.900376
 30
       19.301042
  0
POINT
  8
Default
 62
255
 10
     1102.620055
 20
     1001.757144
 30
       19.259110
  0
POINT
  8
Default
 62
255
 10
     1102.608124
 20
     1001.791259
 30
       19.266213
  0
POINT
  8
Default
 62
255
 10
     1102.598898
 20
     1001.721944
 30
       19.244152
  0
POINT
  8
Default
 62
255
 10
     1102.569827
 20
     1001.802529
 30
       19.275565
  0
POINT
  8
Default
 62
255
 10
     1102.598945
 20
     1001.749215
 30
       19.253408
  0
POINT
  8
Default
 62
255
 10
     1102.624705
 20
     1001.736774
 30
       19.245601
  0
POINT
  8
Default
 62
255
 10
     1102.648441
 20
     1001.741703
 30
       19.253903
  0
POINT
  8
Default
 62
255
 10
     1102.629013
 20
     1001.702909
 30
       19.236697
  0
POINT
  8
Default
 62
255
 10
     1102.618116
 20
     1001.716930
 30
       19.236067
  0
POINT
  8
Default
 62
255
 10
     1102.613946
 20
     1001.778989
 30
       19.257247
  0
POINT
  8
Default
 62
255
 10
     1102.640757
 20
     1001.763881
 30
       19.273558
  0
POINT
  8
Default
 62
255
 10
     1102.645372
 20
     1001.776088
 30
       19.273845
  0
POINT
  8
Default
 62
255
 10
     1102.636872
 20
     1001.792832
 30
       19.277441
  0
POINT
  8
Default
 62
255
 10
     1102.659462
 20
     1001.786357
 30
       19.276087
  0
POINT
  8
Default
 62
255
 10
     1102.652815
 20
     1001.805635
 30
       19.273593
  0
POINT
  8
Default
 62
255
 10
     1102.651288
 20
     1001.822107
 30
       19.274624
  0
POINT
  8
Default
 62
255
 10
     1102.617907
 20
     1001.831271
 30
       19.280519
  0
POINT
  8
Default
 62
255
 10
     1102.628247
 20
     1001.819897
 30
       19.279303
  0
POINT
  8
Default
 62
255
 10
     1102.609297
 20
     1001.804764
 30
       19.285917
  0
POINT
  8
Default
 62
255
 10
     1102.618170
 20
     1001.796140
 30
       19.277259
  0
POINT
  8
Default
 62
255
 10
     1102.585732
 20
     1001.808308
 30
       19.277202
  0
POINT
  8
Default
 62
255
 10
     1102.595625
 20
     1001.803460
 30
       19.270886
  0
POINT
  8
Default
 62
255
 10
     1102.581385
 20
     1001.836268
 30
       19.291227
  0
POINT
  8
Default
 62
255
 10
     1102.589625
 20
     1001.820653
 30
       19.297053
  0
POINT
  8
Default
 62
255
 10
     1102.559861
 20
     1001.849900
 30
       19.293272
  0
POINT
  8
Default
 62
255
 10
     1102.557978
 20
     1001.833527
 30
       19.292143
  0
POINT
  8
Default
 62
255
 10
     1102.561159
 20
     1001.798909
 30
       19.283988
  0
POINT
  8
Default
 62
255
 10
     1102.518706
 20
     1001.794487
 30
       19.290270
  0
POINT
  8
Default
 62
255
 10
     1102.548065
 20
     1001.792085
 30
       19.276931
  0
POINT
  8
Default
 62
255
 10
     1102.517700
 20
     1001.790577
 30
       19.281977
  0
POINT
  8
Default
 62
255
 10
     1102.505584
 20
     1001.786312
 30
       19.289404
  0
POINT
  8
Default
 62
255
 10
     1102.547841
 20
     1001.820448
 30
       19.296827
  0
POINT
  8
Default
 62
255
 10
     1102.510284
 20
     1001.804784
 30
       19.304112
  0
POINT
  8
Default
 62
255
 10
     1102.543832
 20
     1001.854048
 30
       19.302598
  0
POINT
  8
Default
 62
255
 10
     1102.536079
 20
     1001.831958
 30
       19.299050
  0
POINT
  8
Default
 62
255
 10
     1102.658520
 20
     1000.518024
 30
       19.281298
  0
POINT
  8
Default
 62
255
 10
     1102.662599
 20
     1000.502399
 30
       19.225838
  0
POINT
  8
Default
 62
255
 10
     1102.680601
 20
     1000.475972
 30
       19.282457
  0
POINT
  8
Default
 62
255
 10
     1102.670103
 20
     1000.489488
 30
       19.285217
  0
POINT
  8
Default
 62
255
 10
     1102.682372
 20
     1000.460353
 30
       19.302842
  0
POINT
  8
Default
 62
255
 10
     1102.608124
 20
     1000.500265
 30
       19.287194
  0
POINT
  8
Default
 62
255
 10
     1102.628581
 20
     1000.503906
 30
       19.281678
  0
POINT
  8
Default
 62
255
 10
     1102.636326
 20
     1000.481076
 30
       19.295588
  0
POINT
  8
Default
 62
255
 10
     1102.619337
 20
     1000.506945
 30
       19.276447
  0
POINT
  8
Default
 62
255
 10
     1102.587507
 20
     1000.505105
 30
       19.285564
  0
POINT
  8
Default
 62
255
 10
     1102.604651
 20
     1000.508143
 30
       19.213344
  0
POINT
  8
Default
 62
255
 10
     1102.638525
 20
     1000.518763
 30
       19.269619
  0
POINT
  8
Default
 62
255
 10
     1102.596191
 20
     1000.508611
 30
       19.271377
  0
POINT
  8
Default
 62
255
 10
     1102.716223
 20
     1000.534932
 30
       19.247701
  0
POINT
  8
Default
 62
255
 10
     1102.707423
 20
     1000.526074
 30
       19.255414
  0
POINT
  8
Default
 62
255
 10
     1102.737529
 20
     1000.555313
 30
       19.291507
  0
POINT
  8
Default
 62
255
 10
     1102.705189
 20
     1000.518972
 30
       19.220042
  0
POINT
  8
Default
 62
255
 10
     1102.692096
 20
     1000.497278
 30
       19.249175
  0
POINT
  8
Default
 62
255
 10
     1102.665263
 20
     1000.511613
 30
       19.200285
  0
POINT
  8
Default
 62
255
 10
     1102.646592
 20
     1000.517566
 30
       19.207473
  0
POINT
  8
Default
 62
255
 10
     1102.590366
 20
     1000.521035
 30
       19.203694
  0
POINT
  8
Default
 62
255
 10
     1102.615824
 20
     1000.510601
 30
       19.245917
  0
POINT
  8
Default
 62
255
 10
     1102.630376
 20
     1000.514656
 30
       19.246682
  0
POINT
  8
Default
 62
255
 10
     1102.674897
 20
     1000.516261
 30
       19.161856
  0
POINT
  8
Default
 62
255
 10
     1102.705095
 20
     1000.537029
 30
       19.203348
  0
POINT
  8
Default
 62
255
 10
     1102.717322
 20
     1000.540229
 30
       19.228369
  0
POINT
  8
Default
 62
255
 10
     1102.752354
 20
     1000.561478
 30
       19.262264
  0
POINT
  8
Default
 62
255
 10
     1102.781093
 20
     1000.576272
 30
       19.261714
  0
POINT
  8
Default
 62
255
 10
     1102.594907
 20
     1000.550134
 30
       19.146812
  0
POINT
  8
Default
 62
255
 10
     1102.648698
 20
     1000.529782
 30
       19.172222
  0
POINT
  8
Default
 62
255
 10
     1102.678948
 20
     1000.529651
 30
       19.142799
  0
POINT
  8
Default
 62
255
 10
     1102.627374
 20
     1000.522006
 30
       19.169006
  0
POINT
  8
Default
 62
255
 10
     1102.531600
 20
     1000.570798
 30
       19.201936
  0
POINT
  8
Default
 62
255
 10
     1102.548406
 20
     1000.552605
 30
       19.205160
  0
POINT
  8
Default
 62
255
 10
     1102.541514
 20
     1000.591255
 30
       19.130120
  0
POINT
  8
Default
 62
255
 10
     1102.595740
 20
     1000.544220
 30
       19.170692
  0
POINT
  8
Default
 62
255
 10
     1102.683968
 20
     1000.591149
 30
       19.041325
  0
POINT
  8
Default
 62
255
 10
     1102.686477
 20
     1000.541451
 30
       19.123314
  0
POINT
  8
Default
 62
255
 10
     1102.710348
 20
     1000.563227
 30
       19.151219
  0
POINT
  8
Default
 62
255
 10
     1102.654414
 20
     1000.564607
 30
       19.070113
  0
POINT
  8
Default
 62
255
 10
     1102.660148
 20
     1000.546617
 30
       19.092550
  0
POINT
  8
Default
 62
255
 10
     1102.629554
 20
     1000.556812
 30
       19.090420
  0
POINT
  8
Default
 62
255
 10
     1102.597797
 20
     1000.579885
 30
       19.080891
  0
POINT
  8
Default
 62
255
 10
     1102.520357
 20
     1000.583500
 30
       19.152566
  0
POINT
  8
Default
 62
255
 10
     1102.533961
 20
     1000.570812
 30
       19.161032
  0
POINT
  8
Default
 62
255
 10
     1102.564680
 20
     1000.569064
 30
       19.135769
  0
POINT
  8
Default
 62
255
 10
     1102.586521
 20
     1000.576234
 30
       19.109725
  0
POINT
  8
Default
 62
255
 10
     1102.561974
 20
     1000.589663
 30
       19.088000
  0
POINT
  8
Default
 62
255
 10
     1102.530858
 20
     1000.596733
 30
       19.099782
  0
POINT
  8
Default
 62
255
 10
     1102.497586
 20
     1000.607709
 30
       19.109301
  0
POINT
  8
Default
 62
255
 10
     1102.508126
 20
     1000.596538
 30
       19.131305
  0
POINT
  8
Default
 62
255
 10
     1102.486675
 20
     1000.619129
 30
       19.092352
  0
POINT
  8
Default
 62
255
 10
     1102.573760
 20
     1000.608919
 30
       19.065930
  0
POINT
  8
Default
 62
255
 10
     1102.618427
 20
     1000.599299
 30
       19.054899
  0
POINT
  8
Default
 62
255
 10
     1102.593100
 20
     1000.619032
 30
       19.053568
  0
POINT
  8
Default
 62
255
 10
     1102.664060
 20
     1000.601138
 30
       19.033140
  0
POINT
  8
Default
 62
255
 10
     1102.630889
 20
     1000.580328
 30
       19.063965
  0
POINT
  8
Default
 62
255
 10
     1102.658444
 20
     1000.636224
 30
       19.018898
  0
POINT
  8
Default
 62
255
 10
     1102.694226
 20
     1000.572305
 30
       19.062494
  0
POINT
  8
Default
 62
255
 10
     1102.728175
 20
     1000.584626
 30
       19.103920
  0
POINT
  8
Default
 62
255
 10
     1102.713996
 20
     1000.597683
 30
       19.051221
  0
POINT
  8
Default
 62
255
 10
     1102.711854
 20
     1000.611418
 30
       19.028153
  0
POINT
  8
Default
 62
255
 10
     1102.678714
 20
     1000.629002
 30
       19.017515
  0
POINT
  8
Default
 62
255
 10
     1102.699745
 20
     1000.644153
 30
       19.007919
  0
POINT
  8
Default
 62
255
 10
     1102.680319
 20
     1000.720241
 30
       19.035920
  0
POINT
  8
Default
 62
255
 10
     1102.750800
 20
     1000.637793
 30
       19.026078
  0
POINT
  8
Default
 62
255
 10
     1102.720256
 20
     1000.642123
 30
       19.013448
  0
POINT
  8
Default
 62
255
 10
     1102.762583
 20
     1000.667999
 30
       19.025654
  0
POINT
  8
Default
 62
255
 10
     1102.741660
 20
     1000.613273
 30
       19.087662
  0
POINT
  8
Default
 62
255
 10
     1102.744341
 20
     1000.635580
 30
       19.065774
  0
POINT
  8
Default
 62
255
 10
     1102.769934
 20
     1000.580044
 30
       19.238781
  0
POINT
  8
Default
 62
255
 10
     1102.825487
 20
     1000.633179
 30
       19.277830
  0
POINT
  8
Default
 62
255
 10
     1102.795064
 20
     1000.626211
 30
       19.232896
  0
POINT
  8
Default
 62
255
 10
     1102.793730
 20
     1000.580535
 30
       19.283546
  0
POINT
  8
Default
 62
255
 10
     1102.762236
 20
     1000.609396
 30
       19.140398
  0
POINT
  8
Default
 62
255
 10
     1102.734927
 20
     1000.573811
 30
       19.129313
  0
POINT
  8
Default
 62
255
 10
     1102.704922
 20
     1000.550278
 30
       19.187997
  0
POINT
  8
Default
 62
255
 10
     1102.726812
 20
     1000.556017
 30
       19.174175
  0
POINT
  8
Default
 62
255
 10
     1102.791087
 20
     1000.635249
 30
       19.142591
  0
POINT
  8
Default
 62
255
 10
     1102.806495
 20
     1000.649517
 30
       19.186409
  0
POINT
  8
Default
 62
255
 10
     1102.731523
 20
     1000.556967
 30
       19.197623
  0
POINT
  8
Default
 62
255
 10
     1102.746656
 20
     1000.562446
 30
       19.239968
  0
POINT
  8
Default
 62
255
 10
     1102.776250
 20
     1000.619353
 30
       19.181098
  0
POINT
  8
Default
 62
255
 10
     1102.811926
 20
     1000.634993
 30
       19.239704
  0
POINT
  8
Default
 62
255
 10
     1102.826334
 20
     1000.666260
 30
       19.228749
  0
POINT
  8
Default
 62
255
 10
     1102.850775
 20
     1000.639739
 30
       19.284043
  0
POINT
  8
Default
 62
255
 10
     1102.869222
 20
     1000.662162
 30
       19.275054
  0
POINT
  8
Default
 62
255
 10
     1102.847950
 20
     1000.679089
 30
       19.236732
  0
POINT
  8
Default
 62
255
 10
     1102.829116
 20
     1000.649097
 30
       19.264634
  0
POINT
  8
Default
 62
255
 10
     1102.851783
 20
     1000.616778
 30
       19.303494
  0
POINT
  8
Default
 62
255
 10
     1102.797332
 20
     1000.608118
 30
       19.285172
  0
POINT
  8
Default
 62
255
 10
     1102.816673
 20
     1000.600971
 30
       19.289568
  0
POINT
  8
Default
 62
255
 10
     1102.830007
 20
     1000.593082
 30
       19.297882
  0
POINT
  8
Default
 62
255
 10
     1102.778344
 20
     1000.533424
 30
       19.298518
  0
POINT
  8
Default
 62
255
 10
     1102.797385
 20
     1000.550051
 30
       19.297143
  0
POINT
  8
Default
 62
255
 10
     1102.781446
 20
     1000.554808
 30
       19.281844
  0
POINT
  8
Default
 62
255
 10
     1102.814601
 20
     1000.545052
 30
       19.314547
  0
POINT
  8
Default
 62
255
 10
     1102.815226
 20
     1000.660154
 30
       19.151426
  0
POINT
  8
Default
 62
255
 10
     1102.805798
 20
     1000.665357
 30
       19.131259
  0
POINT
  8
Default
 62
255
 10
     1102.785592
 20
     1000.643274
 30
       19.108529
  0
POINT
  8
Default
 62
255
 10
     1102.840683
 20
     1000.694970
 30
       19.130945
  0
POINT
  8
Default
 62
255
 10
     1102.821647
 20
     1000.692295
 30
       19.119800
  0
POINT
  8
Default
 62
255
 10
     1102.799947
 20
     1000.689708
 30
       19.120794
  0
POINT
  8
Default
 62
255
 10
     1102.786689
 20
     1000.674715
 30
       19.120206
  0
POINT
  8
Default
 62
255
 10
     1102.764170
 20
     1000.629455
 30
       19.060717
  0
POINT
  8
Default
 62
255
 10
     1102.813723
 20
     1000.706866
 30
       19.108359
  0
POINT
  8
Default
 62
255
 10
     1102.830557
 20
     1000.710733
 30
       19.116998
  0
POINT
  8
Default
 62
255
 10
     1102.830803
 20
     1000.727602
 30
       19.080171
  0
POINT
  8
Default
 62
255
 10
     1102.782496
 20
     1000.713702
 30
       19.040494
  0
POINT
  8
Default
 62
255
 10
     1102.818023
 20
     1000.712850
 30
       19.089345
  0
POINT
  8
Default
 62
255
 10
     1102.850234
 20
     1000.681242
 30
       19.141903
  0
POINT
  8
Default
 62
255
 10
     1102.848305
 20
     1000.732505
 30
       19.106099
  0
POINT
  8
Default
 62
255
 10
     1102.873499
 20
     1000.739668
 30
       19.116702
  0
POINT
  8
Default
 62
255
 10
     1102.884203
 20
     1000.737345
 30
       19.117198
  0
POINT
  8
Default
 62
255
 10
     1102.871410
 20
     1000.700626
 30
       19.137267
  0
POINT
  8
Default
 62
255
 10
     1102.921043
 20
     1000.752738
 30
       19.153330
  0
POINT
  8
Default
 62
255
 10
     1102.897501
 20
     1000.722670
 30
       19.189707
  0
POINT
  8
Default
 62
255
 10
     1102.855678
 20
     1000.694045
 30
       19.198206
  0
POINT
  8
Default
 62
255
 10
     1102.846374
 20
     1000.652684
 30
       19.264841
  0
POINT
  8
Default
 62
255
 10
     1102.864021
 20
     1000.684913
 30
       19.276147
  0
POINT
  8
Default
 62
255
 10
     1102.917178
 20
     1000.704368
 30
       19.303819
  0
POINT
  8
Default
 62
255
 10
     1102.908362
 20
     1000.721337
 30
       19.290812
  0
POINT
  8
Default
 62
255
 10
     1102.923271
 20
     1000.748203
 30
       19.259403
  0
POINT
  8
Default
 62
255
 10
     1102.891599
 20
     1000.711654
 30
       19.255486
  0
POINT
  8
Default
 62
255
 10
     1102.834427
 20
     1000.757041
 30
       19.025301
  0
POINT
  8
Default
 62
255
 10
     1102.909736
 20
     1000.786241
 30
       19.069659
  0
POINT
  8
Default
 62
255
 10
     1102.941841
 20
     1000.770134
 30
       19.209112
  0
POINT
  8
Default
 62
255
 10
     1102.970798
 20
     1000.781950
 30
       19.259401
  0
POINT
  8
Default
 62
255
 10
     1102.966426
 20
     1000.804740
 30
       19.213646
  0
POINT
  8
Default
 62
255
 10
     1102.934820
 20
     1000.775530
 30
       19.157949
  0
POINT
  8
Default
 62
255
 10
     1102.907662
 20
     1000.759258
 30
       19.122724
  0
POINT
  8
Default
 62
255
 10
     1102.883239
 20
     1000.749001
 30
       19.064818
  0
POINT
  8
Default
 62
255
 10
     1102.900379
 20
     1000.793782
 30
       19.055172
  0
POINT
  8
Default
 62
255
 10
     1102.885346
 20
     1000.808856
 30
       19.055046
  0
POINT
  8
Default
 62
255
 10
     1102.932857
 20
     1000.803498
 30
       19.096246
  0
POINT
  8
Default
 62
255
 10
     1102.980528
 20
     1000.881732
 30
       19.107177
  0
POINT
  8
Default
 62
255
 10
     1102.952393
 20
     1000.882553
 30
       19.027722
  0
POINT
  8
Default
 62
255
 10
     1102.908419
 20
     1000.852091
 30
       19.057990
  0
POINT
  8
Default
 62
255
 10
     1102.982795
 20
     1000.922497
 30
       19.045344
  0
POINT
  8
Default
 62
255
 10
     1102.973637
 20
     1000.892988
 30
       19.080587
  0
POINT
  8
Default
 62
255
 10
     1102.986797
 20
     1000.909924
 30
       19.075582
  0
POINT
  8
Default
 62
255
 10
     1103.009123
 20
     1000.931599
 30
       19.084098
  0
POINT
  8
Default
 62
255
 10
     1103.024520
 20
     1000.945637
 30
       19.096684
  0
POINT
  8
Default
 62
255
 10
     1103.016734
 20
     1000.956043
 30
       19.085089
  0
POINT
  8
Default
 62
255
 10
     1103.029278
 20
     1000.964370
 30
       19.060229
  0
POINT
  8
Default
 62
255
 10
     1103.046216
 20
     1000.951390
 30
       19.112130
  0
POINT
  8
Default
 62
255
 10
     1103.066404
 20
     1000.970292
 30
       19.104710
  0
POINT
  8
Default
 62
255
 10
     1102.931728
 20
     1000.869644
 30
       19.024412
  0
POINT
  8
Default
 62
255
 10
     1102.954475
 20
     1000.869109
 30
       19.075517
  0
POINT
  8
Default
 62
255
 10
     1102.969211
 20
     1000.870699
 30
       19.102201
  0
POINT
  8
Default
 62
255
 10
     1102.962431
 20
     1000.857397
 30
       19.113726
  0
POINT
  8
Default
 62
255
 10
     1103.005937
 20
     1000.901385
 30
       19.140131
  0
POINT
  8
Default
 62
255
 10
     1103.045876
 20
     1000.946866
 30
       19.134706
  0
POINT
  8
Default
 62
255
 10
     1103.067420
 20
     1000.962549
 30
       19.160886
  0
POINT
  8
Default
 62
255
 10
     1103.048386
 20
     1000.928692
 30
       19.177741
  0
POINT
  8
Default
 62
255
 10
     1103.049176
 20
     1000.943943
 30
       19.166527
  0
POINT
  8
Default
 62
255
 10
     1103.014682
 20
     1000.895755
 30
       19.150210
  0
POINT
  8
Default
 62
255
 10
     1103.017892
 20
     1000.885635
 30
       19.169929
  0
POINT
  8
Default
 62
255
 10
     1103.030124
 20
     1000.910043
 30
       19.160904
  0
POINT
  8
Default
 62
255
 10
     1103.024225
 20
     1000.923332
 30
       19.139571
  0
POINT
  8
Default
 62
255
 10
     1102.999496
 20
     1000.874525
 30
       19.144815
  0
POINT
  8
Default
 62
255
 10
     1102.979369
 20
     1000.859277
 30
       19.127739
  0
POINT
  8
Default
 62
255
 10
     1102.975609
 20
     1000.840064
 30
       19.170665
  0
POINT
  8
Default
 62
255
 10
     1102.998301
 20
     1000.860362
 30
       19.150015
  0
POINT
  8
Default
 62
255
 10
     1102.963319
 20
     1000.839133
 30
       19.138759
  0
POINT
  8
Default
 62
255
 10
     1103.006373
 20
     1000.868781
 30
       19.184509
  0
POINT
  8
Default
 62
255
 10
     1102.989190
 20
     1000.843479
 30
       19.191436
  0
POINT
  8
Default
 62
255
 10
     1103.010769
 20
     1000.863343
 30
       19.218955
  0
POINT
  8
Default
 62
255
 10
     1103.033842
 20
     1000.895783
 30
       19.211269
  0
POINT
  8
Default
 62
255
 10
     1103.056312
 20
     1000.928713
 30
       19.213639
  0
POINT
  8
Default
 62
255
 10
     1103.089702
 20
     1000.976020
 30
       19.251075
  0
POINT
  8
Default
 62
255
 10
     1103.074644
 20
     1000.958467
 30
       19.177284
  0
POINT
  8
Default
 62
255
 10
     1103.086538
 20
     1000.939235
 30
       19.289885
  0
POINT
  8
Default
 62
255
 10
     1103.062321
 20
     1000.894712
 30
       19.271303
  0
POINT
  8
Default
 62
255
 10
     1103.049577
 20
     1000.905236
 30
       19.257500
  0
POINT
  8
Default
 62
255
 10
     1103.074937
 20
     1000.942290
 30
       19.259429
  0
POINT
  8
Default
 62
255
 10
     1103.074093
 20
     1000.972230
 30
       19.208310
  0
POINT
  8
Default
 62
255
 10
     1103.075529
 20
     1000.962951
 30
       19.238914
  0
POINT
  8
Default
 62
255
 10
     1103.065497
 20
     1000.887082
 30
       19.296443
  0
POINT
  8
Default
 62
255
 10
     1103.102521
 20
     1000.979229
 30
       19.295762
  0
POINT
  8
Default
 62
255
 10
     1103.056611
 20
     1000.927367
 30
       19.249432
  0
POINT
  8
Default
 62
255
 10
     1102.987340
 20
     1000.820663
 30
       19.263681
  0
POINT
  8
Default
 62
255
 10
     1102.991784
 20
     1000.827858
 30
       19.284353
  0
POINT
  8
Default
 62
255
 10
     1102.995852
 20
     1000.839470
 30
       19.228039
  0
POINT
  8
Default
 62
255
 10
     1103.038032
 20
     1000.856425
 30
       19.308217
  0
POINT
  8
Default
 62
255
 10
     1103.030143
 20
     1000.870630
 30
       19.299596
  0
POINT
  8
Default
 62
255
 10
     1103.023338
 20
     1000.876745
 30
       19.288500
  0
POINT
  8
Default
 62
255
 10
     1103.038600
 20
     1000.890020
 30
       19.283554
  0
POINT
  8
Default
 62
255
 10
     1103.074077
 20
     1000.879447
 30
       19.302170
  0
POINT
  8
Default
 62
255
 10
     1103.063440
 20
     1000.868067
 30
       19.294815
  0
POINT
  8
Default
 62
255
 10
     1103.000277
 20
     1000.841918
 30
       19.282958
  0
POINT
  8
Default
 62
255
 10
     1103.018347
 20
     1000.822240
 30
       19.302472
  0
POINT
  8
Default
 62
255
 10
     1103.022590
 20
     1000.839433
 30
       19.303917
  0
POINT
  8
Default
 62
255
 10
     1103.115867
 20
     1001.028552
 30
       19.120417
  0
POINT
  8
Default
 62
255
 10
     1103.066841
 20
     1001.022886
 30
       19.050830
  0
POINT
  8
Default
 62
255
 10
     1103.052067
 20
     1000.996540
 30
       19.059197
  0
POINT
  8
Default
 62
255
 10
     1103.100283
 20
     1001.053389
 30
       19.078837
  0
POINT
  8
Default
 62
255
 10
     1103.096397
 20
     1001.035085
 30
       19.087637
  0
POINT
  8
Default
 62
255
 10
     1103.129827
 20
     1001.032970
 30
       19.175485
  0
POINT
  8
Default
 62
255
 10
     1103.138368
 20
     1001.062314
 30
       19.203972
  0
POINT
  8
Default
 62
255
 10
     1103.123056
 20
     1001.030370
 30
       19.159137
  0
POINT
  8
Default
 62
255
 10
     1103.099024
 20
     1001.006270
 30
       19.214954
  0
POINT
  8
Default
 62
255
 10
     1103.149352
 20
     1001.066054
 30
       19.291583
  0
POINT
  8
Default
 62
255
 10
     1103.089411
 20
     1001.002400
 30
       19.099261
  0
POINT
  8
Default
 62
255
 10
     1103.090322
 20
     1000.989385
 30
       19.142541
  0
POINT
  8
Default
 62
255
 10
     1103.113701
 20
     1001.022890
 30
       19.237903
  0
POINT
  8
Default
 62
255
 10
     1103.145512
 20
     1001.061311
 30
       19.263233
  0
POINT
  8
Default
 62
255
 10
     1103.130070
 20
     1001.044852
 30
       19.239135
  0
POINT
  8
Default
 62
255
 10
     1103.149842
 20
     1001.094045
 30
       19.199638
  0
POINT
  8
Default
 62
255
 10
     1103.149366
 20
     1001.097432
 30
       19.146810
  0
POINT
  8
Default
 62
255
 10
     1103.079584
 20
     1001.033273
 30
       19.053396
  0
POINT
  8
Default
 62
255
 10
     1103.113501
 20
     1001.072501
 30
       19.055581
  0
POINT
  8
Default
 62
255
 10
     1103.130418
 20
     1001.086808
 30
       19.085247
  0
POINT
  8
Default
 62
255
 10
     1103.145695
 20
     1001.103654
 30
       19.104211
  0
POINT
  8
Default
 62
255
 10
     1103.130229
 20
     1001.066933
 30
       19.101988
  0
POINT
  8
Default
 62
255
 10
     1103.144442
 20
     1001.059331
 30
       19.146795
  0
POINT
  8
Default
 62
255
 10
     1103.126724
 20
     1001.103412
 30
       19.041931
  0
POINT
  8
Default
 62
255
 10
     1103.137643
 20
     1001.122948
 30
       19.052431
  0
POINT
  8
Default
 62
255
 10
     1103.153495
 20
     1001.141796
 30
       19.080074
  0
POINT
  8
Default
 62
255
 10
     1103.164554
 20
     1001.143980
 30
       19.103975
  0
POINT
  8
Default
 62
255
 10
     1103.160838
 20
     1001.110081
 30
       19.160999
  0
POINT
  8
Default
 62
255
 10
     1103.141819
 20
     1001.155297
 30
       19.013802
  0
POINT
  8
Default
 62
255
 10
     1103.155129
 20
     1001.169511
 30
       19.046107
  0
POINT
  8
Default
 62
255
 10
     1103.179489
 20
     1001.168868
 30
       19.085618
  0
POINT
  8
Default
 62
255
 10
     1103.185250
 20
     1001.159256
 30
       19.123396
  0
POINT
  8
Default
 62
255
 10
     1103.163444
 20
     1001.120880
 30
       19.139409
  0
POINT
  8
Default
 62
255
 10
     1103.212314
 20
     1001.177916
 30
       19.223715
  0
POINT
  8
Default
 62
255
 10
     1103.196226
 20
     1001.167453
 30
       19.171682
  0
POINT
  8
Default
 62
255
 10
     1103.180259
 20
     1001.144594
 30
       19.168751
  0
POINT
  8
Default
 62
255
 10
     1103.174581
 20
     1001.144291
 30
       19.130245
  0
POINT
  8
Default
 62
255
 10
     1103.184946
 20
     1001.140458
 30
       19.182926
  0
POINT
  8
Default
 62
255
 10
     1103.176991
 20
     1001.130302
 30
       19.222324
  0
POINT
  8
Default
 62
255
 10
     1103.192390
 20
     1001.181971
 30
       19.134864
  0
POINT
  8
Default
 62
255
 10
     1103.237087
 20
     1001.228386
 30
       19.268692
  0
POINT
  8
Default
 62
255
 10
     1103.232256
 20
     1001.224741
 30
       19.245520
  0
POINT
  8
Default
 62
255
 10
     1103.236142
 20
     1001.250033
 30
       19.255273
  0
POINT
  8
Default
 62
255
 10
     1103.242994
 20
     1001.261569
 30
       19.245177
  0
POINT
  8
Default
 62
255
 10
     1103.250899
 20
     1001.256953
 30
       19.265338
  0
POINT
  8
Default
 62
255
 10
     1103.228327
 20
     1001.201412
 30
       19.248827
  0
POINT
  8
Default
 62
255
 10
     1103.217100
 20
     1001.198059
 30
       19.230590
  0
POINT
  8
Default
 62
255
 10
     1103.215483
 20
     1001.246525
 30
       19.127861
  0
POINT
  8
Default
 62
255
 10
     1103.227368
 20
     1001.230313
 30
       19.167169
  0
POINT
  8
Default
 62
255
 10
     1103.205043
 20
     1001.200412
 30
       19.152635
  0
POINT
  8
Default
 62
255
 10
     1103.215831
 20
     1001.201055
 30
       19.168951
  0
POINT
  8
Default
 62
255
 10
     1103.262849
 20
     1001.255200
 30
       19.280485
  0
POINT
  8
Default
 62
255
 10
     1103.249074
 20
     1001.243315
 30
       19.271645
  0
POINT
  8
Default
 62
255
 10
     1103.219628
 20
     1001.239261
 30
       19.148433
  0
POINT
  8
Default
 62
255
 10
     1103.171657
 20
     1001.170484
 30
       19.066584
  0
POINT
  8
Default
 62
255
 10
     1103.192591
 20
     1001.185808
 30
       19.104438
  0
POINT
  8
Default
 62
255
 10
     1102.653287
 20
     1000.298272
 30
       19.359975
  0
POINT
  8
Default
 62
255
 10
     1102.665876
 20
     1000.281034
 30
       19.357960
  0
POINT
  8
Default
 62
255
 10
     1102.610567
 20
     1000.307252
 30
       19.349275
  0
POINT
  8
Default
 62
255
 10
     1102.613413
 20
     1000.293888
 30
       19.355102
  0
POINT
  8
Default
 62
255
 10
     1102.655925
 20
     1000.261093
 30
       19.353068
  0
POINT
  8
Default
 62
255
 10
     1102.693968
 20
     1000.277138
 30
       19.363748
  0
POINT
  8
Default
 62
255
 10
     1102.724236
 20
     1000.265674
 30
       19.354239
  0
POINT
  8
Default
 62
255
 10
     1102.699488
 20
     1000.259334
 30
       19.346319
  0
POINT
  8
Default
 62
255
 10
     1102.676770
 20
     1000.317109
 30
       19.361494
  0
POINT
  8
Default
 62
255
 10
     1102.665823
 20
     1000.317124
 30
       19.358707
  0
POINT
  8
Default
 62
255
 10
     1102.649737
 20
     1000.306382
 30
       19.354495
  0
POINT
  8
Default
 62
255
 10
     1102.610953
 20
     1000.323866
 30
       19.337645
  0
POINT
  8
Default
 62
255
 10
     1102.704826
 20
     1000.311774
 30
       19.358077
  0
POINT
  8
Default
 62
255
 10
     1102.693661
 20
     1000.316104
 30
       19.358940
  0
POINT
  8
Default
 62
255
 10
     1102.753952
 20
     1000.242483
 30
       19.362756
  0
POINT
  8
Default
 62
255
 10
     1102.698092
 20
     1000.249735
 30
       19.352276
  0
POINT
  8
Default
 62
255
 10
     1102.763036
 20
     1000.262238
 30
       19.332532
  0
POINT
  8
Default
 62
255
 10
     1102.758758
 20
     1000.292659
 30
       19.332949
  0
POINT
  8
Default
 62
255
 10
     1102.726997
 20
     1000.303117
 30
       19.351062
  0
POINT
  8
Default
 62
255
 10
     1102.714292
 20
     1000.330515
 30
       19.352362
  0
POINT
  8
Default
 62
255
 10
     1102.746151
 20
     1000.275499
 30
       19.335087
  0
POINT
  8
Default
 62
255
 10
     1102.734111
 20
     1000.291386
 30
       19.348391
  0
POINT
  8
Default
 62
255
 10
     1102.689239
 20
     1000.327758
 30
       19.360335
  0
POINT
  8
Default
 62
255
 10
     1102.779684
 20
     1000.279898
 30
       19.326392
  0
POINT
  8
Default
 62
255
 10
     1102.778384
 20
     1000.266494
 30
       19.326740
  0
POINT
  8
Default
 62
255
 10
     1102.806459
 20
     1000.265400
 30
       19.336184
  0
POINT
  8
Default
 62
255
 10
     1102.783913
 20
     1000.304322
 30
       19.335012
  0
POINT
  8
Default
 62
255
 10
     1102.797557
 20
     1000.285471
 30
       19.332783
  0
POINT
  8
Default
 62
255
 10
     1102.799463
 20
     1000.334148
 30
       19.325191
  0
POINT
  8
Default
 62
255
 10
     1102.781971
 20
     1000.321802
 30
       19.329827
  0
POINT
  8
Default
 62
255
 10
     1102.746304
 20
     1000.334465
 30
       19.335046
  0
POINT
  8
Default
 62
255
 10
     1102.739593
 20
     1000.315603
 30
       19.344272
  0
POINT
  8
Default
 62
255
 10
     1102.758403
 20
     1000.312106
 30
       19.339843
  0
POINT
  8
Default
 62
255
 10
     1102.680670
 20
     1000.374983
 30
       19.340857
  0
POINT
  8
Default
 62
255
 10
     1102.696603
 20
     1000.340250
 30
       19.357646
  0
POINT
  8
Default
 62
255
 10
     1102.674093
 20
     1000.337644
 30
       19.356083
  0
POINT
  8
Default
 62
255
 10
     1102.702255
 20
     1000.360015
 30
       19.359431
  0
POINT
  8
Default
 62
255
 10
     1102.700892
 20
     1000.364734
 30
       19.348928
  0
POINT
  8
Default
 62
255
 10
     1102.713553
 20
     1000.357317
 30
       19.365254
  0
POINT
  8
Default
 62
255
 10
     1102.720593
 20
     1000.370400
 30
       19.346177
  0
POINT
  8
Default
 62
255
 10
     1102.693478
 20
     1000.392422
 30
       19.342955
  0
POINT
  8
Default
 62
255
 10
     1102.716618
 20
     1000.383899
 30
       19.342019
  0
POINT
  8
Default
 62
255
 10
     1102.651832
 20
     1000.371219
 30
       19.332781
  0
POINT
  8
Default
 62
255
 10
     1102.691492
 20
     1000.414282
 30
       19.322135
  0
POINT
  8
Default
 62
255
 10
     1102.679155
 20
     1000.403720
 30
       19.323181
  0
POINT
  8
Default
 62
255
 10
     1102.760372
 20
     1000.372311
 30
       19.341396
  0
POINT
  8
Default
 62
255
 10
     1102.828655
 20
     1000.331923
 30
       19.316799
  0
POINT
  8
Default
 62
255
 10
     1102.794238
 20
     1000.298988
 30
       19.335430
  0
POINT
  8
Default
 62
255
 10
     1102.807229
 20
     1000.304496
 30
       19.329953
  0
POINT
  8
Default
 62
255
 10
     1102.808126
 20
     1000.366208
 30
       19.322269
  0
POINT
  8
Default
 62
255
 10
     1102.841661
 20
     1000.357232
 30
       19.315467
  0
POINT
  8
Default
 62
255
 10
     1102.825663
 20
     1000.366592
 30
       19.316849
  0
POINT
  8
Default
 62
255
 10
     1102.830908
 20
     1000.391118
 30
       19.316777
  0
POINT
  8
Default
 62
255
 10
     1102.803607
 20
     1000.388413
 30
       19.326324
  0
POINT
  8
Default
 62
255
 10
     1102.778134
 20
     1000.401285
 30
       19.329151
  0
POINT
  8
Default
 62
255
 10
     1102.734851
 20
     1000.400775
 30
       19.340773
  0
POINT
  8
Default
 62
255
 10
     1102.818796
 20
     1000.410603
 30
       19.317888
  0
POINT
  8
Default
 62
255
 10
     1102.846263
 20
     1000.420159
 30
       19.311021
  0
POINT
  8
Default
 62
255
 10
     1102.841023
 20
     1000.390987
 30
       19.314268
  0
POINT
  8
Default
 62
255
 10
     1102.863512
 20
     1000.396407
 30
       19.306401
  0
POINT
  8
Default
 62
255
 10
     1102.865408
 20
     1000.447163
 30
       19.308613
  0
POINT
  8
Default
 62
255
 10
     1102.887886
 20
     1000.458068
 30
       19.303236
  0
POINT
  8
Default
 62
255
 10
     1102.911270
 20
     1000.461836
 30
       19.300403
  0
POINT
  8
Default
 62
255
 10
     1102.900654
 20
     1000.419698
 30
       19.303391
  0
POINT
  8
Default
 62
255
 10
     1102.897363
 20
     1000.432929
 30
       19.301980
  0
POINT
  8
Default
 62
255
 10
     1102.869004
 20
     1000.417265
 30
       19.305166
  0
POINT
  8
Default
 62
255
 10
     1102.748387
 20
     1000.455165
 30
       19.323360
  0
POINT
  8
Default
 62
255
 10
     1102.764484
 20
     1000.443167
 30
       19.333002
  0
POINT
  8
Default
 62
255
 10
     1102.833134
 20
     1000.427971
 30
       19.312698
  0
POINT
  8
Default
 62
255
 10
     1102.833526
 20
     1000.446131
 30
       19.310218
  0
POINT
  8
Default
 62
255
 10
     1102.782846
 20
     1000.459267
 30
       19.330640
  0
POINT
  8
Default
 62
255
 10
     1102.800708
 20
     1000.465234
 30
       19.326399
  0
POINT
  8
Default
 62
255
 10
     1102.795576
 20
     1000.477400
 30
       19.337053
  0
POINT
  8
Default
 62
255
 10
     1102.676955
 20
     1000.442143
 30
       19.297161
  0
POINT
  8
Default
 62
255
 10
     1102.708145
 20
     1000.445172
 30
       19.310063
  0
POINT
  8
Default
 62
255
 10
     1102.701731
 20
     1000.463220
 30
       19.293433
  0
POINT
  8
Default
 62
255
 10
     1102.639722
 20
     1000.377068
 30
       19.325116
  0
POINT
  8
Default
 62
255
 10
     1102.591847
 20
     1000.407566
 30
       19.305592
  0
POINT
  8
Default
 62
255
 10
     1102.549190
 20
     1000.344412
 30
       19.320163
  0
POINT
  8
Default
 62
255
 10
     1102.596439
 20
     1000.341415
 30
       19.321578
  0
POINT
  8
Default
 62
255
 10
     1102.608789
 20
     1000.372714
 30
       19.312264
  0
POINT
  8
Default
 62
255
 10
     1102.664773
 20
     1000.389509
 30
       19.329668
  0
POINT
  8
Default
 62
255
 10
     1102.658824
 20
     1000.423882
 30
       19.302276
  0
POINT
  8
Default
 62
255
 10
     1103.010639
 20
     1000.734855
 30
       19.313897
  0
POINT
  8
Default
 62
255
 10
     1102.960001
 20
     1000.740074
 30
       19.308927
  0
POINT
  8
Default
 62
255
 10
     1102.976080
 20
     1000.779062
 30
       19.299712
  0
POINT
  8
Default
 62
255
 10
     1102.952522
 20
     1000.718108
 30
       19.313529
  0
POINT
  8
Default
 62
255
 10
     1102.941908
 20
     1000.685007
 30
       19.312928
  0
POINT
  8
Default
 62
255
 10
     1102.960725
 20
     1000.692172
 30
       19.314301
  0
POINT
  8
Default
 62
255
 10
     1102.994522
 20
     1000.720097
 30
       19.310522
  0
POINT
  8
Default
 62
255
 10
     1103.017527
 20
     1000.760586
 30
       19.312150
  0
POINT
  8
Default
 62
255
 10
     1103.001989
 20
     1000.776948
 30
       19.305556
  0
POINT
  8
Default
 62
255
 10
     1102.997902
 20
     1000.791886
 30
       19.286321
  0
POINT
  8
Default
 62
255
 10
     1102.944954
 20
     1000.743494
 30
       19.296386
  0
POINT
  8
Default
 62
255
 10
     1102.936698
 20
     1000.722600
 30
       19.301226
  0
POINT
  8
Default
 62
255
 10
     1102.993918
 20
     1000.651352
 30
       19.298820
  0
POINT
  8
Default
 62
255
 10
     1102.968739
 20
     1000.622945
 30
       19.297919
  0
POINT
  8
Default
 62
255
 10
     1102.972593
 20
     1000.655469
 30
       19.303256
  0
POINT
  8
Default
 62
255
 10
     1102.936656
 20
     1000.653600
 30
       19.319981
  0
POINT
  8
Default
 62
255
 10
     1102.908805
 20
     1000.662693
 30
       19.317940
  0
POINT
  8
Default
 62
255
 10
     1102.916428
 20
     1000.625388
 30
       19.313384
  0
POINT
  8
Default
 62
255
 10
     1102.891634
 20
     1000.618254
 30
       19.307729
  0
POINT
  8
Default
 62
255
 10
     1102.888846
 20
     1000.652515
 30
       19.301433
  0
POINT
  8
Default
 62
255
 10
     1102.904832
 20
     1000.601263
 30
       19.310557
  0
POINT
  8
Default
 62
255
 10
     1102.917609
 20
     1000.564366
 30
       19.310515
  0
POINT
  8
Default
 62
255
 10
     1102.850904
 20
     1000.513329
 30
       19.320165
  0
POINT
  8
Default
 62
255
 10
     1102.870861
 20
     1000.516399
 30
       19.314929
  0
POINT
  8
Default
 62
255
 10
     1102.853808
 20
     1000.541434
 30
       19.311177
  0
POINT
  8
Default
 62
255
 10
     1102.824892
 20
     1000.526101
 30
       19.320743
  0
POINT
  8
Default
 62
255
 10
     1102.804550
 20
     1000.507142
 30
       19.321026
  0
POINT
  8
Default
 62
255
 10
     1102.843709
 20
     1000.547124
 30
       19.312910
  0
POINT
  8
Default
 62
255
 10
     1102.836625
 20
     1000.565953
 30
       19.312950
  0
POINT
  8
Default
 62
255
 10
     1102.894155
 20
     1000.534030
 30
       19.303973
  0
POINT
  8
Default
 62
255
 10
     1102.916165
 20
     1000.527326
 30
       19.296633
  0
POINT
  8
Default
 62
255
 10
     1102.928016
 20
     1000.547805
 30
       19.295980
  0
POINT
  8
Default
 62
255
 10
     1102.881219
 20
     1000.505714
 30
       19.313093
  0
POINT
  8
Default
 62
255
 10
     1102.878874
 20
     1000.541563
 30
       19.306702
  0
POINT
  8
Default
 62
255
 10
     1102.865060
 20
     1000.565466
 30
       19.313782
  0
POINT
  8
Default
 62
255
 10
     1102.888405
 20
     1000.563766
 30
       19.313658
  0
POINT
  8
Default
 62
255
 10
     1102.889803
 20
     1000.591351
 30
       19.311661
  0
POINT
  8
Default
 62
255
 10
     1102.841371
 20
     1000.583115
 30
       19.308056
  0
POINT
  8
Default
 62
255
 10
     1102.867899
 20
     1000.588828
 30
       19.305815
  0
POINT
  8
Default
 62
255
 10
     1103.116977
 20
     1000.957814
 30
       19.306865
  0
POINT
  8
Default
 62
255
 10
     1103.104739
 20
     1000.925967
 30
       19.304431
  0
POINT
  8
Default
 62
255
 10
     1103.061286
 20
     1000.837855
 30
       19.319092
  0
POINT
  8
Default
 62
255
 10
     1103.078012
 20
     1000.822152
 30
       19.311184
  0
POINT
  8
Default
 62
255
 10
     1103.096434
 20
     1000.905983
 30
       19.307720
  0
POINT
  8
Default
 62
255
 10
     1103.102980
 20
     1000.859671
 30
       19.309091
  0
POINT
  8
Default
 62
255
 10
     1103.104266
 20
     1000.835994
 30
       19.309455
  0
POINT
  8
Default
 62
255
 10
     1103.036921
 20
     1000.829474
 30
       19.308238
  0
POINT
  8
Default
 62
255
 10
     1103.124199
 20
     1000.857844
 30
       19.303613
  0
POINT
  8
Default
 62
255
 10
     1103.116723
 20
     1000.900088
 30
       19.310569
  0
POINT
  8
Default
 62
255
 10
     1103.123135
 20
     1000.942818
 30
       19.314921
  0
POINT
  8
Default
 62
255
 10
     1103.125712
 20
     1000.920881
 30
       19.313698
  0
POINT
  8
Default
 62
255
 10
     1103.156712
 20
     1000.913958
 30
       19.309207
  0
POINT
  8
Default
 62
255
 10
     1103.126838
 20
     1000.886561
 30
       19.307977
  0
POINT
  8
Default
 62
255
 10
     1103.178590
 20
     1000.952566
 30
       19.316335
  0
POINT
  8
Default
 62
255
 10
     1103.146763
 20
     1000.959918
 30
       19.318230
  0
POINT
  8
Default
 62
255
 10
     1103.157685
 20
     1000.936164
 30
       19.315636
  0
POINT
  8
Default
 62
255
 10
     1103.140885
 20
     1000.900379
 30
       19.310910
  0
POINT
  8
Default
 62
255
 10
     1102.945916
 20
     1000.539719
 30
       19.299591
  0
POINT
  8
Default
 62
255
 10
     1102.923827
 20
     1000.513934
 30
       19.298675
  0
POINT
  8
Default
 62
255
 10
     1102.898931
 20
     1000.501922
 30
       19.300666
  0
POINT
  8
Default
 62
255
 10
     1102.891547
 20
     1000.450435
 30
       19.304195
  0
POINT
  8
Default
 62
255
 10
     1102.916985
 20
     1000.499187
 30
       19.298747
  0
POINT
  8
Default
 62
255
 10
     1102.948261
 20
     1000.447208
 30
       19.301537
  0
POINT
  8
Default
 62
255
 10
     1102.925334
 20
     1000.474182
 30
       19.298493
  0
POINT
  8
Default
 62
255
 10
     1102.956565
 20
     1000.526176
 30
       19.297782
  0
POINT
  8
Default
 62
255
 10
     1102.930483
 20
     1000.493850
 30
       19.296582
  0
POINT
  8
Default
 62
255
 10
     1103.067308
 20
     1000.767917
 30
       19.301910
  0
POINT
  8
Default
 62
255
 10
     1103.048816
 20
     1000.759077
 30
       19.301146
  0
POINT
  8
Default
 62
255
 10
     1103.065716
 20
     1000.744671
 30
       19.296197
  0
POINT
  8
Default
 62
255
 10
     1103.010673
 20
     1000.716544
 30
       19.307050
  0
POINT
  8
Default
 62
255
 10
     1103.023677
 20
     1000.698465
 30
       19.298540
  0
POINT
  8
Default
 62
255
 10
     1103.001539
 20
     1000.687821
 30
       19.300098
  0
POINT
  8
Default
 62
255
 10
     1103.007641
 20
     1000.671653
 30
       19.294266
  0
POINT
  8
Default
 62
255
 10
     1103.031670
 20
     1000.722527
 30
       19.299745
  0
POINT
  8
Default
 62
255
 10
     1103.041689
 20
     1000.734816
 30
       19.300764
  0
POINT
  8
Default
 62
255
 10
     1103.034239
 20
     1000.752239
 30
       19.308504
  0
POINT
  8
Default
 62
255
 10
     1103.000936
 20
     1000.747774
 30
       19.309187
  0
POINT
  8
Default
 62
255
 10
     1102.981667
 20
     1000.744384
 30
       19.307143
  0
POINT
  8
Default
 62
255
 10
     1102.972841
 20
     1000.731350
 30
       19.309682
  0
POINT
  8
Default
 62
255
 10
     1103.281598
 20
     1001.155135
 30
       19.334342
  0
POINT
  8
Default
 62
255
 10
     1103.285322
 20
     1001.227809
 30
       19.301695
  0
POINT
  8
Default
 62
255
 10
     1103.260417
 20
     1001.192273
 30
       19.297864
  0
POINT
  8
Default
 62
255
 10
     1103.249599
 20
     1001.205631
 30
       19.284907
  0
POINT
  8
Default
 62
255
 10
     1103.220678
 20
     1001.219175
 30
       19.247538
  0
POINT
  8
Default
 62
255
 10
     1103.222604
 20
     1001.172840
 30
       19.266252
  0
POINT
  8
Default
 62
255
 10
     1103.231520
 20
     1001.209039
 30
       19.263975
  0
POINT
  8
Default
 62
255
 10
     1103.250690
 20
     1001.237106
 30
       19.276641
  0
POINT
  8
Default
 62
255
 10
     1103.219648
 20
     1001.146391
 30
       19.281487
  0
POINT
  8
Default
 62
255
 10
     1103.228884
 20
     1001.113621
 30
       19.310339
  0
POINT
  8
Default
 62
255
 10
     1103.258622
 20
     1001.154044
 30
       19.333714
  0
POINT
  8
Default
 62
255
 10
     1103.251704
 20
     1001.129565
 30
       19.325121
  0
POINT
  8
Default
 62
255
 10
     1103.249867
 20
     1001.110666
 30
       19.326051
  0
POINT
  8
Default
 62
255
 10
     1103.144316
 20
     1001.010413
 30
       19.311000
  0
POINT
  8
Default
 62
255
 10
     1103.167244
 20
     1001.015861
 30
       19.319507
  0
POINT
  8
Default
 62
255
 10
     1103.159820
 20
     1000.989694
 30
       19.325488
  0
POINT
  8
Default
 62
255
 10
     1103.180009
 20
     1001.044124
 30
       19.321806
  0
POINT
  8
Default
 62
255
 10
     1103.167925
 20
     1001.068212
 30
       19.294163
  0
POINT
  8
Default
 62
255
 10
     1103.198981
 20
     1001.003244
 30
       19.317673
  0
POINT
  8
Default
 62
255
 10
     1103.195210
 20
     1000.982358
 30
       19.311617
  0
POINT
  8
Default
 62
255
 10
     1103.161268
 20
     1000.965270
 30
       19.321605
  0
POINT
  8
Default
 62
255
 10
     1103.176175
 20
     1001.023317
 30
       19.320901
  0
POINT
  8
Default
 62
255
 10
     1103.196128
 20
     1001.029044
 30
       19.318805
  0
POINT
  8
Default
 62
255
 10
     1103.211853
 20
     1000.982359
 30
       19.307602
  0
POINT
  8
Default
 62
255
 10
     1103.238996
 20
     1001.019390
 30
       19.307647
  0
POINT
  8
Default
 62
255
 10
     1103.212798
 20
     1001.006854
 30
       19.316904
  0
POINT
  8
Default
 62
255
 10
     1103.227778
 20
     1001.041098
 30
       19.315853
  0
POINT
  8
Default
 62
255
 10
     1103.265867
 20
     1001.033470
 30
       19.306807
  0
POINT
  8
Default
 62
255
 10
     1103.277545
 20
     1001.031874
 30
       19.311351
  0
POINT
  8
Default
 62
255
 10
     1103.252668
 20
     1001.019508
 30
       19.309367
  0
POINT
  8
Default
 62
255
 10
     1103.249933
 20
     1001.063425
 30
       19.313767
  0
POINT
  8
Default
 62
255
 10
     1103.239460
 20
     1000.995141
 30
       19.304251
  0
POINT
  8
Default
 62
255
 10
     1103.251112
 20
     1000.979750
 30
       19.297334
  0
POINT
  8
Default
 62
255
 10
     1103.265573
 20
     1000.980711
 30
       19.300340
  0
POINT
  8
Default
 62
255
 10
     1103.271969
 20
     1000.967605
 30
       19.295967
  0
POINT
  8
Default
 62
255
 10
     1103.270550
 20
     1000.940848
 30
       19.294656
  0
POINT
  8
Default
 62
255
 10
     1103.265011
 20
     1000.953064
 30
       19.295100
  0
POINT
  8
Default
 62
255
 10
     1103.257469
 20
     1000.931888
 30
       19.297363
  0
POINT
  8
Default
 62
255
 10
     1103.228160
 20
     1000.950628
 30
       19.298145
  0
POINT
  8
Default
 62
255
 10
     1103.250830
 20
     1000.961733
 30
       19.295473
  0
POINT
  8
Default
 62
255
 10
     1103.219906
 20
     1000.900558
 30
       19.293191
  0
POINT
  8
Default
 62
255
 10
     1103.239257
 20
     1000.911604
 30
       19.292694
  0
POINT
  8
Default
 62
255
 10
     1103.246287
 20
     1000.899225
 30
       19.292669
  0
POINT
  8
Default
 62
255
 10
     1103.185420
 20
     1000.847883
 30
       19.291032
  0
POINT
  8
Default
 62
255
 10
     1103.209206
 20
     1000.855420
 30
       19.288171
  0
POINT
  8
Default
 62
255
 10
     1103.185629
 20
     1000.833477
 30
       19.290931
  0
POINT
  8
Default
 62
255
 10
     1103.158619
 20
     1000.823553
 30
       19.295712
  0
POINT
  8
Default
 62
255
 10
     1103.183861
 20
     1000.814850
 30
       19.292000
  0
POINT
  8
Default
 62
255
 10
     1103.189191
 20
     1000.803165
 30
       19.294764
  0
POINT
  8
Default
 62
255
 10
     1103.154554
 20
     1000.809696
 30
       19.301920
  0
POINT
  8
Default
 62
255
 10
     1103.154090
 20
     1000.790107
 30
       19.295903
  0
POINT
  8
Default
 62
255
 10
     1103.139479
 20
     1000.805629
 30
       19.299808
  0
POINT
  8
Default
 62
255
 10
     1103.142125
 20
     1000.768124
 30
       19.292260
  0
POINT
  8
Default
 62
255
 10
     1103.152060
 20
     1000.770884
 30
       19.296446
  0
POINT
  8
Default
 62
255
 10
     1103.138169
 20
     1000.752083
 30
       19.293811
  0
POINT
  8
Default
 62
255
 10
     1103.121651
 20
     1000.724362
 30
       19.290745
  0
POINT
  8
Default
 62
255
 10
     1103.116952
 20
     1000.739286
 30
       19.290430
  0
POINT
  8
Default
 62
255
 10
     1103.110151
 20
     1000.760279
 30
       19.300657
  0
POINT
  8
Default
 62
255
 10
     1103.128738
 20
     1000.786426
 30
       19.307787
  0
POINT
  8
Default
 62
255
 10
     1103.131113
 20
     1000.772208
 30
       19.297249
  0
POINT
  8
Default
 62
255
 10
     1103.101268
 20
     1000.825714
 30
       19.304218
  0
POINT
  8
Default
 62
255
 10
     1103.097183
 20
     1000.812140
 30
       19.300873
  0
POINT
  8
Default
 62
255
 10
     1103.105674
 20
     1000.703293
 30
       19.291354
  0
POINT
  8
Default
 62
255
 10
     1103.071420
 20
     1000.679094
 30
       19.290769
  0
POINT
  8
Default
 62
255
 10
     1103.088143
 20
     1000.691311
 30
       19.293484
  0
POINT
  8
Default
 62
255
 10
     1103.086901
 20
     1000.670603
 30
       19.291829
  0
POINT
  8
Default
 62
255
 10
     1103.044426
 20
     1000.624242
 30
       19.290661
  0
POINT
  8
Default
 62
255
 10
     1103.040347
 20
     1000.606655
 30
       19.291035
  0
POINT
  8
Default
 62
255
 10
     1103.015295
 20
     1000.582143
 30
       19.290519
  0
POINT
  8
Default
 62
255
 10
     1102.971272
 20
     1001.196463
 30
       19.001092
  0
POINT
  8
Default
 62
255
 10
     1102.976144
 20
     1001.170866
 30
       18.989593
  0
POINT
  8
Default
 62
255
 10
     1102.950566
 20
     1001.178978
 30
       18.985062
  0
POINT
  8
Default
 62
255
 10
     1102.963327
 20
     1001.151358
 30
       18.969717
  0
POINT
  8
Default
 62
255
 10
     1102.994315
 20
     1001.151839
 30
       18.978096
  0
POINT
  8
Default
 62
255
 10
     1103.037421
 20
     1001.192695
 30
       18.954764
  0
POINT
  8
Default
 62
255
 10
     1102.977842
 20
     1001.154180
 30
       18.979016
  0
POINT
  8
Default
 62
255
 10
     1102.979240
 20
     1001.185765
 30
       18.995866
  0
POINT
  8
Default
 62
255
 10
     1102.992377
 20
     1001.176836
 30
       18.996783
  0
POINT
  8
Default
 62
255
 10
     1102.984730
 20
     1001.219104
 30
       19.006767
  0
POINT
  8
Default
 62
255
 10
     1102.994750
 20
     1001.213424
 30
       18.999390
  0
POINT
  8
Default
 62
255
 10
     1102.970546
 20
     1001.230407
 30
       19.012607
  0
POINT
  8
Default
 62
255
 10
     1102.944614
 20
     1001.216794
 30
       19.003867
  0
POINT
  8
Default
 62
255
 10
     1102.952435
 20
     1001.236787
 30
       19.015916
  0
POINT
  8
Default
 62
255
 10
     1102.946239
 20
     1001.202625
 30
       18.995198
  0
POINT
  8
Default
 62
255
 10
     1102.935812
 20
     1001.190958
 30
       18.985208
  0
POINT
  8
Default
 62
255
 10
     1102.985581
 20
     1001.238224
 30
       19.009360
  0
POINT
  8
Default
 62
255
 10
     1102.969047
 20
     1001.244613
 30
       19.017748
  0
POINT
  8
Default
 62
255
 10
     1102.902883
 20
     1001.238015
 30
       18.999021
  0
POINT
  8
Default
 62
255
 10
     1102.916826
 20
     1001.241685
 30
       19.012635
  0
POINT
  8
Default
 62
255
 10
     1102.933671
 20
     1001.257278
 30
       19.012913
  0
POINT
  8
Default
 62
255
 10
     1102.917195
 20
     1001.259914
 30
       19.003738
  0
POINT
  8
Default
 62
255
 10
     1102.915283
 20
     1001.269423
 30
       18.994722
  0
POINT
  8
Default
 62
255
 10
     1102.931929
 20
     1001.295814
 30
       18.984956
  0
POINT
  8
Default
 62
255
 10
     1102.945515
 20
     1001.285341
 30
       18.999614
  0
POINT
  8
Default
 62
255
 10
     1102.933092
 20
     1001.268987
 30
       19.003601
  0
POINT
  8
Default
 62
255
 10
     1102.978545
 20
     1001.303856
 30
       18.976891
  0
POINT
  8
Default
 62
255
 10
     1102.963771
 20
     1001.275472
 30
       19.007630
  0
POINT
  8
Default
 62
255
 10
     1102.975416
 20
     1001.264227
 30
       19.010922
  0
POINT
  8
Default
 62
255
 10
     1103.012772
 20
     1001.288590
 30
       18.979494
  0
POINT
  8
Default
 62
255
 10
     1103.010474
 20
     1001.225184
 30
       18.987690
  0
POINT
  8
Default
 62
255
 10
     1103.069582
 20
     1001.222993
 30
       18.942771
  0
POINT
  8
Default
 62
255
 10
     1103.057769
 20
     1001.198473
 30
       18.950370
  0
POINT
  8
Default
 62
255
 10
     1102.937037
 20
     1001.164596
 30
       18.956906
  0
POINT
  8
Default
 62
255
 10
     1102.927270
 20
     1001.176884
 30
       18.958340
  0
POINT
  8
Default
 62
255
 10
     1102.886182
 20
     1001.168917
 30
       18.976371
  0
POINT
  8
Default
 62
255
 10
     1102.926655
 20
     1001.149149
 30
       18.956180
  0
POINT
  8
Default
 62
255
 10
     1103.054695
 20
     1001.240203
 30
       18.942858
  0
POINT
  8
Default
 62
255
 10
     1103.118555
 20
     1001.184796
 30
       18.972650
  0
POINT
  8
Default
 62
255
 10
     1103.094566
 20
     1001.205610
 30
       18.954426
  0
POINT
  8
Default
 62
255
 10
     1103.084672
 20
     1001.184720
 30
       18.967532
  0
POINT
  8
Default
 62
255
 10
     1103.127811
 20
     1001.251117
 30
       18.964824
  0
POINT
  8
Default
 62
255
 10
     1103.143740
 20
     1001.182321
 30
       18.988360
  0
POINT
  8
Default
 62
255
 10
     1103.035149
 20
     1001.114800
 30
       19.007004
  0
POINT
  8
Default
 62
255
 10
     1103.056868
 20
     1001.119084
 30
       19.011833
  0
POINT
  8
Default
 62
255
 10
     1103.129410
 20
     1001.162346
 30
       18.993998
  0
POINT
  8
Default
 62
255
 10
     1103.110935
 20
     1001.172379
 30
       18.984229
  0
POINT
  8
Default
 62
255
 10
     1103.120457
 20
     1001.134056
 30
       19.004045
  0
POINT
  8
Default
 62
255
 10
     1103.077075
 20
     1001.162470
 30
       18.989345
  0
POINT
  8
Default
 62
255
 10
     1103.052500
 20
     1001.157718
 30
       18.989262
  0
POINT
  8
Default
 62
255
 10
     1103.019113
 20
     1001.150144
 30
       18.988711
  0
POINT
  8
Default
 62
255
 10
     1103.048873
 20
     1001.170745
 30
       18.975708
  0
POINT
  8
Default
 62
255
 10
     1102.997452
 20
     1001.099120
 30
       18.997716
  0
POINT
  8
Default
 62
255
 10
     1103.027583
 20
     1001.140842
 30
       18.993892
  0
POINT
  8
Default
 62
255
 10
     1103.013246
 20
     1001.117329
 30
       18.998114
  0
POINT
  8
Default
 62
255
 10
     1103.014891
 20
     1001.088095
 30
       19.002526
  0
POINT
  8
Default
 62
255
 10
     1103.066939
 20
     1001.084000
 30
       19.027599
  0
POINT
  8
Default
 62
255
 10
     1103.098964
 20
     1001.119212
 30
       19.012810
  0
POINT
  8
Default
 62
255
 10
     1103.077179
 20
     1001.122891
 30
       19.011159
  0
POINT
  8
Default
 62
255
 10
     1102.554144
 20
     1000.782400
 30
       19.056373
  0
POINT
  8
Default
 62
255
 10
     1102.478747
 20
     1000.791962
 30
       19.093482
  0
POINT
  8
Default
 62
255
 10
     1102.489245
 20
     1000.769702
 30
       19.105806
  0
POINT
  8
Default
 62
255
 10
     1102.473919
 20
     1000.755133
 30
       19.105004
  0
POINT
  8
Default
 62
255
 10
     1102.488581
 20
     1000.721478
 30
       19.082455
  0
POINT
  8
Default
 62
255
 10
     1102.513864
 20
     1000.727021
 30
       19.076721
  0
POINT
  8
Default
 62
255
 10
     1102.522865
 20
     1000.802474
 30
       19.072646
  0
POINT
  8
Default
 62
255
 10
     1102.506066
 20
     1000.807427
 30
       19.073148
  0
POINT
  8
Default
 62
255
 10
     1102.446663
 20
     1000.794225
 30
       19.094774
  0
POINT
  8
Default
 62
255
 10
     1102.409796
 20
     1000.811730
 30
       19.087395
  0
POINT
  8
Default
 62
255
 10
     1102.449876
 20
     1000.774691
 30
       19.103575
  0
POINT
  8
Default
 62
255
 10
     1102.418302
 20
     1000.768321
 30
       19.094987
  0
POINT
  8
Default
 62
255
 10
     1102.542562
 20
     1000.758269
 30
       19.060773
  0
POINT
  8
Default
 62
255
 10
     1102.507986
 20
     1000.750103
 30
       19.087604
  0
POINT
  8
Default
 62
255
 10
     1102.446231
 20
     1000.738283
 30
       19.086866
  0
POINT
  8
Default
 62
255
 10
     1102.471873
 20
     1000.723405
 30
       19.082225
  0
POINT
  8
Default
 62
255
 10
     1102.452569
 20
     1000.716289
 30
       19.067768
  0
POINT
  8
Default
 62
255
 10
     1102.384121
 20
     1000.747691
 30
       19.080906
  0
POINT
  8
Default
 62
255
 10
     1102.443165
 20
     1000.697910
 30
       19.060920
  0
POINT
  8
Default
 62
255
 10
     1102.408303
 20
     1000.722221
 30
       19.071832
  0
POINT
  8
Default
 62
255
 10
     1102.484481
 20
     1000.677635
 30
       19.056563
  0
POINT
  8
Default
 62
255
 10
     1102.371900
 20
     1000.796320
 30
       19.096422
  0
POINT
  8
Default
 62
255
 10
     1102.180363
 20
     1001.047555
 30
       19.137741
  0
POINT
  8
Default
 62
255
 10
     1102.153996
 20
     1001.058437
 30
       19.141463
  0
POINT
  8
Default
 62
255
 10
     1102.156980
 20
     1001.077875
 30
       19.137533
  0
POINT
  8
Default
 62
255
 10
     1102.129159
 20
     1001.069886
 30
       19.139342
  0
POINT
  8
Default
 62
255
 10
     1102.141143
 20
     1001.063922
 30
       19.138828
  0
POINT
  8
Default
 62
255
 10
     1102.140207
 20
     1001.051290
 30
       19.141621
  0
POINT
  8
Default
 62
255
 10
     1102.148559
 20
     1001.021997
 30
       19.137614
  0
POINT
  8
Default
 62
255
 10
     1102.138077
 20
     1001.032842
 30
       19.137548
  0
POINT
  8
Default
 62
255
 10
     1102.164722
 20
     1001.013834
 30
       19.140017
  0
POINT
  8
Default
 62
255
 10
     1102.176970
 20
     1001.021101
 30
       19.139567
  0
POINT
  8
Default
 62
255
 10
     1102.175215
 20
     1001.005368
 30
       19.140935
  0
POINT
  8
Default
 62
255
 10
     1102.164027
 20
     1001.035063
 30
       19.140465
  0
POINT
  8
Default
 62
255
 10
     1102.159452
 20
     1000.998616
 30
       19.138108
  0
POINT
  8
Default
 62
255
 10
     1102.132689
 20
     1001.015884
 30
       19.133055
  0
POINT
  8
Default
 62
255
 10
     1102.189492
 20
     1000.999150
 30
       19.136886
  0
POINT
  8
Default
 62
255
 10
     1102.172407
 20
     1001.076732
 30
       19.116125
  0
POINT
  8
Default
 62
255
 10
     1102.162840
 20
     1001.080149
 30
       19.123863
  0
POINT
  8
Default
 62
255
 10
     1102.170916
 20
     1001.062863
 30
       19.137557
  0
POINT
  8
Default
 62
255
 10
     1102.189097
 20
     1001.034944
 30
       19.131334
  0
POINT
  8
Default
 62
255
 10
     1102.534895
 20
     1001.594872
 30
       19.151171
  0
POINT
  8
Default
 62
255
 10
     1102.518793
 20
     1001.617543
 30
       19.164826
  0
POINT
  8
Default
 62
255
 10
     1102.502625
 20
     1001.528231
 30
       19.095414
  0
POINT
  8
Default
 62
255
 10
     1102.528364
 20
     1001.571721
 30
       19.123828
  0
POINT
  8
Default
 62
255
 10
     1102.548291
 20
     1001.604378
 30
       19.144982
  0
POINT
  8
Default
 62
255
 10
     1102.498294
 20
     1001.585319
 30
       19.124555
  0
POINT
  8
Default
 62
255
 10
     1102.499371
 20
     1001.685481
 30
       19.145339
  0
POINT
  8
Default
 62
255
 10
     1102.523531
 20
     1001.633456
 30
       19.166659
  0
POINT
  8
Default
 62
255
 10
     1102.516884
 20
     1001.658820
 30
       19.161636
  0
POINT
  8
Default
 62
255
 10
     1102.523761
 20
     1001.651492
 30
       19.161000
  0
POINT
  8
Default
 62
255
 10
     1102.534281
 20
     1001.619425
 30
       19.165653
  0
POINT
  8
Default
 62
255
 10
     1102.485671
 20
     1001.614482
 30
       19.139787
  0
POINT
  8
Default
 62
255
 10
     1102.498915
 20
     1001.657861
 30
       19.150048
  0
POINT
  8
Default
 62
255
 10
     1102.502092
 20
     1001.605978
 30
       19.147675
  0
POINT
  8
Default
 62
255
 10
     1102.482126
 20
     1001.587553
 30
       19.130845
  0
POINT
  8
Default
 62
255
 10
     1102.512430
 20
     1001.571117
 30
       19.126895
  0
POINT
  8
Default
 62
255
 10
     1102.547600
 20
     1001.587559
 30
       19.151398
  0
POINT
  8
Default
 62
255
 10
     1102.538142
 20
     1001.565111
 30
       19.125867
  0
POINT
  8
Default
 62
255
 10
     1102.521663
 20
     1001.543191
 30
       19.104938
  0
POINT
  8
Default
 62
255
 10
     1102.508113
 20
     1001.551300
 30
       19.111168
  0
POINT
  8
Default
 62
255
 10
     1102.526228
 20
     1001.583008
 30
       19.142206
  0
POINT
  8
Default
 62
255
 10
     1102.512406
 20
     1001.604896
 30
       19.151102
  0
POINT
  8
Default
 62
255
 10
     1102.538902
 20
     1001.531859
 30
       19.064137
  0
POINT
  8
Default
 62
255
 10
     1102.577437
 20
     1001.561363
 30
       19.059416
  0
POINT
  8
Default
 62
255
 10
     1102.445083
 20
     1001.549435
 30
       19.060714
  0
POINT
  8
Default
 62
255
 10
     1102.471773
 20
     1001.540238
 30
       19.063538
  0
POINT
  8
Default
 62
255
 10
     1102.470617
 20
     1001.565231
 30
       19.064356
  0
POINT
  8
Default
 62
255
 10
     1102.469028
 20
     1001.653874
 30
       19.100123
  0
POINT
  8
Default
 62
255
 10
     1102.469377
 20
     1001.610198
 30
       19.092716
  0
POINT
  8
Default
 62
255
 10
     1102.470372
 20
     1001.590759
 30
       19.061044
  0
POINT
  8
Default
 62
255
 10
     1102.451527
 20
     1001.593343
 30
       19.056722
  0
POINT
  8
Default
 62
255
 10
     1102.532590
 20
     1001.703344
 30
       19.142314
  0
POINT
  8
Default
 62
255
 10
     1102.814945
 20
     1000.809635
 30
       19.022688
  0
POINT
  8
Default
 62
255
 10
     1102.799541
 20
     1000.791908
 30
       19.030952
  0
POINT
  8
Default
 62
255
 10
     1102.814020
 20
     1000.875969
 30
       19.042318
  0
POINT
  8
Default
 62
255
 10
     1102.747604
 20
     1000.836709
 30
       19.055972
  0
POINT
  8
Default
 62
255
 10
     1102.777932
 20
     1000.903257
 30
       19.049604
  0
POINT
  8
Default
 62
255
 10
     1102.798459
 20
     1000.851150
 30
       19.048858
  0
POINT
  8
Default
 62
255
 10
     1102.765331
 20
     1000.845398
 30
       19.067912
  0
POINT
  8
Default
 62
255
 10
     1102.755046
 20
     1000.855761
 30
       19.062566
  0
POINT
  8
Default
 62
255
 10
     1102.736659
 20
     1000.867493
 30
       19.045476
  0
POINT
  8
Default
 62
255
 10
     1102.752527
 20
     1000.876875
 30
       19.055138
  0
POINT
  8
Default
 62
255
 10
     1102.776763
 20
     1000.855828
 30
       19.065315
  0
POINT
  8
Default
 62
255
 10
     1102.763789
 20
     1000.890814
 30
       19.053711
  0
POINT
  8
Default
 62
255
 10
     1102.784460
 20
     1000.872666
 30
       19.057169
  0
POINT
  8
Default
 62
255
 10
     1102.884266
 20
     1000.841975
 30
       19.059051
  0
POINT
  8
Default
 62
255
 10
     1102.849581
 20
     1000.854732
 30
       19.055614
  0
POINT
  8
Default
 62
255
 10
     1102.843101
 20
     1000.885237
 30
       19.052129
  0
POINT
  8
Default
 62
255
 10
     1102.565210
 20
     1000.652511
 30
       19.085310
  0
POINT
  8
Default
 62
255
 10
     1102.580670
 20
     1000.669244
 30
       19.069333
  0
POINT
  8
Default
 62
255
 10
     1102.568544
 20
     1000.660678
 30
       19.076249
  0
POINT
  8
Default
 62
255
 10
     1102.553170
 20
     1000.672682
 30
       19.084410
  0
POINT
  8
Default
 62
255
 10
     1102.533850
 20
     1000.646368
 30
       19.085154
  0
POINT
  8
Default
 62
255
 10
     1102.532235
 20
     1000.656918
 30
       19.081641
  0
POINT
  8
Default
 62
255
 10
     1102.517858
 20
     1000.657172
 30
       19.074174
  0
POINT
  8
Default
 62
255
 10
     1102.527747
 20
     1000.676568
 30
       19.075749
  0
POINT
  8
Default
 62
255
 10
     1102.566442
 20
     1000.684586
 30
       19.073607
  0
POINT
  8
Default
 62
255
 10
     1102.548508
 20
     1000.652720
 30
       19.088108
  0
POINT
  8
Default
 62
255
 10
     1102.547570
 20
     1000.636794
 30
       19.085469
  0
POINT
  8
Default
 62
255
 10
     1102.524748
 20
     1000.639339
 30
       19.070751
  0
POINT
  8
Default
 62
255
 10
     1102.797749
 20
     1000.964787
 30
       19.042358
  0
POINT
  8
Default
 62
255
 10
     1102.814148
 20
     1000.988209
 30
       19.035091
  0
POINT
  8
Default
 62
255
 10
     1102.811234
 20
     1000.969567
 30
       19.040694
  0
POINT
  8
Default
 62
255
 10
     1102.823794
 20
     1000.981791
 30
       19.035840
  0
POINT
  8
Default
 62
255
 10
     1102.835400
 20
     1001.007619
 30
       19.029966
  0
POINT
  8
Default
 62
255
 10
     1102.799706
 20
     1000.999464
 30
       19.027197
  0
POINT
  8
Default
 62
255
 10
     1102.807556
 20
     1001.011009
 30
       19.024668
  0
POINT
  8
Default
 62
255
 10
     1102.813179
 20
     1000.941489
 30
       19.021670
  0
POINT
  8
Default
 62
255
 10
     1102.772720
 20
     1000.944160
 30
       19.032666
  0
POINT
  8
Default
 62
255
 10
     1102.835156
 20
     1001.022865
 30
       19.020779
  0
POINT
  8
Default
 62
255
 10
     1102.593562
 20
     1000.749561
 30
       19.067819
  0
POINT
  8
Default
 62
255
 10
     1102.590054
 20
     1000.735604
 30
       19.069384
  0
POINT
  8
Default
 62
255
 10
     1102.619071
 20
     1000.739705
 30
       19.067074
  0
POINT
  8
Default
 62
255
 10
     1102.600956
 20
     1000.729215
 30
       19.068199
  0
POINT
  8
Default
 62
255
 10
     1102.610160
 20
     1000.739841
 30
       19.067428
  0
POINT
  8
Default
 62
255
 10
     1102.583637
 20
     1000.746543
 30
       19.065430
  0
POINT
  8
Default
 62
255
 10
     1102.560577
 20
     1000.719782
 30
       19.051633
  0
POINT
  8
Default
 62
255
 10
     1102.563362
 20
     1000.713078
 30
       19.060359
  0
POINT
  8
Default
 62
255
 10
     1102.588405
 20
     1000.769342
 30
       19.034859
  0
POINT
  8
Default
 62
255
 10
     1102.589974
 20
     1000.785879
 30
       19.032627
  0
POINT
  8
Default
 62
255
 10
     1102.606185
 20
     1000.776240
 30
       19.038250
  0
POINT
  8
Default
 62
255
 10
     1102.661538
 20
     1000.770947
 30
       19.026436
  0
POINT
  8
Default
 62
255
 10
     1102.636219
 20
     1000.797078
 30
       19.041168
  0
POINT
  8
Default
 62
255
 10
     1102.666638
 20
     1000.812268
 30
       19.037344
  0
POINT
  8
Default
 62
255
 10
     1102.637140
 20
     1000.776995
 30
       19.041790
  0
POINT
  8
Default
 62
255
 10
     1102.697731
 20
     1000.758980
 30
       19.017539
  0
POINT
  8
Default
 62
255
 10
     1102.648388
 20
     1000.792143
 30
       19.041772
  0
POINT
  8
Default
 62
255
 10
     1102.600386
 20
     1000.811419
 30
       19.027520
  0
POINT
  8
Default
 62
255
 10
     1102.677654
 20
     1000.832638
 30
       19.009228
  0
POINT
  8
Default
 62
255
 10
     1102.676516
 20
     1000.738530
 30
       19.037736
  0
POINT
  8
Default
 62
255
 10
     1102.700097
 20
     1000.744809
 30
       19.038155
  0
POINT
  8
Default
 62
255
 10
     1102.712366
 20
     1000.764275
 30
       19.012041
  0
POINT
  8
Default
 62
255
 10
     1102.701733
 20
     1000.732871
 30
       19.039346
  0
POINT
  8
Default
 62
255
 10
     1102.671317
 20
     1000.758491
 30
       19.015108
  0
POINT
  8
Default
 62
255
 10
     1102.686004
 20
     1000.796035
 30
       19.014971
  0
POINT
  8
Default
 62
255
 10
     1102.729917
 20
     1000.750961
 30
       19.013080
  0
POINT
  8
Default
 62
255
 10
     1102.743496
 20
     1000.771114
 30
       19.012815
  0
POINT
  8
Default
 62
255
 10
     1102.737232
 20
     1000.704263
 30
       19.012828
  0
POINT
  8
Default
 62
255
 10
     1102.712226
 20
     1000.708486
 30
       19.023345
  0
POINT
  8
Default
 62
255
 10
     1102.710699
 20
     1000.723135
 30
       19.027734
  0
POINT
  8
Default
 62
255
 10
     1102.725269
 20
     1000.710630
 30
       19.016490
  0
POINT
  8
Default
 62
255
 10
     1102.722420
 20
     1000.735894
 30
       19.018693
  0
POINT
  8
Default
 62
255
 10
     1102.630623
 20
     1000.682280
 30
       19.049323
  0
POINT
  8
Default
 62
255
 10
     1102.639869
 20
     1000.698985
 30
       19.063003
  0
POINT
  8
Default
 62
255
 10
     1102.675464
 20
     1000.711612
 30
       19.059172
  0
POINT
  8
Default
 62
255
 10
     1102.647159
 20
     1000.702985
 30
       19.067465
  0
POINT
  8
Default
 62
255
 10
     1102.608384
 20
     1000.719567
 30
       19.062913
  0
POINT
  8
Default
 62
255
 10
     1102.626654
 20
     1000.696493
 30
       19.052616
  0
POINT
  8
Default
 62
255
 10
     1102.645538
 20
     1000.682309
 30
       19.059397
  0
POINT
  8
Default
 62
255
 10
     1102.636446
 20
     1000.719156
 30
       19.061495
  0
POINT
  8
Default
 62
255
 10
     1102.626081
 20
     1000.729169
 30
       19.057774
  0
POINT
  8
Default
 62
255
 10
     1102.620263
 20
     1000.719475
 30
       19.063949
  0
POINT
  8
Default
 62
255
 10
     1102.579059
 20
     1000.711750
 30
       19.051337
  0
POINT
  8
Default
 62
255
 10
     1102.674382
 20
     1000.647163
 30
       19.012273
  0
POINT
  8
Default
 62
255
 10
     1102.699629
 20
     1000.683181
 30
       19.007919
  0
POINT
  8
Default
 62
255
 10
     1102.700928
 20
     1000.666025
 30
       19.006058
  0
POINT
  8
Default
 62
255
 10
     1102.715054
 20
     1000.663631
 30
       19.006105
  0
POINT
  8
Default
 62
255
 10
     1102.696392
 20
     1000.628628
 30
       19.017874
  0
POINT
  8
Default
 62
255
 10
     1102.610782
 20
     1000.652088
 30
       19.022459
  0
POINT
  8
Default
 62
255
 10
     1102.628553
 20
     1000.642125
 30
       19.020628
  0
POINT
  8
Default
 62
255
 10
     1102.638890
 20
     1000.635400
 30
       19.026183
  0
POINT
  8
Default
 62
255
 10
     1102.649806
 20
     1000.620867
 30
       19.024492
  0
POINT
  8
Default
 62
255
 10
     1102.693031
 20
     1000.615626
 30
       19.030022
  0
POINT
  8
Default
 62
255
 10
     1102.681325
 20
     1000.612078
 30
       19.026595
  0
POINT
  8
Default
 62
255
 10
     1102.254243
 20
     1001.278380
 30
       19.134355
  0
POINT
  8
Default
 62
255
 10
     1102.235817
 20
     1001.291951
 30
       19.147829
  0
POINT
  8
Default
 62
255
 10
     1102.214098
 20
     1001.284503
 30
       19.147847
  0
POINT
  8
Default
 62
255
 10
     1102.221834
 20
     1001.252394
 30
       19.125757
  0
POINT
  8
Default
 62
255
 10
     1102.239737
 20
     1001.235148
 30
       19.114818
  0
POINT
  8
Default
 62
255
 10
     1102.253719
 20
     1001.259558
 30
       19.125075
  0
POINT
  8
Default
 62
255
 10
     1102.209161
 20
     1001.254918
 30
       19.128529
  0
POINT
  8
Default
 62
255
 10
     1102.222849
 20
     1001.269965
 30
       19.142518
  0
POINT
  8
Default
 62
255
 10
     1102.188200
 20
     1001.242984
 30
       19.126770
  0
POINT
  8
Default
 62
255
 10
     1102.220379
 20
     1001.238987
 30
       19.122688
  0
POINT
  8
Default
 62
255
 10
     1102.220552
 20
     1001.229783
 30
       19.119701
  0
POINT
  8
Default
 62
255
 10
     1102.236006
 20
     1001.251682
 30
       19.129481
  0
POINT
  8
Default
 62
255
 10
     1102.279246
 20
     1001.262488
 30
       19.096930
  0
POINT
  8
Default
 62
255
 10
     1102.248169
 20
     1001.252062
 30
       19.121774
  0
POINT
  8
Default
 62
255
 10
     1102.216152
 20
     1001.308616
 30
       19.153416
  0
POINT
  8
Default
 62
255
 10
     1102.215834
 20
     1001.205120
 30
       19.096899
  0
POINT
  8
Default
 62
255
 10
     1102.225788
 20
     1001.179035
 30
       19.093656
  0
POINT
  8
Default
 62
255
 10
     1102.248546
 20
     1001.163398
 30
       19.101000
  0
POINT
  8
Default
 62
255
 10
     1102.262940
 20
     1001.192403
 30
       19.099656
  0
POINT
  8
Default
 62
255
 10
     1102.242186
 20
     1001.192974
 30
       19.099802
  0
POINT
  8
Default
 62
255
 10
     1102.183560
 20
     1001.196164
 30
       19.105674
  0
POINT
  8
Default
 62
255
 10
     1102.201910
 20
     1001.214008
 30
       19.116769
  0
POINT
  8
Default
 62
255
 10
     1102.189604
 20
     1001.221092
 30
       19.121609
  0
POINT
  8
Default
 62
255
 10
     1102.203400
 20
     1001.204803
 30
       19.111637
  0
POINT
  8
Default
 62
255
 10
     1102.316982
 20
     1001.411873
 30
       19.148522
  0
POINT
  8
Default
 62
255
 10
     1102.293659
 20
     1001.423907
 30
       19.162728
  0
POINT
  8
Default
 62
255
 10
     1102.278916
 20
     1001.389864
 30
       19.155052
  0
POINT
  8
Default
 62
255
 10
     1102.288660
 20
     1001.390570
 30
       19.153352
  0
POINT
  8
Default
 62
255
 10
     1102.282420
 20
     1001.412178
 30
       19.164592
  0
POINT
  8
Default
 62
255
 10
     1102.324790
 20
     1001.435989
 30
       19.154612
  0
POINT
  8
Default
 62
255
 10
     1102.300902
 20
     1001.384101
 30
       19.143212
  0
POINT
  8
Default
 62
255
 10
     1102.309624
 20
     1001.367439
 30
       19.093593
  0
POINT
  8
Default
 62
255
 10
     1102.288335
 20
     1001.364913
 30
       19.103472
  0
POINT
  8
Default
 62
255
 10
     1102.280441
 20
     1001.377210
 30
       19.140342
  0
POINT
  8
Default
 62
255
 10
     1102.301285
 20
     1001.369994
 30
       19.135847
  0
POINT
  8
Default
 62
255
 10
     1102.336071
 20
     1001.386573
 30
       19.091375
  0
POINT
  8
Default
 62
255
 10
     1102.332655
 20
     1001.362259
 30
       19.076697
  0
POINT
  8
Default
 62
255
 10
     1102.356136
 20
     1001.438194
 30
       19.050978
  0
POINT
  8
Default
 62
255
 10
     1102.312902
 20
     1001.421846
 30
       19.168448
  0
POINT
  8
Default
 62
255
 10
     1102.322925
 20
     1001.444811
 30
       19.179898
  0
POINT
  8
Default
 62
255
 10
     1102.299968
 20
     1001.438376
 30
       19.179246
  0
POINT
  8
Default
 62
255
 10
     1102.269213
 20
     1001.360389
 30
       19.109713
  0
POINT
  8
Default
 62
255
 10
     1102.316215
 20
     1001.372206
 30
       19.131863
  0
POINT
  8
Default
 62
255
 10
     1102.333598
 20
     1001.407463
 30
       19.135877
  0
POINT
  8
Default
 62
255
 10
     1102.333354
 20
     1001.395089
 30
       19.134675
  0
POINT
  8
Default
 62
255
 10
     1102.650750
 20
     1001.466134
 30
       19.071219
  0
POINT
  8
Default
 62
255
 10
     1102.533481
 20
     1001.478043
 30
       19.051310
  0
POINT
  8
Default
 62
255
 10
     1102.635622
 20
     1001.454612
 30
       19.059682
  0
POINT
  8
Default
 62
255
 10
     1102.617905
 20
     1001.486185
 30
       19.074084
  0
POINT
  8
Default
 62
255
 10
     1102.555860
 20
     1001.481538
 30
       19.049913
  0
POINT
  8
Default
 62
255
 10
     1102.622677
 20
     1001.461659
 30
       19.059441
  0
POINT
  8
Default
 62
255
 10
     1102.647426
 20
     1001.417509
 30
       19.042952
  0
POINT
  8
Default
 62
255
 10
     1102.653149
 20
     1001.406555
 30
       19.048115
  0
POINT
  8
Default
 62
255
 10
     1102.631798
 20
     1001.353413
 30
       19.062471
  0
POINT
  8
Default
 62
255
 10
     1102.631348
 20
     1001.476603
 30
       19.071512
  0
POINT
  8
Default
 62
255
 10
     1102.563335
 20
     1001.441660
 30
       19.061492
  0
POINT
  8
Default
 62
255
 10
     1102.602351
 20
     1001.440320
 30
       19.039330
  0
POINT
  8
Default
 62
255
 10
     1102.572088
 20
     1001.433699
 30
       19.041575
  0
POINT
  8
Default
 62
255
 10
     1102.572620
 20
     1001.498310
 30
       19.067801
  0
POINT
  8
Default
 62
255
 10
     1102.606686
 20
     1001.495577
 30
       19.077102
  0
POINT
  8
Default
 62
255
 10
     1102.589970
 20
     1001.504127
 30
       19.075605
  0
POINT
  8
Default
 62
255
 10
     1102.489861
 20
     1001.487992
 30
       19.048717
  0
POINT
  8
Default
 62
255
 10
     1102.475919
 20
     1001.490606
 30
       19.052149
  0
POINT
  8
Default
 62
255
 10
     1102.648653
 20
     1001.494842
 30
       19.063190
  0
POINT
  8
Default
 62
255
 10
     1102.601828
 20
     1001.462215
 30
       19.054109
  0
POINT
  8
Default
 62
255
 10
     1102.670093
 20
     1001.452296
 30
       19.073532
  0
POINT
  8
Default
 62
255
 10
     1102.649167
 20
     1001.451721
 30
       19.067443
  0
POINT
  8
Default
 62
255
 10
     1102.671403
 20
     1001.441194
 30
       19.070159
  0
POINT
  8
Default
 62
255
 10
     1102.679271
 20
     1001.517916
 30
       19.037139
  0
POINT
  8
Default
 62
255
 10
     1102.666050
 20
     1001.492591
 30
       19.060946
  0
POINT
  8
Default
 62
255
 10
     1102.693981
 20
     1001.483836
 30
       19.056103
  0
POINT
  8
Default
 62
255
 10
     1102.696586
 20
     1001.440778
 30
       19.069129
  0
POINT
  8
Default
 62
255
 10
     1102.680240
 20
     1001.398452
 30
       19.064770
  0
POINT
  8
Default
 62
255
 10
     1102.563023
 20
     1001.544067
 30
       19.064715
  0
POINT
  8
Default
 62
255
 10
     1102.563477
 20
     1001.523905
 30
       19.077902
  0
POINT
  8
Default
 62
255
 10
     1102.535015
 20
     1001.445734
 30
       19.063954
  0
POINT
  8
Default
 62
255
 10
     1102.513371
 20
     1001.443918
 30
       19.058795
  0
POINT
  8
Default
 62
255
 10
     1102.869724
 20
     1001.443299
 30
       19.063325
  0
POINT
  8
Default
 62
255
 10
     1102.810654
 20
     1001.452215
 30
       19.055979
  0
POINT
  8
Default
 62
255
 10
     1102.732488
 20
     1001.526087
 30
       19.084779
  0
POINT
  8
Default
 62
255
 10
     1102.728863
 20
     1001.444472
 30
       19.039425
  0
POINT
  8
Default
 62
255
 10
     1102.786742
 20
     1001.476173
 30
       19.083884
  0
POINT
  8
Default
 62
255
 10
     1102.834543
 20
     1001.456233
 30
       19.078417
  0
POINT
  8
Default
 62
255
 10
     1102.830737
 20
     1001.415359
 30
       19.051325
  0
POINT
  8
Default
 62
255
 10
     1102.780557
 20
     1001.439753
 30
       19.051991
  0
POINT
  8
Default
 62
255
 10
     1102.744701
 20
     1001.444218
 30
       19.046959
  0
POINT
  8
Default
 62
255
 10
     1102.765606
 20
     1001.447674
 30
       19.050687
  0
POINT
  8
Default
 62
255
 10
     1102.790638
 20
     1001.511922
 30
       19.125192
  0
POINT
  8
Default
 62
255
 10
     1102.801093
 20
     1001.489436
 30
       19.109433
  0
POINT
  8
Default
 62
255
 10
     1102.729790
 20
     1001.473672
 30
       19.051979
  0
POINT
  8
Default
 62
255
 10
     1102.791565
 20
     1001.462080
 30
       19.059550
  0
POINT
  8
Default
 62
255
 10
     1102.838737
 20
     1001.474164
 30
       19.103848
  0
POINT
  8
Default
 62
255
 10
     1102.867854
 20
     1001.464624
 30
       19.094651
  0
POINT
  8
Default
 62
255
 10
     1102.852158
 20
     1001.446766
 30
       19.063074
  0
POINT
  8
Default
 62
255
 10
     1102.766545
 20
     1001.487325
 30
       19.090336
  0
POINT
  8
Default
 62
255
 10
     1102.785387
 20
     1001.526848
 30
       19.148775
  0
POINT
  8
Default
 62
255
 10
     1102.711221
 20
     1001.495106
 30
       19.053883
  0
POINT
  8
Default
 62
255
 10
     1102.703232
 20
     1001.518305
 30
       19.055403
  0
POINT
  8
Default
 62
255
 10
     1102.744521
 20
     1001.542818
 30
       19.108925
  0
POINT
  8
Default
 62
255
 10
     1102.779646
 20
     1001.519115
 30
       19.130759
  0
POINT
  8
Default
 62
255
 10
     1102.761198
 20
     1001.519174
 30
       19.116250
  0
POINT
  8
Default
 62
255
 10
     1102.756379
 20
     1001.501962
 30
       19.101635
  0
POINT
  8
Default
 62
255
 10
     1102.780682
 20
     1001.503333
 30
       19.112279
  0
POINT
  8
Default
 62
255
 10
     1102.825065
 20
     1001.495820
 30
       19.119622
  0
POINT
  8
Default
 62
255
 10
     1102.803023
 20
     1001.511754
 30
       19.134913
  0
POINT
  8
Default
 62
255
 10
     1102.721334
 20
     1001.515535
 30
       19.075689
  0
POINT
  8
Default
 62
255
 10
     1102.760423
 20
     1001.476976
 30
       19.071789
  0
POINT
  8
Default
 62
255
 10
     1102.726390
 20
     1001.396156
 30
       19.033859
  0
POINT
  8
Default
 62
255
 10
     1102.785736
 20
     1001.332430
 30
       19.021237
  0
POINT
  8
Default
 62
255
 10
     1102.736241
 20
     1001.429699
 30
       19.041156
  0
POINT
  8
Default
 62
255
 10
     1102.758241
 20
     1001.402417
 30
       19.041622
  0
POINT
  8
Default
 62
255
 10
     1102.790992
 20
     1001.399223
 30
       19.047079
  0
POINT
  8
Default
 62
255
 10
     1102.796843
 20
     1001.362931
 30
       19.018607
  0
POINT
  8
Default
 62
255
 10
     1102.860929
 20
     1001.369762
 30
       19.003660
  0
POINT
  8
Default
 62
255
 10
     1102.829885
 20
     1001.384895
 30
       19.034582
  0
POINT
  8
Default
 62
255
 10
     1102.812024
 20
     1001.394462
 30
       19.042615
  0
POINT
  8
Default
 62
255
 10
     1102.819233
 20
     1001.354370
 30
       19.000688
  0
POINT
  8
Default
 62
255
 10
     1102.837235
 20
     1001.370149
 30
       19.011292
  0
POINT
  8
Default
 62
255
 10
     1102.883230
 20
     1001.397778
 30
       18.992077
  0
POINT
  8
Default
 62
255
 10
     1102.850248
 20
     1001.386141
 30
       19.017494
  0
POINT
  8
Default
 62
255
 10
     1102.803846
 20
     1001.317168
 30
       19.005188
  0
POINT
  8
Default
 62
255
 10
     1102.843739
 20
     1001.345113
 30
       18.988319
  0
POINT
  8
Default
 62
255
 10
     1102.824306
 20
     1001.327831
 30
       19.006188
  0
POINT
  8
Default
 62
255
 10
     1102.842182
 20
     1001.309496
 30
       19.031308
  0
POINT
  8
Default
 62
255
 10
     1102.869827
 20
     1001.262609
 30
       19.032828
  0
POINT
  8
Default
 62
255
 10
     1102.863609
 20
     1001.274238
 30
       19.031823
  0
POINT
  8
Default
 62
255
 10
     1102.856828
 20
     1001.290727
 30
       19.033059
  0
POINT
  8
Default
 62
255
 10
     1102.838319
 20
     1001.277141
 30
       19.032445
  0
POINT
  8
Default
 62
255
 10
     1102.840388
 20
     1001.227601
 30
       19.038926
  0
POINT
  8
Default
 62
255
 10
     1102.864098
 20
     1001.250208
 30
       19.029808
  0
POINT
  8
Default
 62
255
 10
     1102.851881
 20
     1001.191948
 30
       19.021623
  0
POINT
  8
Default
 62
255
 10
     1102.891088
 20
     1001.297870
 30
       18.992625
  0
POINT
  8
Default
 62
255
 10
     1102.815164
 20
     1001.272998
 30
       19.030420
  0
POINT
  8
Default
 62
255
 10
     1102.836502
 20
     1001.249479
 30
       19.037232
  0
POINT
  8
Default
 62
255
 10
     1102.825382
 20
     1001.212777
 30
       19.048745
  0
POINT
  8
Default
 62
255
 10
     1102.811196
 20
     1001.245287
 30
       19.039986
  0
POINT
  8
Default
 62
255
 10
     1102.781555
 20
     1001.260147
 30
       19.048541
  0
POINT
  8
Default
 62
255
 10
     1102.774054
 20
     1001.307185
 30
       19.033286
  0
POINT
  8
Default
 62
255
 10
     1102.756172
 20
     1001.297211
 30
       19.035837
  0
POINT
  8
Default
 62
255
 10
     1102.787081
 20
     1001.279256
 30
       19.032655
  0
POINT
  8
Default
 62
255
 10
     1102.795471
 20
     1001.292891
 30
       19.023958
  0
POINT
  8
Default
 62
255
 10
     1102.737861
 20
     1001.266771
 30
       19.044221
  0
POINT
  8
Default
 62
255
 10
     1102.746570
 20
     1001.248469
 30
       19.047367
  0
POINT
  8
Default
 62
255
 10
     1102.419836
 20
     1001.413291
 30
       19.038927
  0
POINT
  8
Default
 62
255
 10
     1102.438159
 20
     1001.436213
 30
       19.036192
  0
POINT
  8
Default
 62
255
 10
     1102.458950
 20
     1001.432848
 30
       19.037674
  0
POINT
  8
Default
 62
255
 10
     1102.470974
 20
     1001.446511
 30
       19.039847
  0
POINT
  8
Default
 62
255
 10
     1102.404100
 20
     1001.444483
 30
       19.051399
  0
POINT
  8
Default
 62
255
 10
     1102.414389
 20
     1001.485333
 30
       19.063913
  0
POINT
  8
Default
 62
255
 10
     1102.451163
 20
     1001.491522
 30
       19.059073
  0
POINT
  8
Default
 62
255
 10
     1102.427602
 20
     1001.456897
 30
       19.057604
  0
POINT
  8
Default
 62
255
 10
     1102.459652
 20
     1001.403067
 30
       19.055080
  0
POINT
  8
Default
 62
255
 10
     1102.487876
 20
     1001.407303
 30
       19.052081
  0
POINT
  8
Default
 62
255
 10
     1102.480479
 20
     1001.426613
 30
       19.042763
  0
POINT
  8
Default
 62
255
 10
     1102.403061
 20
     1001.490818
 30
       19.070115
  0
POINT
  8
Default
 62
255
 10
     1102.392870
 20
     1001.467531
 30
       19.060353
  0
POINT
  8
Default
 62
255
 10
     1102.372857
 20
     1001.478554
 30
       19.069635
  0
POINT
  8
Default
 62
255
 10
     1102.383966
 20
     1001.504622
 30
       19.080130
  0
POINT
  8
Default
 62
255
 10
     1102.374929
 20
     1001.495059
 30
       19.073916
  0
POINT
  8
Default
 62
255
 10
     1102.412858
 20
     1001.513912
 30
       19.058511
  0
POINT
  8
Default
 62
255
 10
     1102.391500
 20
     1001.522234
 30
       19.069038
  0
POINT
  8
Default
 62
255
 10
     1102.400635
 20
     1001.536342
 30
       19.067710
  0
POINT
  8
Default
 62
255
 10
     1102.409340
 20
     1001.565078
 30
       19.067889
  0
POINT
  8
Default
 62
255
 10
     1102.418794
 20
     1001.552778
 30
       19.063121
  0
POINT
  8
Default
 62
255
 10
     1102.433299
 20
     1001.503057
 30
       19.058436
  0
POINT
  8
Default
 62
255
 10
     1102.417009
 20
     1001.471482
 30
       19.064779
  0
POINT
  8
Default
 62
255
 10
     1102.355952
 20
     1001.486941
 30
       19.101933
  0
POINT
  8
Default
 62
255
 10
     1102.376151
 20
     1001.520570
 30
       19.078750
  0
POINT
  8
Default
 62
255
 10
     1102.384277
 20
     1001.543615
 30
       19.076066
  0
POINT
  8
Default
 62
255
 10
     1102.394427
 20
     1001.400720
 30
       19.042028
  0
POINT
  8
Default
 62
255
 10
     1102.366418
 20
     1001.408499
 30
       19.047589
  0
POINT
  8
Default
 62
255
 10
     1102.444946
 20
     1001.348022
 30
       19.068675
  0
POINT
  8
Default
 62
255
 10
     1102.426115
 20
     1001.373148
 30
       19.072742
  0
POINT
  8
Default
 62
255
 10
     1102.397581
 20
     1001.362709
 30
       19.074435
  0
POINT
  8
Default
 62
255
 10
     1102.377211
 20
     1001.320318
 30
       19.082303
  0
POINT
  8
Default
 62
255
 10
     1102.323181
 20
     1001.333482
 30
       19.084770
  0
POINT
  8
Default
 62
255
 10
     1102.336694
 20
     1001.316359
 30
       19.085997
  0
POINT
  8
Default
 62
255
 10
     1102.357223
 20
     1001.332646
 30
       19.080132
  0
POINT
  8
Default
 62
255
 10
     1102.372952
 20
     1001.364989
 30
       19.068813
  0
POINT
  8
Default
 62
255
 10
     1102.395537
 20
     1001.348474
 30
       19.075031
  0
POINT
  8
Default
 62
255
 10
     1102.358796
 20
     1001.356267
 30
       19.068891
  0
POINT
  8
Default
 62
255
 10
     1102.364543
 20
     1001.383588
 30
       19.065855
  0
POINT
  8
Default
 62
255
 10
     1102.301262
 20
     1001.344665
 30
       19.078163
  0
POINT
  8
Default
 62
255
 10
     1102.310948
 20
     1001.332686
 30
       19.081397
  0
POINT
  8
Default
 62
255
 10
     1102.401819
 20
     1001.392866
 30
       19.062451
  0
POINT
  8
Default
 62
255
 10
     1102.440792
 20
     1001.388357
 30
       19.065403
  0
POINT
  8
Default
 62
255
 10
     1102.418467
 20
     1001.397057
 30
       19.061207
  0
POINT
  8
Default
 62
255
 10
     1102.348868
 20
     1001.389604
 30
       19.061517
  0
POINT
  8
Default
 62
255
 10
     1102.373518
 20
     1001.346560
 30
       19.074216
  0
POINT
  8
Default
 62
255
 10
     1102.955790
 20
     1001.110210
 30
       18.976452
  0
POINT
  8
Default
 62
255
 10
     1102.959725
 20
     1001.089400
 30
       18.988744
  0
POINT
  8
Default
 62
255
 10
     1102.986829
 20
     1001.110277
 30
       18.994497
  0
POINT
  8
Default
 62
255
 10
     1102.994999
 20
     1001.065670
 30
       19.001075
  0
POINT
  8
Default
 62
255
 10
     1102.901783
 20
     1001.091442
 30
       19.007946
  0
POINT
  8
Default
 62
255
 10
     1102.905958
 20
     1001.134856
 30
       18.984666
  0
POINT
  8
Default
 62
255
 10
     1102.932531
 20
     1001.096223
 30
       18.993948
  0
POINT
  8
Default
 62
255
 10
     1102.883067
 20
     1001.097708
 30
       19.005939
  0
POINT
  8
Default
 62
255
 10
     1102.888752
 20
     1001.121817
 30
       18.997041
  0
POINT
  8
Default
 62
255
 10
     1102.871481
 20
     1001.065828
 30
       19.008599
  0
POINT
  8
Default
 62
255
 10
     1102.833713
 20
     1001.163794
 30
       19.043461
  0
POINT
  8
Default
 62
255
 10
     1102.819706
 20
     1001.167458
 30
       19.044644
  0
POINT
  8
Default
 62
255
 10
     1102.796837
 20
     1001.163738
 30
       19.047230
  0
POINT
  8
Default
 62
255
 10
     1102.814497
 20
     1001.192803
 30
       19.052098
  0
POINT
  8
Default
 62
255
 10
     1102.784731
 20
     1001.208234
 30
       19.053471
  0
POINT
  8
Default
 62
255
 10
     1102.788598
 20
     1001.184197
 30
       19.046321
  0
POINT
  8
Default
 62
255
 10
     1102.805160
 20
     1001.140042
 30
       19.038702
  0
POINT
  8
Default
 62
255
 10
     1102.828487
 20
     1001.141938
 30
       19.038313
  0
POINT
  8
Default
 62
255
 10
     1102.830096
 20
     1001.124470
 30
       19.030763
  0
POINT
  8
Default
 62
255
 10
     1102.864739
 20
     1001.147550
 30
       19.001685
  0
POINT
  8
Default
 62
255
 10
     1102.752543
 20
     1001.190439
 30
       19.048882
  0
POINT
  8
Default
 62
255
 10
     1102.740863
 20
     1001.208233
 30
       19.051450
  0
POINT
  8
Default
 62
255
 10
     1102.753657
 20
     1001.223494
 30
       19.054765
  0
POINT
  8
Default
 62
255
 10
     1102.761932
 20
     1001.162857
 30
       19.049012
  0
POINT
  8
Default
 62
255
 10
     1102.774627
 20
     1001.239306
 30
       19.051312
  0
POINT
  8
Default
 62
255
 10
     1103.075348
 20
     1001.061534
 30
       19.021590
  0
POINT
  8
Default
 62
255
 10
     1102.963054
 20
     1000.917695
 30
       19.014536
  0
POINT
  8
Default
 62
255
 10
     1102.948794
 20
     1000.923754
 30
       19.011138
  0
POINT
  8
Default
 62
255
 10
     1102.972014
 20
     1000.975757
 30
       19.004804
  0
POINT
  8
Default
 62
255
 10
     1102.936446
 20
     1001.011098
 30
       19.005730
  0
POINT
  8
Default
 62
255
 10
     1102.971695
 20
     1001.024324
 30
       19.000672
  0
POINT
  8
Default
 62
255
 10
     1102.924260
 20
     1000.957623
 30
       19.015184
  0
POINT
  8
Default
 62
255
 10
     1102.952106
 20
     1000.990768
 30
       19.007354
  0
POINT
  8
Default
 62
255
 10
     1102.976767
 20
     1000.960452
 30
       19.005324
  0
POINT
  8
Default
 62
255
 10
     1102.938478
 20
     1000.943593
 30
       19.011857
  0
POINT
  8
Default
 62
255
 10
     1102.910376
 20
     1000.935825
 30
       19.011881
  0
POINT
  8
Default
 62
255
 10
     1102.933086
 20
     1000.909857
 30
       19.012594
  0
POINT
  8
Default
 62
255
 10
     1102.909027
 20
     1000.892134
 30
       19.012742
  0
POINT
  8
Default
 62
255
 10
     1102.907392
 20
     1000.918985
 30
       19.013674
  0
POINT
  8
Default
 62
255
 10
     1102.920544
 20
     1000.886004
 30
       19.015837
  0
POINT
  8
Default
 62
255
 10
     1102.862628
 20
     1000.932236
 30
       19.053169
  0
POINT
  8
Default
 62
255
 10
     1102.848234
 20
     1000.949583
 30
       19.042601
  0
POINT
  8
Default
 62
255
 10
     1102.873493
 20
     1001.024564
 30
       19.023079
  0
POINT
  8
Default
 62
255
 10
     1102.899061
 20
     1001.041102
 30
       19.019015
  0
POINT
  8
Default
 62
255
 10
     1102.938809
 20
     1001.038500
 30
       19.005339
  0
POINT
  8
Default
 62
255
 10
     1102.922821
 20
     1001.028884
 30
       19.009818
  0
POINT
  8
Default
 62
255
 10
     1102.961899
 20
     1001.051375
 30
       18.999857
  0
POINT
  8
Default
 62
255
 10
     1102.843482
 20
     1001.039623
 30
       18.996493
  0
POINT
  8
Default
 62
255
 10
     1102.878362
 20
     1000.997597
 30
       19.029680
  0
POINT
  8
Default
 62
255
 10
     1102.906702
 20
     1000.982361
 30
       19.013734
  0
POINT
  8
Default
 62
255
 10
     1102.926776
 20
     1001.054630
 30
       19.005649
  0
POINT
  8
Default
 62
255
 10
     1102.885243
 20
     1000.951981
 30
       19.039628
  0
POINT
  8
Default
 62
255
 10
     1102.876467
 20
     1000.906915
 30
       19.051025
  0
POINT
  8
Default
 62
255
 10
     1102.826771
 20
     1000.947275
 30
       19.021880
  0
POINT
  8
Default
 62
255
 10
     1102.997855
 20
     1000.970902
 30
       19.010703
  0
POINT
  8
Default
 62
255
 10
     1103.024177
 20
     1000.983068
 30
       19.015424
  0
POINT
  8
Default
 62
255
 10
     1102.984492
 20
     1000.989991
 30
       18.997140
  0
POINT
  8
Default
 62
255
 10
     1102.998163
 20
     1001.006652
 30
       18.989241
  0
POINT
  8
Default
 62
255
 10
     1102.984109
 20
     1001.036956
 30
       19.000513
  0
POINT
  8
Default
 62
255
 10
     1103.032492
 20
     1001.048715
 30
       19.003156
  0
POINT
  8
Default
 62
255
 10
     1103.013758
 20
     1001.003414
 30
       19.007714
  0
POINT
  8
Default
 62
255
 10
     1103.036538
 20
     1001.018103
 30
       19.011251
  0
POINT
  8
Default
 62
255
 10
     1103.075756
 20
     1001.048085
 30
       19.028176
  0
POINT
  8
Default
 62
255
 10
     1103.051106
 20
     1001.026359
 30
       19.013450
  0
POINT
  8
Default
 62
255
 10
     1103.053972
 20
     1001.017112
 30
       19.044158
  0
POINT
  8
Default
 62
255
 10
     1103.094152
 20
     1001.076506
 30
       19.037041
  0
POINT
  8
Default
 62
255
 10
     1103.092925
 20
     1001.087568
 30
       19.024256
  0
POINT
  8
Default
 62
255
 10
     1103.115236
 20
     1001.103831
 30
       19.018646
  0
POINT
  8
Default
 62
255
 10
     1103.133654
 20
     1001.132406
 30
       19.013865
  0
POINT
  8
Default
 62
255
 10
     1103.049310
 20
     1001.081235
 30
       19.023566
  0
POINT
  8
Default
 62
255
 10
     1103.040360
 20
     1001.095138
 30
       19.017626
  0
POINT
  8
Default
 62
255
 10
     1103.025632
 20
     1001.072595
 30
       19.007674
  0
POINT
  8
Default
 62
255
 10
     1103.077666
 20
     1001.077738
 30
       19.024577
  0
POINT
  8
Default
 62
255
 10
     1102.872584
 20
     1000.828795
 30
       19.060086
  0
POINT
  8
Default
 62
255
 10
     1102.839877
 20
     1000.838107
 30
       19.051216
  0
POINT
  8
Default
 62
255
 10
     1102.827193
 20
     1000.857084
 30
       19.046084
  0
POINT
  8
Default
 62
255
 10
     1102.838929
 20
     1000.910197
 30
       19.051133
  0
POINT
  8
Default
 62
255
 10
     1102.803436
 20
     1000.913536
 30
       19.039539
  0
POINT
  8
Default
 62
255
 10
     1102.879208
 20
     1000.878799
 30
       19.054507
  0
POINT
  8
Default
 62
255
 10
     1102.855557
 20
     1000.898215
 30
       19.052278
  0
POINT
  8
Default
 62
255
 10
     1102.910415
 20
     1000.833851
 30
       19.063417
  0
POINT
  8
Default
 62
255
 10
     1102.927566
 20
     1000.846821
 30
       19.066399
  0
POINT
  8
Default
 62
255
 10
     1102.866245
 20
     1000.769796
 30
       19.032543
  0
POINT
  8
Default
 62
255
 10
     1102.837406
 20
     1000.743068
 30
       19.035054
  0
POINT
  8
Default
 62
255
 10
     1102.861965
 20
     1000.744434
 30
       19.055219
  0
POINT
  8
Default
 62
255
 10
     1102.833088
 20
     1000.743035
 30
       19.075989
  0
POINT
  8
Default
 62
255
 10
     1102.749230
 20
     1001.027362
 30
       19.037492
  0
POINT
  8
Default
 62
255
 10
     1102.741837
 20
     1000.994179
 30
       19.053991
  0
POINT
  8
Default
 62
255
 10
     1102.769072
 20
     1000.975264
 30
       19.050322
  0
POINT
  8
Default
 62
255
 10
     1102.753935
 20
     1000.992489
 30
       19.049278
  0
POINT
  8
Default
 62
255
 10
     1102.751709
 20
     1001.009042
 30
       19.043352
  0
POINT
  8
Default
 62
255
 10
     1102.785427
 20
     1001.004110
 30
       19.035884
  0
POINT
  8
Default
 62
255
 10
     1102.778115
 20
     1001.018964
 30
       19.035474
  0
POINT
  8
Default
 62
255
 10
     1102.766808
 20
     1001.031125
 30
       19.036276
  0
POINT
  8
Default
 62
255
 10
     1102.787975
 20
     1001.051161
 30
       19.033107
  0
POINT
  8
Default
 62
255
 10
     1102.789418
 20
     1001.025057
 30
       19.030396
  0
POINT
  8
Default
 62
255
 10
     1102.747279
 20
     1001.040843
 30
       19.035738
  0
POINT
  8
Default
 62
255
 10
     1102.717636
 20
     1001.042836
 30
       19.046245
  0
POINT
  8
Default
 62
255
 10
     1102.715805
 20
     1001.020279
 30
       19.049894
  0
POINT
  8
Default
 62
255
 10
     1102.794390
 20
     1001.081929
 30
       19.033025
  0
POINT
  8
Default
 62
255
 10
     1102.811529
 20
     1001.040338
 30
       19.025167
  0
POINT
  8
Default
 62
255
 10
     1102.807194
 20
     1001.088911
 30
       19.033870
  0
POINT
  8
Default
 62
255
 10
     1102.828139
 20
     1001.081772
 30
       19.023158
  0
POINT
  8
Default
 62
255
 10
     1102.739736
 20
     1001.098401
 30
       19.047877
  0
POINT
  8
Default
 62
255
 10
     1102.765029
 20
     1001.122009
 30
       19.049825
  0
POINT
  8
Default
 62
255
 10
     1102.744310
 20
     1001.055980
 30
       19.042798
  0
POINT
  8
Default
 62
255
 10
     1102.767020
 20
     1001.088183
 30
       19.042240
  0
POINT
  8
Default
 62
255
 10
     1102.772578
 20
     1001.065418
 30
       19.035862
  0
POINT
  8
Default
 62
255
 10
     1102.793360
 20
     1001.116375
 30
       19.040779
  0
POINT
  8
Default
 62
255
 10
     1102.703128
 20
     1001.086683
 30
       19.053537
  0
POINT
  8
Default
 62
255
 10
     1102.725764
 20
     1001.104353
 30
       19.054910
  0
POINT
  8
Default
 62
255
 10
     1102.688468
 20
     1001.060526
 30
       19.046189
  0
POINT
  8
Default
 62
255
 10
     1102.719457
 20
     1001.063197
 30
       19.049346
  0
POINT
  8
Default
 62
255
 10
     1102.744959
 20
     1001.078472
 30
       19.040829
  0
POINT
  8
Default
 62
255
 10
     1102.735786
 20
     1001.138290
 30
       19.050023
  0
POINT
  8
Default
 62
255
 10
     1102.653295
 20
     1001.054976
 30
       19.047599
  0
POINT
  8
Default
 62
255
 10
     1102.629546
 20
     1001.078884
 30
       19.053120
  0
POINT
  8
Default
 62
255
 10
     1102.659499
 20
     1001.081259
 30
       19.047985
  0
POINT
  8
Default
 62
255
 10
     1102.674207
 20
     1001.070285
 30
       19.044089
  0
POINT
  8
Default
 62
255
 10
     1102.681487
 20
     1001.107736
 30
       19.053627
  0
POINT
  8
Default
 62
255
 10
     1102.719303
 20
     1001.144281
 30
       19.055165
  0
POINT
  8
Default
 62
255
 10
     1102.711571
 20
     1001.122970
 30
       19.055249
  0
POINT
  8
Default
 62
255
 10
     1102.649614
 20
     1001.104547
 30
       19.049571
  0
POINT
  8
Default
 62
255
 10
     1102.662845
 20
     1001.138884
 30
       19.053590
  0
POINT
  8
Default
 62
255
 10
     1102.641986
 20
     1001.131164
 30
       19.051922
  0
POINT
  8
Default
 62
255
 10
     1102.686210
 20
     1001.139738
 30
       19.053673
  0
POINT
  8
Default
 62
255
 10
     1102.709876
 20
     1001.161429
 30
       19.057437
  0
POINT
  8
Default
 62
255
 10
     1102.658762
 20
     1001.184945
 30
       19.063926
  0
POINT
  8
Default
 62
255
 10
     1102.676899
 20
     1001.162222
 30
       19.062540
  0
POINT
  8
Default
 62
255
 10
     1102.698209
 20
     1001.204125
 30
       19.044337
  0
POINT
  8
Default
 62
255
 10
     1102.731010
 20
     1001.170952
 30
       19.058030
  0
POINT
  8
Default
 62
255
 10
     1102.603337
 20
     1001.106863
 30
       19.063841
  0
POINT
  8
Default
 62
255
 10
     1102.535909
 20
     1001.112685
 30
       19.099300
  0
POINT
  8
Default
 62
255
 10
     1102.579653
 20
     1001.105923
 30
       19.061134
  0
POINT
  8
Default
 62
255
 10
     1102.607687
 20
     1001.160762
 30
       19.059922
  0
POINT
  8
Default
 62
255
 10
     1102.572271
 20
     1001.128644
 30
       19.063269
  0
POINT
  8
Default
 62
255
 10
     1102.558830
 20
     1001.142760
 30
       19.072324
  0
POINT
  8
Default
 62
255
 10
     1102.580639
 20
     1001.162430
 30
       19.064612
  0
POINT
  8
Default
 62
255
 10
     1102.559788
 20
     1001.184841
 30
       19.081867
  0
POINT
  8
Default
 62
255
 10
     1102.532925
 20
     1001.155275
 30
       19.093872
  0
POINT
  8
Default
 62
255
 10
     1102.517215
 20
     1001.171546
 30
       19.094033
  0
POINT
  8
Default
 62
255
 10
     1102.536011
 20
     1001.189079
 30
       19.096287
  0
POINT
  8
Default
 62
255
 10
     1102.559123
 20
     1001.216943
 30
       19.082042
  0
POINT
  8
Default
 62
255
 10
     1102.570884
 20
     1001.243196
 30
       19.083038
  0
POINT
  8
Default
 62
255
 10
     1102.594504
 20
     1001.212314
 30
       19.076658
  0
POINT
  8
Default
 62
255
 10
     1102.616774
 20
     1001.252441
 30
       19.071220
  0
POINT
  8
Default
 62
255
 10
     1102.626221
 20
     1001.217434
 30
       19.073257
  0
POINT
  8
Default
 62
255
 10
     1102.657673
 20
     1001.228623
 30
       19.059089
  0
POINT
  8
Default
 62
255
 10
     1102.627154
 20
     1001.197675
 30
       19.066967
  0
POINT
  8
Default
 62
255
 10
     1102.643085
 20
     1001.209951
 30
       19.069228
  0
POINT
  8
Default
 62
255
 10
     1102.518517
 20
     1001.227182
 30
       19.094662
  0
POINT
  8
Default
 62
255
 10
     1102.499961
 20
     1001.135296
 30
       19.098651
  0
POINT
  8
Default
 62
255
 10
     1102.499499
 20
     1001.159265
 30
       19.094252
  0
POINT
  8
Default
 62
255
 10
     1102.473975
 20
     1001.171316
 30
       19.109558
  0
POINT
  8
Default
 62
255
 10
     1102.494005
 20
     1001.180310
 30
       19.099301
  0
POINT
  8
Default
 62
255
 10
     1102.513969
 20
     1001.198764
 30
       19.099607
  0
POINT
  8
Default
 62
255
 10
     1102.491636
 20
     1001.203280
 30
       19.106847
  0
POINT
  8
Default
 62
255
 10
     1102.383705
 20
     1001.260478
 30
       19.089126
  0
POINT
  8
Default
 62
255
 10
     1102.459658
 20
     1001.190502
 30
       19.111229
  0
POINT
  8
Default
 62
255
 10
     1102.435535
 20
     1001.198993
 30
       19.092167
  0
POINT
  8
Default
 62
255
 10
     1102.446270
 20
     1001.227042
 30
       19.093655
  0
POINT
  8
Default
 62
255
 10
     1102.481220
 20
     1001.233517
 30
       19.103285
  0
POINT
  8
Default
 62
255
 10
     1102.405949
 20
     1001.216288
 30
       19.103810
  0
POINT
  8
Default
 62
255
 10
     1102.431175
 20
     1001.217149
 30
       19.091935
  0
POINT
  8
Default
 62
255
 10
     1102.386804
 20
     1001.234656
 30
       19.094451
  0
POINT
  8
Default
 62
255
 10
     1102.440624
 20
     1001.254761
 30
       19.096828
  0
POINT
  8
Default
 62
255
 10
     1102.408612
 20
     1001.244254
 30
       19.100703
  0
POINT
  8
Default
 62
255
 10
     1102.398104
 20
     1001.278584
 30
       19.086698
  0
POINT
  8
Default
 62
255
 10
     1102.423084
 20
     1001.285705
 30
       19.083670
  0
POINT
  8
Default
 62
255
 10
     1102.423293
 20
     1001.235956
 30
       19.100959
  0
POINT
  8
Default
 62
255
 10
     1102.482256
 20
     1001.264482
 30
       19.083253
  0
POINT
  8
Default
 62
255
 10
     1102.460398
 20
     1001.270624
 30
       19.086430
  0
POINT
  8
Default
 62
255
 10
     1102.463829
 20
     1001.290863
 30
       19.079525
  0
POINT
  8
Default
 62
255
 10
     1102.469752
 20
     1001.314600
 30
       19.070440
  0
POINT
  8
Default
 62
255
 10
     1102.478677
 20
     1001.352021
 30
       19.059002
  0
POINT
  8
Default
 62
255
 10
     1102.502816
 20
     1001.338405
 30
       19.062826
  0
POINT
  8
Default
 62
255
 10
     1102.517215
 20
     1001.293971
 30
       19.077104
  0
POINT
  8
Default
 62
255
 10
     1102.595797
 20
     1001.274482
 30
       19.065811
  0
POINT
  8
Default
 62
255
 10
     1102.574882
 20
     1001.289012
 30
       19.066975
  0
POINT
  8
Default
 62
255
 10
     1102.546776
 20
     1001.295675
 30
       19.071558
  0
POINT
  8
Default
 62
255
 10
     1102.419072
 20
     1001.323501
 30
       19.082405
  0
POINT
  8
Default
 62
255
 10
     1102.677928
 20
     1000.892094
 30
       19.076311
  0
POINT
  8
Default
 62
255
 10
     1102.613143
 20
     1000.899683
 30
       19.067825
  0
POINT
  8
Default
 62
255
 10
     1102.657812
 20
     1000.920238
 30
       19.075602
  0
POINT
  8
Default
 62
255
 10
     1102.633208
 20
     1000.919269
 30
       19.068040
  0
POINT
  8
Default
 62
255
 10
     1102.647421
 20
     1000.900102
 30
       19.077158
  0
POINT
  8
Default
 62
255
 10
     1102.648274
 20
     1000.935906
 30
       19.073472
  0
POINT
  8
Default
 62
255
 10
     1102.651743
 20
     1000.955425
 30
       19.070333
  0
POINT
  8
Default
 62
255
 10
     1102.633980
 20
     1000.945680
 30
       19.068926
  0
POINT
  8
Default
 62
255
 10
     1102.679875
 20
     1000.946011
 30
       19.071118
  0
POINT
  8
Default
 62
255
 10
     1102.682708
 20
     1000.920919
 30
       19.073222
  0
POINT
  8
Default
 62
255
 10
     1102.712265
 20
     1000.929952
 30
       19.070905
  0
POINT
  8
Default
 62
255
 10
     1102.623306
 20
     1000.895235
 30
       19.069963
  0
POINT
  8
Default
 62
255
 10
     1102.615726
 20
     1000.869515
 30
       19.054720
  0
POINT
  8
Default
 62
255
 10
     1102.653735
 20
     1000.879107
 30
       19.072894
  0
POINT
  8
Default
 62
255
 10
     1102.668654
 20
     1000.869421
 30
       19.063970
  0
POINT
  8
Default
 62
255
 10
     1102.610355
 20
     1000.859434
 30
       19.056578
  0
POINT
  8
Default
 62
255
 10
     1102.709372
 20
     1000.909459
 30
       19.072664
  0
POINT
  8
Default
 62
255
 10
     1102.718175
 20
     1000.957482
 30
       19.069310
  0
POINT
  8
Default
 62
255
 10
     1102.700839
 20
     1000.962448
 30
       19.057278
  0
POINT
  8
Default
 62
255
 10
     1102.696958
 20
     1000.982056
 30
       19.052439
  0
POINT
  8
Default
 62
255
 10
     1102.651999
 20
     1000.986883
 30
       19.070805
  0
POINT
  8
Default
 62
255
 10
     1102.668389
 20
     1000.970588
 30
       19.076840
  0
POINT
  8
Default
 62
255
 10
     1102.722511
 20
     1000.929469
 30
       19.065629
  0
POINT
  8
Default
 62
255
 10
     1102.733949
 20
     1000.970109
 30
       19.062868
  0
POINT
  8
Default
 62
255
 10
     1102.715003
 20
     1000.875606
 30
       19.061610
  0
POINT
  8
Default
 62
255
 10
     1102.739874
 20
     1000.908491
 30
       19.060524
  0
POINT
  8
Default
 62
255
 10
     1102.752559
 20
     1000.954314
 30
       19.060234
  0
POINT
  8
Default
 62
255
 10
     1102.740366
 20
     1000.931756
 30
       19.065501
  0
POINT
  8
Default
 62
255
 10
     1102.613791
 20
     1000.924073
 30
       19.074878
  0
POINT
  8
Default
 62
255
 10
     1102.600747
 20
     1000.873200
 30
       19.055457
  0
POINT
  8
Default
 62
255
 10
     1102.595316
 20
     1000.897733
 30
       19.065743
  0
POINT
  8
Default
 62
255
 10
     1102.560729
 20
     1000.866102
 30
       19.074259
  0
POINT
  8
Default
 62
255
 10
     1102.571770
 20
     1000.861458
 30
       19.073850
  0
POINT
  8
Default
 62
255
 10
     1102.590598
 20
     1000.855568
 30
       19.061370
  0
POINT
  8
Default
 62
255
 10
     1102.579005
 20
     1000.884902
 30
       19.065903
  0
POINT
  8
Default
 62
255
 10
     1102.545531
 20
     1000.848674
 30
       19.081226
  0
POINT
  8
Default
 62
255
 10
     1102.611637
 20
     1000.822855
 30
       19.025804
  0
POINT
  8
Default
 62
255
 10
     1102.628232
 20
     1000.822073
 30
       19.019175
  0
POINT
  8
Default
 62
255
 10
     1102.688037
 20
     1001.013314
 30
       19.058062
  0
POINT
  8
Default
 62
255
 10
     1102.677078
 20
     1000.999998
 30
       19.069964
  0
POINT
  8
Default
 62
255
 10
     1102.634831
 20
     1000.993513
 30
       19.079168
  0
POINT
  8
Default
 62
255
 10
     1102.666126
 20
     1001.030066
 30
       19.074562
  0
POINT
  8
Default
 62
255
 10
     1102.572242
 20
     1000.981298
 30
       19.077815
  0
POINT
  8
Default
 62
255
 10
     1102.567191
 20
     1000.994917
 30
       19.080393
  0
POINT
  8
Default
 62
255
 10
     1102.578605
 20
     1001.015335
 30
       19.082587
  0
POINT
  8
Default
 62
255
 10
     1102.602264
 20
     1000.974369
 30
       19.072736
  0
POINT
  8
Default
 62
255
 10
     1102.575649
 20
     1000.968378
 30
       19.076475
  0
POINT
  8
Default
 62
255
 10
     1102.600602
 20
     1001.013010
 30
       19.084002
  0
POINT
  8
Default
 62
255
 10
     1102.604878
 20
     1000.995543
 30
       19.084053
  0
POINT
  8
Default
 62
255
 10
     1102.638494
 20
     1001.015804
 30
       19.076847
  0
POINT
  8
Default
 62
255
 10
     1102.594332
 20
     1001.031230
 30
       19.074786
  0
POINT
  8
Default
 62
255
 10
     1102.617483
 20
     1001.022497
 30
       19.078686
  0
POINT
  8
Default
 62
255
 10
     1102.573925
 20
     1001.034872
 30
       19.076133
  0
POINT
  8
Default
 62
255
 10
     1102.579317
 20
     1001.084757
 30
       19.078541
  0
POINT
  8
Default
 62
255
 10
     1102.554588
 20
     1001.027997
 30
       19.073397
  0
POINT
  8
Default
 62
255
 10
     1102.532270
 20
     1001.030616
 30
       19.092451
  0
POINT
  8
Default
 62
255
 10
     1102.538595
 20
     1001.008658
 30
       19.092755
  0
POINT
  8
Default
 62
255
 10
     1102.536875
 20
     1000.966896
 30
       19.085040
  0
POINT
  8
Default
 62
255
 10
     1102.546110
 20
     1000.989864
 30
       19.086965
  0
POINT
  8
Default
 62
255
 10
     1102.554321
 20
     1000.949418
 30
       19.084335
  0
POINT
  8
Default
 62
255
 10
     1102.575396
 20
     1000.944371
 30
       19.082995
  0
POINT
  8
Default
 62
255
 10
     1102.599622
 20
     1000.942705
 30
       19.079190
  0
POINT
  8
Default
 62
255
 10
     1102.470348
 20
     1001.013878
 30
       19.097969
  0
POINT
  8
Default
 62
255
 10
     1102.495502
 20
     1001.071903
 30
       19.098293
  0
POINT
  8
Default
 62
255
 10
     1102.476143
 20
     1001.051340
 30
       19.090351
  0
POINT
  8
Default
 62
255
 10
     1102.498140
 20
     1001.024111
 30
       19.099611
  0
POINT
  8
Default
 62
255
 10
     1102.504875
 20
     1000.990751
 30
       19.098136
  0
POINT
  8
Default
 62
255
 10
     1102.515699
 20
     1001.054670
 30
       19.102951
  0
POINT
  8
Default
 62
255
 10
     1102.556591
 20
     1001.055610
 30
       19.072952
  0
POINT
  8
Default
 62
255
 10
     1102.514401
 20
     1001.095819
 30
       19.101218
  0
POINT
  8
Default
 62
255
 10
     1102.568959
 20
     1000.925147
 30
       19.071074
  0
POINT
  8
Default
 62
255
 10
     1102.534254
 20
     1000.878423
 30
       19.081638
  0
POINT
  8
Default
 62
255
 10
     1102.544878
 20
     1000.906723
 30
       19.076227
  0
POINT
  8
Default
 62
255
 10
     1102.559059
 20
     1000.896706
 30
       19.068306
  0
POINT
  8
Default
 62
255
 10
     1102.491573
 20
     1000.919924
 30
       19.092952
  0
POINT
  8
Default
 62
255
 10
     1102.506596
 20
     1000.903168
 30
       19.089940
  0
POINT
  8
Default
 62
255
 10
     1102.522806
 20
     1000.884381
 30
       19.084845
  0
POINT
  8
Default
 62
255
 10
     1102.521779
 20
     1000.905766
 30
       19.089343
  0
POINT
  8
Default
 62
255
 10
     1102.508556
 20
     1000.940464
 30
       19.094305
  0
POINT
  8
Default
 62
255
 10
     1102.522307
 20
     1000.928352
 30
       19.093783
  0
POINT
  8
Default
 62
255
 10
     1102.508610
 20
     1000.961464
 30
       19.094279
  0
POINT
  8
Default
 62
255
 10
     1102.524117
 20
     1000.977030
 30
       19.099352
  0
POINT
  8
Default
 62
255
 10
     1102.460710
 20
     1000.979183
 30
       19.099247
  0
POINT
  8
Default
 62
255
 10
     1102.484623
 20
     1000.964322
 30
       19.098257
  0
POINT
  8
Default
 62
255
 10
     1102.480854
 20
     1000.939176
 30
       19.093302
  0
POINT
  8
Default
 62
255
 10
     1102.482215
 20
     1000.995654
 30
       19.094533
  0
POINT
  8
Default
 62
255
 10
     1102.456929
 20
     1001.032156
 30
       19.091969
  0
POINT
  8
Default
 62
255
 10
     1102.481912
 20
     1001.035318
 30
       19.098641
  0
POINT
  8
Default
 62
255
 10
     1102.448558
 20
     1001.071543
 30
       19.086515
  0
POINT
  8
Default
 62
255
 10
     1102.415018
 20
     1000.986714
 30
       19.101627
  0
POINT
  8
Default
 62
255
 10
     1102.440592
 20
     1000.982659
 30
       19.104727
  0
POINT
  8
Default
 62
255
 10
     1102.397389
 20
     1000.999823
 30
       19.099595
  0
POINT
  8
Default
 62
255
 10
     1102.421260
 20
     1001.072256
 30
       19.088850
  0
POINT
  8
Default
 62
255
 10
     1102.362424
 20
     1001.035040
 30
       19.100695
  0
POINT
  8
Default
 62
255
 10
     1102.391742
 20
     1001.075469
 30
       19.099464
  0
POINT
  8
Default
 62
255
 10
     1102.354959
 20
     1001.059317
 30
       19.107721
  0
POINT
  8
Default
 62
255
 10
     1102.388127
 20
     1001.038969
 30
       19.097357
  0
POINT
  8
Default
 62
255
 10
     1102.441073
 20
     1001.084603
 30
       19.092231
  0
POINT
  8
Default
 62
255
 10
     1102.432033
 20
     1001.049399
 30
       19.086991
  0
POINT
  8
Default
 62
255
 10
     1102.428349
 20
     1001.009462
 30
       19.101984
  0
POINT
  8
Default
 62
255
 10
     1102.404229
 20
     1001.030805
 30
       19.098717
  0
POINT
  8
Default
 62
255
 10
     1102.323401
 20
     1001.013075
 30
       19.102620
  0
POINT
  8
Default
 62
255
 10
     1102.304887
 20
     1001.056418
 30
       19.106783
  0
POINT
  8
Default
 62
255
 10
     1102.296637
 20
     1001.090001
 30
       19.110043
  0
POINT
  8
Default
 62
255
 10
     1102.319511
 20
     1001.116271
 30
       19.111518
  0
POINT
  8
Default
 62
255
 10
     1102.333165
 20
     1001.093485
 30
       19.102776
  0
POINT
  8
Default
 62
255
 10
     1102.326170
 20
     1001.058331
 30
       19.103463
  0
POINT
  8
Default
 62
255
 10
     1102.370847
 20
     1001.009954
 30
       19.100499
  0
POINT
  8
Default
 62
255
 10
     1102.477159
 20
     1001.086669
 30
       19.106724
  0
POINT
  8
Default
 62
255
 10
     1102.495150
 20
     1001.089441
 30
       19.102171
  0
POINT
  8
Default
 62
255
 10
     1102.483525
 20
     1001.114055
 30
       19.110624
  0
POINT
  8
Default
 62
255
 10
     1102.448312
 20
     1001.108879
 30
       19.101062
  0
POINT
  8
Default
 62
255
 10
     1102.461611
 20
     1001.123102
 30
       19.108587
  0
POINT
  8
Default
 62
255
 10
     1102.439794
 20
     1001.128447
 30
       19.099386
  0
POINT
  8
Default
 62
255
 10
     1102.409251
 20
     1001.168052
 30
       19.094541
  0
POINT
  8
Default
 62
255
 10
     1102.426692
 20
     1001.152782
 30
       19.092944
  0
POINT
  8
Default
 62
255
 10
     1102.410451
 20
     1001.114625
 30
       19.106844
  0
POINT
  8
Default
 62
255
 10
     1102.424765
 20
     1001.090519
 30
       19.100210
  0
POINT
  8
Default
 62
255
 10
     1102.461959
 20
     1001.152881
 30
       19.107762
  0
POINT
  8
Default
 62
255
 10
     1102.386249
 20
     1001.157080
 30
       19.099063
  0
POINT
  8
Default
 62
255
 10
     1102.374334
 20
     1001.131424
 30
       19.106201
  0
POINT
  8
Default
 62
255
 10
     1102.390137
 20
     1001.112345
 30
       19.105057
  0
POINT
  8
Default
 62
255
 10
     1102.405510
 20
     1001.140955
 30
       19.102382
  0
POINT
  8
Default
 62
255
 10
     1102.363568
 20
     1001.108751
 30
       19.107926
  0
POINT
  8
Default
 62
255
 10
     1102.364954
 20
     1001.167376
 30
       19.100680
  0
POINT
  8
Default
 62
255
 10
     1102.372515
 20
     1001.193677
 30
       19.101407
  0
POINT
  8
Default
 62
255
 10
     1102.358404
 20
     1001.202458
 30
       19.109172
  0
POINT
  8
Default
 62
255
 10
     1102.351956
 20
     1001.166140
 30
       19.107922
  0
POINT
  8
Default
 62
255
 10
     1102.349787
 20
     1001.241065
 30
       19.096523
  0
POINT
  8
Default
 62
255
 10
     1102.339374
 20
     1001.202699
 30
       19.120266
  0
POINT
  8
Default
 62
255
 10
     1102.308028
 20
     1001.237684
 30
       19.107509
  0
POINT
  8
Default
 62
255
 10
     1102.331515
 20
     1001.239882
 30
       19.101430
  0
POINT
  8
Default
 62
255
 10
     1102.281803
 20
     1001.149830
 30
       19.110426
  0
POINT
  8
Default
 62
255
 10
     1102.332367
 20
     1001.151155
 30
       19.113831
  0
POINT
  8
Default
 62
255
 10
     1102.341731
 20
     1001.122271
 30
       19.110502
  0
POINT
  8
Default
 62
255
 10
     1102.357643
 20
     1001.144800
 30
       19.110735
  0
POINT
  8
Default
 62
255
 10
     1102.308677
 20
     1001.179657
 30
       19.118942
  0
POINT
  8
Default
 62
255
 10
     1102.333544
 20
     1001.170251
 30
       19.120013
  0
POINT
  8
Default
 62
255
 10
     1102.189934
 20
     1001.116235
 30
       19.105018
  0
POINT
  8
Default
 62
255
 10
     1102.232718
 20
     1001.074486
 30
       19.123230
  0
POINT
  8
Default
 62
255
 10
     1102.210941
 20
     1001.151764
 30
       19.090994
  0
POINT
  8
Default
 62
255
 10
     1102.181831
 20
     1001.138628
 30
       19.090840
  0
POINT
  8
Default
 62
255
 10
     1102.250971
 20
     1001.096394
 30
       19.124829
  0
POINT
  8
Default
 62
255
 10
     1102.232616
 20
     1001.046906
 30
       19.124488
  0
POINT
  8
Default
 62
255
 10
     1102.287104
 20
     1001.127315
 30
       19.116962
  0
POINT
  8
Default
 62
255
 10
     1102.305083
 20
     1001.124465
 30
       19.116246
  0
POINT
  8
Default
 62
255
 10
     1102.311043
 20
     1001.144544
 30
       19.114892
  0
POINT
  8
Default
 62
255
 10
     1102.304009
 20
     1001.102997
 30
       19.113040
  0
POINT
  8
Default
 62
255
 10
     1102.255270
 20
     1001.073941
 30
       19.123593
  0
POINT
  8
Default
 62
255
 10
     1102.251807
 20
     1001.039778
 30
       19.122076
  0
POINT
  8
Default
 62
255
 10
     1102.218425
 20
     1001.096882
 30
       19.118477
  0
POINT
  8
Default
 62
255
 10
     1102.232363
 20
     1001.131521
 30
       19.112519
  0
POINT
  8
Default
 62
255
 10
     1102.249374
 20
     1001.145537
 30
       19.109302
  0
POINT
  8
Default
 62
255
 10
     1102.235191
 20
     1001.106761
 30
       19.120156
  0
POINT
  8
Default
 62
255
 10
     1102.259877
 20
     1001.115088
 30
       19.125601
  0
POINT
  8
Default
 62
255
 10
     1102.262122
 20
     1001.131886
 30
       19.119035
  0
POINT
  8
Default
 62
255
 10
     1102.275931
 20
     1001.080222
 30
       19.125169
  0
POINT
  8
Default
 62
255
 10
     1102.278434
 20
     1001.106420
 30
       19.127682
  0
POINT
  8
Default
 62
255
 10
     1102.281264
 20
     1001.041269
 30
       19.122299
  0
POINT
  8
Default
 62
255
 10
     1102.264306
 20
     1001.048444
 30
       19.123242
  0
POINT
  8
Default
 62
255
 10
     1102.259239
 20
     1001.027366
 30
       19.122373
  0
POINT
  8
Default
 62
255
 10
     1102.289942
 20
     1001.017839
 30
       19.111512
  0
POINT
  8
Default
 62
255
 10
     1102.300665
 20
     1001.011479
 30
       19.109105
  0
POINT
  8
Default
 62
255
 10
     1102.506684
 20
     1000.863999
 30
       19.088170
  0
POINT
  8
Default
 62
255
 10
     1102.486869
 20
     1000.884265
 30
       19.100766
  0
POINT
  8
Default
 62
255
 10
     1102.473050
 20
     1000.835680
 30
       19.086813
  0
POINT
  8
Default
 62
255
 10
     1102.433592
 20
     1000.842026
 30
       19.101288
  0
POINT
  8
Default
 62
255
 10
     1102.453262
 20
     1000.902376
 30
       19.110826
  0
POINT
  8
Default
 62
255
 10
     1102.471081
 20
     1000.902728
 30
       19.103093
  0
POINT
  8
Default
 62
255
 10
     1102.461229
 20
     1000.869044
 30
       19.111582
  0
POINT
  8
Default
 62
255
 10
     1102.475267
 20
     1000.861339
 30
       19.105249
  0
POINT
  8
Default
 62
255
 10
     1102.492120
 20
     1000.844212
 30
       19.084131
  0
POINT
  8
Default
 62
255
 10
     1102.441499
 20
     1000.889215
 30
       19.114100
  0
POINT
  8
Default
 62
255
 10
     1102.444556
 20
     1000.870161
 30
       19.112349
  0
POINT
  8
Default
 62
255
 10
     1102.471320
 20
     1000.887644
 30
       19.110991
  0
POINT
  8
Default
 62
255
 10
     1102.425738
 20
     1000.871885
 30
       19.113560
  0
POINT
  8
Default
 62
255
 10
     1102.408438
 20
     1000.830042
 30
       19.094389
  0
POINT
  8
Default
 62
255
 10
     1102.409941
 20
     1000.851175
 30
       19.109230
  0
POINT
  8
Default
 62
255
 10
     1102.428609
 20
     1000.854723
 30
       19.107552
  0
POINT
  8
Default
 62
255
 10
     1102.410121
 20
     1000.892261
 30
       19.114204
  0
POINT
  8
Default
 62
255
 10
     1102.456551
 20
     1000.924073
 30
       19.104162
  0
POINT
  8
Default
 62
255
 10
     1102.408797
 20
     1000.935005
 30
       19.111997
  0
POINT
  8
Default
 62
255
 10
     1102.409324
 20
     1000.908496
 30
       19.115609
  0
POINT
  8
Default
 62
255
 10
     1102.426636
 20
     1000.909465
 30
       19.113737
  0
POINT
  8
Default
 62
255
 10
     1102.427353
 20
     1000.937618
 30
       19.111924
  0
POINT
  8
Default
 62
255
 10
     1102.441496
 20
     1000.925757
 30
       19.111280
  0
POINT
  8
Default
 62
255
 10
     1102.345418
 20
     1000.902184
 30
       19.092121
  0
POINT
  8
Default
 62
255
 10
     1102.343787
 20
     1000.924436
 30
       19.088411
  0
POINT
  8
Default
 62
255
 10
     1102.374099
 20
     1000.883277
 30
       19.111982
  0
POINT
  8
Default
 62
255
 10
     1102.393518
 20
     1000.886787
 30
       19.112471
  0
POINT
  8
Default
 62
255
 10
     1102.378034
 20
     1000.859143
 30
       19.106808
  0
POINT
  8
Default
 62
255
 10
     1102.419538
 20
     1000.887124
 30
       19.114631
  0
POINT
  8
Default
 62
255
 10
     1102.395366
 20
     1000.871049
 30
       19.112833
  0
POINT
  8
Default
 62
255
 10
     1102.396170
 20
     1000.943112
 30
       19.106780
  0
POINT
  8
Default
 62
255
 10
     1102.397187
 20
     1000.955256
 30
       19.103428
  0
POINT
  8
Default
 62
255
 10
     1102.329664
 20
     1000.936440
 30
       19.093237
  0
POINT
  8
Default
 62
255
 10
     1102.351152
 20
     1000.949217
 30
       19.085791
  0
POINT
  8
Default
 62
255
 10
     1102.324334
 20
     1000.901492
 30
       19.099949
  0
POINT
  8
Default
 62
255
 10
     1102.302208
 20
     1000.912891
 30
       19.101853
  0
POINT
  8
Default
 62
255
 10
     1102.293708
 20
     1000.928688
 30
       19.103806
  0
POINT
  8
Default
 62
255
 10
     1102.261379
 20
     1000.926236
 30
       19.093283
  0
POINT
  8
Default
 62
255
 10
     1102.250753
 20
     1000.868110
 30
       19.102720
  0
POINT
  8
Default
 62
255
 10
     1102.273359
 20
     1000.898255
 30
       19.094360
  0
POINT
  8
Default
 62
255
 10
     1102.290094
 20
     1000.955649
 30
       19.098300
  0
POINT
  8
Default
 62
255
 10
     1102.325902
 20
     1000.972672
 30
       19.100810
  0
POINT
  8
Default
 62
255
 10
     1102.308996
 20
     1000.985285
 30
       19.111038
  0
POINT
  8
Default
 62
255
 10
     1102.247207
 20
     1000.974334
 30
       19.100846
  0
POINT
  8
Default
 62
255
 10
     1102.303395
 20
     1000.833578
 30
       19.089950
  0
POINT
  8
Default
 62
255
 10
     1102.287338
 20
     1000.842633
 30
       19.104817
  0
POINT
  8
Default
 62
255
 10
     1102.286117
 20
     1000.882618
 30
       19.099120
  0
POINT
  8
Default
 62
255
 10
     1102.314763
 20
     1000.863261
 30
       19.094656
  0
POINT
  8
Default
 62
255
 10
     1102.251737
 20
     1000.908523
 30
       19.099768
  0
POINT
  8
Default
 62
255
 10
     1102.228324
 20
     1000.899322
 30
       19.101773
  0
POINT
  8
Default
 62
255
 10
     1102.222447
 20
     1000.947960
 30
       19.101377
  0
POINT
  8
Default
 62
255
 10
     1102.240123
 20
     1000.929590
 30
       19.098767
  0
POINT
  8
Default
 62
255
 10
     1102.272528
 20
     1000.979122
 30
       19.102291
  0
POINT
  8
Default
 62
255
 10
     1102.695792
 20
     1001.386472
 30
       19.053469
  0
POINT
  8
Default
 62
255
 10
     1102.500902
 20
     1001.375965
 30
       19.052165
  0
POINT
  8
Default
 62
255
 10
     1102.525424
 20
     1001.407312
 30
       19.050311
  0
POINT
  8
Default
 62
255
 10
     1102.533116
 20
     1001.391461
 30
       19.056013
  0
POINT
  8
Default
 62
255
 10
     1102.528012
 20
     1001.369758
 30
       19.052695
  0
POINT
  8
Default
 62
255
 10
     1102.546671
 20
     1001.413852
 30
       19.049801
  0
POINT
  8
Default
 62
255
 10
     1102.568181
 20
     1001.411701
 30
       19.050766
  0
POINT
  8
Default
 62
255
 10
     1102.554048
 20
     1001.353907
 30
       19.051470
  0
POINT
  8
Default
 62
255
 10
     1102.587162
 20
     1001.387187
 30
       19.052621
  0
POINT
  8
Default
 62
255
 10
     1102.590162
 20
     1001.345609
 30
       19.061405
  0
POINT
  8
Default
 62
255
 10
     1102.605021
 20
     1001.376352
 30
       19.054256
  0
POINT
  8
Default
 62
255
 10
     1102.611878
 20
     1001.364986
 30
       19.062427
  0
POINT
  8
Default
 62
255
 10
     1102.642888
 20
     1001.384958
 30
       19.057722
  0
POINT
  8
Default
 62
255
 10
     1102.617654
 20
     1001.413281
 30
       19.039492
  0
POINT
  8
Default
 62
255
 10
     1102.625754
 20
     1001.400854
 30
       19.040724
  0
POINT
  8
Default
 62
255
 10
     1102.561972
 20
     1001.329666
 30
       19.057400
  0
POINT
  8
Default
 62
255
 10
     1102.590758
 20
     1001.306160
 30
       19.064768
  0
POINT
  8
Default
 62
255
 10
     1102.633210
 20
     1001.335958
 30
       19.061235
  0
POINT
  8
Default
 62
255
 10
     1102.610956
 20
     1001.310995
 30
       19.067572
  0
POINT
  8
Default
 62
255
 10
     1102.648958
 20
     1001.331663
 30
       19.063224
  0
POINT
  8
Default
 62
255
 10
     1102.680471
 20
     1001.361911
 30
       19.053608
  0
POINT
  8
Default
 62
255
 10
     1102.665997
 20
     1001.341324
 30
       19.063577
  0
POINT
  8
Default
 62
255
 10
     1102.652321
 20
     1001.372656
 30
       19.062832
  0
POINT
  8
Default
 62
255
 10
     1102.665209
 20
     1001.381464
 30
       19.050077
  0
POINT
  8
Default
 62
255
 10
     1102.665837
 20
     1001.360466
 30
       19.062035
  0
POINT
  8
Default
 62
255
 10
     1102.701859
 20
     1001.291225
 30
       19.048556
  0
POINT
  8
Default
 62
255
 10
     1102.666580
 20
     1001.264682
 30
       19.060519
  0
POINT
  8
Default
 62
255
 10
     1102.684048
 20
     1001.258168
 30
       19.051508
  0
POINT
  8
Default
 62
255
 10
     1102.677777
 20
     1001.277969
 30
       19.052500
  0
POINT
  8
Default
 62
255
 10
     1102.722367
 20
     1001.356342
 30
       19.041184
  0
POINT
  8
Default
 62
255
 10
     1102.678949
 20
     1001.343840
 30
       19.058835
  0
POINT
  8
Default
 62
255
 10
     1102.661024
 20
     1001.311163
 30
       19.064174
  0
POINT
  8
Default
 62
255
 10
     1102.640297
 20
     1001.286681
 30
       19.069541
  0
POINT
  8
Default
 62
255
 10
     1102.707416
 20
     1001.321914
 30
       19.047340
  0
POINT
  8
Default
 62
255
 10
     1102.756377
 20
     1001.317389
 30
       19.039954
  0
POINT
  8
Default
 62
255
 10
     1102.760429
 20
     1001.274459
 30
       19.041801
  0
POINT
  8
Default
 62
255
 10
     1102.717314
 20
     1001.288586
 30
       19.054046
  0
POINT
  8
Default
 62
255
 10
     1102.736570
 20
     1001.332298
 30
       19.053916
  0
POINT
  8
Default
 62
255
 10
     1102.754147
 20
     1001.359346
 30
       19.042477
  0
POINT
  8
Default
 62
255
 10
     1102.720800
 20
     1001.370652
 30
       19.040934
  0
POINT
  8
Default
 62
255
 10
     1102.766183
 20
     1001.340403
 30
       19.037636
  0
POINT
  8
Default
 62
255
 10
     1102.750413
 20
     1001.366717
 30
       19.039127
  0
POINT
  8
Default
 62
255
 10
     1102.718174
 20
     1001.259309
 30
       19.053572
  0
POINT
  8
Default
 62
255
 10
     1102.744539
 20
     1001.286334
 30
       19.036143
  0
POINT
  8
Default
 62
255
 10
     1102.745843
 20
     1001.312648
 30
       19.041319
  0
POINT
  8
Default
 62
255
 10
     1102.088815
 20
     1001.099347
 30
       19.120888
  0
POINT
  8
Default
 62
255
 10
     1102.072807
 20
     1001.035251
 30
       19.134081
  0
POINT
  8
Default
 62
255
 10
     1102.118252
 20
     1001.106194
 30
       19.099528
  0
POINT
  8
Default
 62
255
 10
     1102.054434
 20
     1001.073985
 30
       19.173839
  0
POINT
  8
Default
 62
255
 10
     1102.127335
 20
     1001.136424
 30
       19.100119
  0
POINT
  8
Default
 62
255
 10
     1102.138459
 20
     1001.125240
 30
       19.095003
  0
POINT
  8
Default
 62
255
 10
     1102.070170
 20
     1001.152493
 30
       19.275024
  0
POINT
  8
Default
 62
255
 10
     1102.094334
 20
     1001.128317
 30
       19.126753
  0
POINT
  8
Default
 62
255
 10
     1102.109469
 20
     1001.130456
 30
       19.115693
  0
POINT
  8
Default
 62
255
 10
     1102.068703
 20
     1001.052123
 30
       19.170611
  0
POINT
  8
Default
 62
255
 10
     1102.058178
 20
     1001.038763
 30
       19.178238
  0
POINT
  8
Default
 62
255
 10
     1102.041553
 20
     1001.076994
 30
       19.194093
  0
POINT
  8
Default
 62
255
 10
     1102.063239
 20
     1001.108903
 30
       19.205895
  0
POINT
  8
Default
 62
255
 10
     1102.090379
 20
     1001.068360
 30
       19.132783
  0
POINT
  8
Default
 62
255
 10
     1102.106508
 20
     1001.070787
 30
       19.133933
  0
POINT
  8
Default
 62
255
 10
     1102.155300
 20
     1001.105884
 30
       19.096119
  0
POINT
  8
Default
 62
255
 10
     1102.046878
 20
     1001.053653
 30
       19.183807
  0
POINT
  8
Default
 62
255
 10
     1102.040622
 20
     1001.038262
 30
       19.188579
  0
POINT
  8
Default
 62
255
 10
     1102.010636
 20
     1000.945412
 30
       19.210799
  0
POINT
  8
Default
 62
255
 10
     1102.057862
 20
     1000.982643
 30
       19.135566
  0
POINT
  8
Default
 62
255
 10
     1102.053507
 20
     1000.953879
 30
       19.141207
  0
POINT
  8
Default
 62
255
 10
     1102.044761
 20
     1000.968652
 30
       19.143186
  0
POINT
  8
Default
 62
255
 10
     1102.036608
 20
     1000.974623
 30
       19.148596
  0
POINT
  8
Default
 62
255
 10
     1102.030500
 20
     1000.949700
 30
       19.158092
  0
POINT
  8
Default
 62
255
 10
     1102.040242
 20
     1000.933857
 30
       19.158329
  0
POINT
  8
Default
 62
255
 10
     1102.020691
 20
     1000.949007
 30
       19.204871
  0
POINT
  8
Default
 62
255
 10
     1102.040142
 20
     1000.996705
 30
       19.150839
  0
POINT
  8
Default
 62
255
 10
     1102.090435
 20
     1001.012157
 30
       19.127921
  0
POINT
  8
Default
 62
255
 10
     1102.111342
 20
     1000.975891
 30
       19.127971
  0
POINT
  8
Default
 62
255
 10
     1102.099601
 20
     1000.978053
 30
       19.132144
  0
POINT
  8
Default
 62
255
 10
     1102.090725
 20
     1000.985498
 30
       19.128712
  0
POINT
  8
Default
 62
255
 10
     1102.067229
 20
     1000.950085
 30
       19.131488
  0
POINT
  8
Default
 62
255
 10
     1102.189611
 20
     1001.166862
 30
       19.089395
  0
POINT
  8
Default
 62
255
 10
     1102.158798
 20
     1001.164175
 30
       19.092237
  0
POINT
  8
Default
 62
255
 10
     1102.157597
 20
     1001.136901
 30
       19.091033
  0
POINT
  8
Default
 62
255
 10
     1102.175644
 20
     1001.170206
 30
       19.094074
  0
POINT
  8
Default
 62
255
 10
     1102.143198
 20
     1001.209799
 30
       19.171266
  0
POINT
  8
Default
 62
255
 10
     1102.141054
 20
     1001.167801
 30
       19.127009
  0
POINT
  8
Default
 62
255
 10
     1102.465338
 20
     1000.627782
 30
       19.113365
  0
POINT
  8
Default
 62
255
 10
     1102.446919
 20
     1000.632963
 30
       19.121612
  0
POINT
  8
Default
 62
255
 10
     1102.442167
 20
     1000.666261
 30
       19.088207
  0
POINT
  8
Default
 62
255
 10
     1102.461169
 20
     1000.674934
 30
       19.074830
  0
POINT
  8
Default
 62
255
 10
     1102.491825
 20
     1000.633832
 30
       19.080820
  0
POINT
  8
Default
 62
255
 10
     1102.488723
 20
     1000.651097
 30
       19.065331
  0
POINT
  8
Default
 62
255
 10
     1102.446280
 20
     1000.643846
 30
       19.093971
  0
POINT
  8
Default
 62
255
 10
     1102.428852
 20
     1000.684755
 30
       19.085885
  0
POINT
  8
Default
 62
255
 10
     1102.450646
 20
     1000.676141
 30
       19.081250
  0
POINT
  8
Default
 62
255
 10
     1102.467183
 20
     1000.684120
 30
       19.062208
  0
POINT
  8
Default
 62
255
 10
     1102.415534
 20
     1000.696592
 30
       19.092003
  0
POINT
  8
Default
 62
255
 10
     1102.404322
 20
     1000.707118
 30
       19.094787
  0
POINT
  8
Default
 62
255
 10
     1102.380941
 20
     1000.716587
 30
       19.129809
  0
POINT
  8
Default
 62
255
 10
     1102.355283
 20
     1000.734590
 30
       19.146537
  0
POINT
  8
Default
 62
255
 10
     1102.373782
 20
     1000.723070
 30
       19.120163
  0
POINT
  8
Default
 62
255
 10
     1102.336622
 20
     1000.757476
 30
       19.107400
  0
POINT
  8
Default
 62
255
 10
     1102.367008
 20
     1000.750516
 30
       19.080692
  0
POINT
  8
Default
 62
255
 10
     1102.379701
 20
     1000.726423
 30
       19.097983
  0
POINT
  8
Default
 62
255
 10
     1102.399108
 20
     1000.717948
 30
       19.092344
  0
POINT
  8
Default
 62
255
 10
     1102.393290
 20
     1000.702316
 30
       19.158670
  0
POINT
  8
Default
 62
255
 10
     1102.418408
 20
     1000.661756
 30
       19.137231
  0
POINT
  8
Default
 62
255
 10
     1102.403411
 20
     1000.678459
 30
       19.148801
  0
POINT
  8
Default
 62
255
 10
     1102.331076
 20
     1000.779690
 30
       19.113035
  0
POINT
  8
Default
 62
255
 10
     1102.315365
 20
     1000.797893
 30
       19.113327
  0
POINT
  8
Default
 62
255
 10
     1102.350656
 20
     1000.774935
 30
       19.089157
  0
POINT
  8
Default
 62
255
 10
     1102.288703
 20
     1000.782223
 30
       19.122786
  0
POINT
  8
Default
 62
255
 10
     1102.264944
 20
     1000.752397
 30
       19.167580
  0
POINT
  8
Default
 62
255
 10
     1102.314166
 20
     1000.750484
 30
       19.158487
  0
POINT
  8
Default
 62
255
 10
     1102.339125
 20
     1000.723804
 30
       19.183835
  0
POINT
  8
Default
 62
255
 10
     1102.343954
 20
     1000.829876
 30
       19.080643
  0
POINT
  8
Default
 62
255
 10
     1102.545938
 20
     1001.780277
 30
       19.222897
  0
POINT
  8
Default
 62
255
 10
     1102.573883
 20
     1001.763224
 30
       19.220097
  0
POINT
  8
Default
 62
255
 10
     1102.495397
 20
     1001.758450
 30
       19.273086
  0
POINT
  8
Default
 62
255
 10
     1102.549417
 20
     1001.740203
 30
       19.187125
  0
POINT
  8
Default
 62
255
 10
     1102.571754
 20
     1001.689467
 30
       19.156538
  0
POINT
  8
Default
 62
255
 10
     1102.640467
 20
     1001.672238
 30
       19.184899
  0
POINT
  8
Default
 62
255
 10
     1102.613318
 20
     1001.646722
 30
       19.166158
  0
POINT
  8
Default
 62
255
 10
     1102.616094
 20
     1001.681821
 30
       19.182962
  0
POINT
  8
Default
 62
255
 10
     1102.615781
 20
     1001.701464
 30
       19.199175
  0
POINT
  8
Default
 62
255
 10
     1102.588724
 20
     1001.729835
 30
       19.212162
  0
POINT
  8
Default
 62
255
 10
     1102.545572
 20
     1001.724685
 30
       19.163178
  0
POINT
  8
Default
 62
255
 10
     1102.527850
 20
     1001.748510
 30
       19.196126
  0
POINT
  8
Default
 62
255
 10
     1102.506254
 20
     1001.722442
 30
       19.154131
  0
POINT
  8
Default
 62
255
 10
     1102.507683
 20
     1001.735147
 30
       19.175121
  0
POINT
  8
Default
 62
255
 10
     1102.636587
 20
     1001.664891
 30
       19.167659
  0
POINT
  8
Default
 62
255
 10
     1102.709222
 20
     1001.610463
 30
       19.169794
  0
POINT
  8
Default
 62
255
 10
     1102.656855
 20
     1001.631024
 30
       19.155816
  0
POINT
  8
Default
 62
255
 10
     1102.676835
 20
     1001.599986
 30
       19.135594
  0
POINT
  8
Default
 62
255
 10
     1102.662031
 20
     1001.592450
 30
       19.122850
  0
POINT
  8
Default
 62
255
 10
     1102.643613
 20
     1001.623938
 30
       19.139794
  0
POINT
  8
Default
 62
255
 10
     1102.651246
 20
     1001.616278
 30
       19.124090
  0
POINT
  8
Default
 62
255
 10
     1102.688151
 20
     1001.635222
 30
       19.169432
  0
POINT
  8
Default
 62
255
 10
     1102.691197
 20
     1001.661216
 30
       19.202120
  0
POINT
  8
Default
 62
255
 10
     1102.655676
 20
     1001.691173
 30
       19.234712
  0
POINT
  8
Default
 62
255
 10
     1102.664513
 20
     1001.658737
 30
       19.187037
  0
POINT
  8
Default
 62
255
 10
     1102.732880
 20
     1001.638726
 30
       19.213610
  0
POINT
  8
Default
 62
255
 10
     1102.717834
 20
     1001.666316
 30
       19.215369
  0
POINT
  8
Default
 62
255
 10
     1102.716530
 20
     1001.635223
 30
       19.189741
  0
POINT
  8
Default
 62
255
 10
     1102.752332
 20
     1001.614594
 30
       19.220520
  0
POINT
  8
Default
 62
255
 10
     1102.729114
 20
     1001.602570
 30
       19.178607
  0
POINT
  8
Default
 62
255
 10
     1102.794484
 20
     1001.531460
 30
       19.177535
  0
POINT
  8
Default
 62
255
 10
     1102.772036
 20
     1001.578662
 30
       19.200387
  0
POINT
  8
Default
 62
255
 10
     1102.781589
 20
     1001.558562
 30
       19.190412
  0
POINT
  8
Default
 62
255
 10
     1102.811697
 20
     1001.541559
 30
       19.188784
  0
POINT
  8
Default
 62
255
 10
     1102.811383
 20
     1001.566573
 30
       19.241052
  0
POINT
  8
Default
 62
255
 10
     1102.767160
 20
     1001.650064
 30
       19.226368
  0
POINT
  8
Default
 62
255
 10
     1102.783307
 20
     1001.636571
 30
       19.233177
  0
POINT
  8
Default
 62
255
 10
     1102.779907
 20
     1001.658190
 30
       19.256119
  0
POINT
  8
Default
 62
255
 10
     1102.741183
 20
     1001.601043
 30
       19.216804
  0
POINT
  8
Default
 62
255
 10
     1102.782829
 20
     1001.577293
 30
       19.220414
  0
POINT
  8
Default
 62
255
 10
     1102.832689
 20
     1001.533084
 30
       19.231808
  0
POINT
  8
Default
 62
255
 10
     1102.809212
 20
     1001.556411
 30
       19.213663
  0
POINT
  8
Default
 62
255
 10
     1102.775217
 20
     1001.608334
 30
       19.228351
  0
POINT
  8
Default
 62
255
 10
     1102.793995
 20
     1001.602878
 30
       19.249986
  0
POINT
  8
Default
 62
255
 10
     1102.738010
 20
     1001.551179
 30
       19.130993
  0
POINT
  8
Default
 62
255
 10
     1102.764891
 20
     1001.541537
 30
       19.153398
  0
POINT
  8
Default
 62
255
 10
     1102.736522
 20
     1001.563080
 30
       19.154641
  0
POINT
  8
Default
 62
255
 10
     1102.707392
 20
     1001.571226
 30
       19.138131
  0
POINT
  8
Default
 62
255
 10
     1102.758421
 20
     1001.585316
 30
       19.170613
  0
POINT
  8
Default
 62
255
 10
     1102.721288
 20
     1001.542214
 30
       19.081544
  0
POINT
  8
Default
 62
255
 10
     1102.700857
 20
     1001.537407
 30
       19.064036
  0
POINT
  8
Default
 62
255
 10
     1102.710580
 20
     1001.554365
 30
       19.079149
  0
POINT
  8
Default
 62
255
 10
     1102.846698
 20
     1001.517686
 30
       19.167321
  0
POINT
  8
Default
 62
255
 10
     1102.848414
 20
     1001.495162
 30
       19.124107
  0
POINT
  8
Default
 62
255
 10
     1102.847555
 20
     1001.520501
 30
       19.230020
  0
POINT
  8
Default
 62
255
 10
     1102.655470
 20
     1001.574361
 30
       19.045974
  0
POINT
  8
Default
 62
255
 10
     1102.679318
 20
     1001.582943
 30
       19.091098
  0
POINT
  8
Default
 62
255
 10
     1102.671763
 20
     1001.584877
 30
       19.066690
  0
POINT
  8
Default
 62
255
 10
     1102.612125
 20
     1001.580770
 30
       19.039240
  0
POINT
  8
Default
 62
255
 10
     1102.650333
 20
     1001.540372
 30
       19.035898
  0
POINT
  8
Default
 62
255
 10
     1102.629938
 20
     1001.569785
 30
       19.033995
  0
POINT
  8
Default
 62
255
 10
     1102.591909
 20
     1001.559122
 30
       19.060682
  0
POINT
  8
Default
 62
255
 10
     1102.630278
 20
     1001.609521
 30
       19.044432
  0
POINT
  8
Default
 62
255
 10
     1102.598466
 20
     1001.608823
 30
       19.040493
  0
POINT
  8
Default
 62
255
 10
     1102.587622
 20
     1001.659243
 30
       19.084794
  0
POINT
  8
Default
 62
255
 10
     1102.624423
 20
     1001.644618
 30
       19.105372
  0
POINT
  8
Default
 62
255
 10
     1102.613706
 20
     1001.624277
 30
       19.046868
  0
POINT
  8
Default
 62
255
 10
     1102.590770
 20
     1001.629827
 30
       19.052042
  0
POINT
  8
Default
 62
255
 10
     1102.578570
 20
     1001.673061
 30
       19.095633
  0
POINT
  8
Default
 62
255
 10
     1102.585299
 20
     1001.671215
 30
       19.152574
  0
POINT
  8
Default
 62
255
 10
     1102.546280
 20
     1001.691487
 30
       19.141254
  0
POINT
  8
Default
 62
255
 10
     1102.920995
 20
     1001.394435
 30
       19.007355
  0
POINT
  8
Default
 62
255
 10
     1102.884414
 20
     1001.376394
 30
       18.986928
  0
POINT
  8
Default
 62
255
 10
     1102.904257
 20
     1001.348102
 30
       19.008367
  0
POINT
  8
Default
 62
255
 10
     1102.936528
 20
     1001.387667
 30
       19.016393
  0
POINT
  8
Default
 62
255
 10
     1102.905274
 20
     1001.417001
 30
       18.998045
  0
POINT
  8
Default
 62
255
 10
     1102.894864
 20
     1001.408968
 30
       18.994333
  0
POINT
  8
Default
 62
255
 10
     1102.927048
 20
     1001.422825
 30
       19.006501
  0
POINT
  8
Default
 62
255
 10
     1102.934072
 20
     1001.408759
 30
       19.011973
  0
POINT
  8
Default
 62
255
 10
     1102.928362
 20
     1001.350652
 30
       19.011179
  0
POINT
  8
Default
 62
255
 10
     1102.948928
 20
     1001.372415
 30
       19.009780
  0
POINT
  8
Default
 62
255
 10
     1102.962834
 20
     1001.339754
 30
       18.978422
  0
POINT
  8
Default
 62
255
 10
     1102.983526
 20
     1001.363842
 30
       18.988920
  0
POINT
  8
Default
 62
255
 10
     1102.932254
 20
     1001.336909
 30
       18.994512
  0
POINT
  8
Default
 62
255
 10
     1102.910011
 20
     1001.307187
 30
       18.993914
  0
POINT
  8
Default
 62
255
 10
     1102.905115
 20
     1001.373879
 30
       19.009611
  0
POINT
  8
Default
 62
255
 10
     1103.004257
 20
     1001.358446
 30
       18.985087
  0
POINT
  8
Default
 62
255
 10
     1103.024212
 20
     1001.335123
 30
       18.977042
  0
POINT
  8
Default
 62
255
 10
     1103.005424
 20
     1001.328724
 30
       18.971584
  0
POINT
  8
Default
 62
255
 10
     1102.970404
 20
     1001.321425
 30
       18.978941
  0
POINT
  8
Default
 62
255
 10
     1102.982738
 20
     1001.345771
 30
       18.980891
  0
POINT
  8
Default
 62
255
 10
     1102.967657
 20
     1001.400641
 30
       19.005278
  0
POINT
  8
Default
 62
255
 10
     1103.028484
 20
     1001.348756
 30
       18.983677
  0
POINT
  8
Default
 62
255
 10
     1102.892372
 20
     1001.353715
 30
       18.987085
  0
POINT
  8
Default
 62
255
 10
     1102.977592
 20
     1001.386456
 30
       18.992544
  0
POINT
  8
Default
 62
255
 10
     1102.995224
 20
     1001.388066
 30
       18.989531
  0
POINT
  8
Default
 62
255
 10
     1103.011615
 20
     1001.368897
 30
       18.985533
  0
POINT
  8
Default
 62
255
 10
     1103.054873
 20
     1001.339668
 30
       18.941177
  0
POINT
  8
Default
 62
255
 10
     1103.066015
 20
     1001.343249
 30
       18.944696
  0
POINT
  8
Default
 62
255
 10
     1103.084727
 20
     1001.359097
 30
       18.958035
  0
POINT
  8
Default
 62
255
 10
     1103.068227
 20
     1001.359324
 30
       18.968731
  0
POINT
  8
Default
 62
255
 10
     1103.085494
 20
     1001.332222
 30
       18.947731
  0
POINT
  8
Default
 62
255
 10
     1103.054882
 20
     1001.321319
 30
       18.942151
  0
POINT
  8
Default
 62
255
 10
     1103.079542
 20
     1001.366882
 30
       19.015419
  0
POINT
  8
Default
 62
255
 10
     1103.105119
 20
     1001.344470
 30
       19.000603
  0
POINT
  8
Default
 62
255
 10
     1103.083902
 20
     1001.303987
 30
       18.948556
  0
POINT
  8
Default
 62
255
 10
     1103.105939
 20
     1001.299461
 30
       18.949685
  0
POINT
  8
Default
 62
255
 10
     1103.089720
 20
     1001.280125
 30
       18.950471
  0
POINT
  8
Default
 62
255
 10
     1103.103460
 20
     1001.271622
 30
       18.951001
  0
POINT
  8
Default
 62
255
 10
     1103.120968
 20
     1001.266535
 30
       18.958088
  0
POINT
  8
Default
 62
255
 10
     1103.097013
 20
     1001.229269
 30
       18.952425
  0
POINT
  8
Default
 62
255
 10
     1103.155015
 20
     1001.271872
 30
       18.984459
  0
POINT
  8
Default
 62
255
 10
     1103.170844
 20
     1001.256111
 30
       18.988813
  0
POINT
  8
Default
 62
255
 10
     1103.163795
 20
     1001.286997
 30
       18.993468
  0
POINT
  8
Default
 62
255
 10
     1103.119247
 20
     1001.222589
 30
       18.963198
  0
POINT
  8
Default
 62
255
 10
     1103.127022
 20
     1001.207921
 30
       18.971343
  0
POINT
  8
Default
 62
255
 10
     1103.170181
 20
     1001.221973
 30
       19.011868
  0
POINT
  8
Default
 62
255
 10
     1103.180368
 20
     1001.250340
 30
       19.002516
  0
POINT
  8
Default
 62
255
 10
     1103.121851
 20
     1001.319953
 30
       18.955943
  0
POINT
  8
Default
 62
255
 10
     1103.134819
 20
     1001.336679
 30
       19.012833
  0
POINT
  8
Default
 62
255
 10
     1103.223312
 20
     1001.331156
 30
       19.222378
  0
POINT
  8
Default
 62
255
 10
     1103.198826
 20
     1001.340960
 30
       19.223572
  0
POINT
  8
Default
 62
255
 10
     1103.202062
 20
     1001.362672
 30
       19.234256
  0
POINT
  8
Default
 62
255
 10
     1103.217801
 20
     1001.348505
 30
       19.231540
  0
POINT
  8
Default
 62
255
 10
     1103.270727
 20
     1001.318624
 30
       19.239415
  0
POINT
  8
Default
 62
255
 10
     1103.287825
 20
     1001.321106
 30
       19.253210
  0
POINT
  8
Default
 62
255
 10
     1103.272381
 20
     1001.295200
 30
       19.240237
  0
POINT
  8
Default
 62
255
 10
     1103.229045
 20
     1001.270920
 30
       19.225078
  0
POINT
  8
Default
 62
255
 10
     1103.235154
 20
     1001.310038
 30
       19.215544
  0
POINT
  8
Default
 62
255
 10
     1103.172406
 20
     1001.315231
 30
       19.209379
  0
POINT
  8
Default
 62
255
 10
     1103.155659
 20
     1001.328655
 30
       19.204027
  0
POINT
  8
Default
 62
255
 10
     1103.099415
 20
     1001.368597
 30
       19.255240
  0
POINT
  8
Default
 62
255
 10
     1103.172384
 20
     1001.350396
 30
       19.223513
  0
POINT
  8
Default
 62
255
 10
     1103.180934
 20
     1001.337045
 30
       19.220819
  0
POINT
  8
Default
 62
255
 10
     1103.155823
 20
     1001.358405
 30
       19.223121
  0
POINT
  8
Default
 62
255
 10
     1103.136748
 20
     1001.358878
 30
       19.205949
  0
POINT
  8
Default
 62
255
 10
     1103.133544
 20
     1001.358604
 30
       19.231137
  0
POINT
  8
Default
 62
255
 10
     1103.223025
 20
     1001.302206
 30
       19.191134
  0
POINT
  8
Default
 62
255
 10
     1103.189881
 20
     1001.331631
 30
       19.175528
  0
POINT
  8
Default
 62
255
 10
     1103.211315
 20
     1001.317953
 30
       19.177451
  0
POINT
  8
Default
 62
255
 10
     1103.191670
 20
     1001.320908
 30
       19.150304
  0
POINT
  8
Default
 62
255
 10
     1103.167814
 20
     1001.331118
 30
       19.140787
  0
POINT
  8
Default
 62
255
 10
     1103.176700
 20
     1001.314503
 30
       19.098624
  0
POINT
  8
Default
 62
255
 10
     1103.195634
 20
     1001.288451
 30
       19.087552
  0
POINT
  8
Default
 62
255
 10
     1103.196274
 20
     1001.299068
 30
       19.100972
  0
POINT
  8
Default
 62
255
 10
     1103.215132
 20
     1001.287959
 30
       19.168315
  0
POINT
  8
Default
 62
255
 10
     1103.219235
 20
     1001.264886
 30
       19.161258
  0
POINT
  8
Default
 62
255
 10
     1103.203265
 20
     1001.261692
 30
       19.105252
  0
POINT
  8
Default
 62
255
 10
     1103.172278
 20
     1001.305032
 30
       19.046454
  0
POINT
  8
Default
 62
255
 10
     1103.181981
 20
     1001.302995
 30
       19.077797
  0
POINT
  8
Default
 62
255
 10
     1103.200042
 20
     1001.269663
 30
       19.080874
  0
POINT
  8
Default
 62
255
 10
     1103.094496
 20
     1001.369805
 30
       19.155591
  0
POINT
  8
Default
 62
255
 10
     1103.076873
 20
     1001.396336
 30
       19.233667
  0
POINT
  8
Default
 62
255
 10
     1103.128358
 20
     1001.331518
 30
       19.098888
  0
POINT
  8
Default
 62
255
 10
     1103.140969
 20
     1001.339634
 30
       19.149543
  0
POINT
  8
Default
 62
255
 10
     1103.055186
 20
     1001.403739
 30
       19.235226
  0
POINT
  8
Default
 62
255
 10
     1103.046207
 20
     1001.384050
 30
       19.202848
  0
POINT
  8
Default
 62
255
 10
     1103.072936
 20
     1001.384088
 30
       19.215456
  0
POINT
  8
Default
 62
255
 10
     1103.086416
 20
     1001.367025
 30
       19.110938
  0
POINT
  8
Default
 62
255
 10
     1103.125848
 20
     1001.350872
 30
       19.104719
  0
POINT
  8
Default
 62
255
 10
     1103.026422
 20
     1001.404681
 30
       19.228240
  0
POINT
  8
Default
 62
255
 10
     1103.009038
 20
     1001.409350
 30
       19.238946
  0
POINT
  8
Default
 62
255
 10
     1102.959141
 20
     1001.430048
 30
       19.234479
  0
POINT
  8
Default
 62
255
 10
     1102.968709
 20
     1001.433164
 30
       19.250907
  0
POINT
  8
Default
 62
255
 10
     1102.990581
 20
     1001.431108
 30
       19.268783
  0
POINT
  8
Default
 62
255
 10
     1102.946897
 20
     1001.451451
 30
       19.252723
  0
POINT
  8
Default
 62
255
 10
     1102.993906
 20
     1001.394947
 30
       19.094033
  0
POINT
  8
Default
 62
255
 10
     1103.026364
 20
     1001.382316
 30
       19.074002
  0
POINT
  8
Default
 62
255
 10
     1103.021142
 20
     1001.399693
 30
       19.118922
  0
POINT
  8
Default
 62
255
 10
     1103.053627
 20
     1001.387634
 30
       19.115123
  0
POINT
  8
Default
 62
255
 10
     1103.073876
 20
     1001.386469
 30
       19.161557
  0
POINT
  8
Default
 62
255
 10
     1103.072562
 20
     1001.375641
 30
       19.122929
  0
POINT
  8
Default
 62
255
 10
     1102.990228
 20
     1001.386567
 30
       19.065300
  0
POINT
  8
Default
 62
255
 10
     1102.967098
 20
     1001.396566
 30
       19.082077
  0
POINT
  8
Default
 62
255
 10
     1103.004601
 20
     1001.406429
 30
       19.213289
  0
POINT
  8
Default
 62
255
 10
     1102.987545
 20
     1001.416141
 30
       19.207407
  0
POINT
  8
Default
 62
255
 10
     1102.941951
 20
     1001.429291
 30
       19.138058
  0
POINT
  8
Default
 62
255
 10
     1102.929760
 20
     1001.419918
 30
       19.047371
  0
POINT
  8
Default
 62
255
 10
     1102.930980
 20
     1001.427459
 30
       19.108803
  0
POINT
  8
Default
 62
255
 10
     1102.937678
 20
     1001.425302
 30
       19.080588
  0
POINT
  8
Default
 62
255
 10
     1102.978724
 20
     1001.403212
 30
       19.095574
  0
POINT
  8
Default
 62
255
 10
     1102.923458
 20
     1001.439838
 30
       19.113874
  0
POINT
  8
Default
 62
255
 10
     1102.896131
 20
     1001.444335
 30
       19.064959
  0
POINT
  8
Default
 62
255
 10
     1102.882285
 20
     1001.472400
 30
       19.123135
  0
POINT
  8
Default
 62
255
 10
     1102.863110
 20
     1001.481487
 30
       19.123686
  0
POINT
  8
Default
 62
255
 10
     1102.892555
 20
     1001.460563
 30
       19.129343
  0
POINT
  8
Default
 62
255
 10
     1102.864161
 20
     1001.497333
 30
       19.147083
  0
POINT
  8
Default
 62
255
 10
     1102.891539
 20
     1001.500456
 30
       19.191926
  0
POINT
  8
Default
 62
255
 10
     1102.920643
 20
     1001.482509
 30
       19.219843
  0
POINT
  8
Default
 62
255
 10
     1102.920583
 20
     1001.465006
 30
       19.203194
  0
POINT
  8
Default
 62
255
 10
     1102.932917
 20
     1001.452552
 30
       19.230777
  0
POINT
  8
Default
 62
255
 10
     1102.948550
 20
     1001.428888
 30
       19.207692
  0
POINT
  8
Default
 62
255
 10
     1102.964939
 20
     1001.425394
 30
       19.218036
  0
POINT
  8
Default
 62
255
 10
     1102.888040
 20
     1001.513477
 30
       19.235304
  0
POINT
  8
Default
 62
255
 10
     1102.910274
 20
     1001.501190
 30
       19.240608
  0
POINT
  8
Default
 62
255
 10
     1102.917423
 20
     1001.512333
 30
       19.263624
  0
POINT
  8
Default
 62
255
 10
     1102.929027
 20
     1001.492696
 30
       19.266613
  0
POINT
  8
Default
 62
255
 10
     1103.089492
 20
     1001.354008
 30
       19.095134
  0
POINT
  8
Default
 62
255
 10
     1103.119035
 20
     1001.367159
 30
       19.174982
  0
POINT
  8
Default
 62
255
 10
     1103.134776
 20
     1001.352932
 30
       19.160845
  0
POINT
  8
Default
 62
255
 10
     1103.112030
 20
     1001.360823
 30
       19.141802
  0
POINT
  8
Default
 62
255
 10
     1103.090491
 20
     1001.367295
 30
       19.020564
  0
POINT
  8
Default
 62
255
 10
     1102.507365
 20
     1001.776757
 30
       19.231956
  0
POINT
  8
Default
 62
255
 10
     1102.518701
 20
     1001.790222
 30
       19.249755
  0
POINT
  8
Default
 62
255
 10
     1102.502290
 20
     1001.738479
 30
       19.194013
  0
POINT
  8
Default
 62
255
 10
     1102.527755
 20
     1001.765070
 30
       19.211761
  0
POINT
  8
Default
 62
255
 10
     1102.460663
 20
     1001.704118
 30
       19.186739
  0
POINT
  8
Default
 62
255
 10
     1102.475039
 20
     1001.725605
 30
       19.207439
  0
POINT
  8
Default
 62
255
 10
     1102.476297
 20
     1001.728356
 30
       19.238081
  0
POINT
  8
Default
 62
255
 10
     1102.488489
 20
     1001.753476
 30
       19.252627
  0
POINT
  8
Default
 62
255
 10
     1102.490481
 20
     1001.720526
 30
       19.152945
  0
POINT
  8
Default
 62
255
 10
     1102.486632
 20
     1001.736168
 30
       19.204590
  0
POINT
  8
Default
 62
255
 10
     1102.514061
 20
     1001.753454
 30
       19.207969
  0
POINT
  8
Default
 62
255
 10
     1102.481090
 20
     1001.718312
 30
       19.188923
  0
POINT
  8
Default
 62
255
 10
     1102.494794
 20
     1001.761254
 30
       19.234743
  0
POINT
  8
Default
 62
255
 10
     1102.493220
 20
     1001.753574
 30
       19.220243
  0
POINT
  8
Default
 62
255
 10
     1102.501331
 20
     1001.760621
 30
       19.222850
  0
POINT
  8
Default
 62
255
 10
     1102.538241
 20
     1001.783260
 30
       19.241513
  0
POINT
  8
Default
 62
255
 10
     1102.546966
 20
     1001.752272
 30
       19.193020
  0
POINT
  8
Default
 62
255
 10
     1102.455551
 20
     1001.655210
 30
       19.100210
  0
POINT
  8
Default
 62
255
 10
     1102.442046
 20
     1001.652341
 30
       19.104348
  0
POINT
  8
Default
 62
255
 10
     1102.449151
 20
     1001.682599
 30
       19.121892
  0
POINT
  8
Default
 62
255
 10
     1102.480550
 20
     1001.671807
 30
       19.121736
  0
POINT
  8
Default
 62
255
 10
     1102.470579
 20
     1001.689454
 30
       19.161495
  0
POINT
  8
Default
 62
255
 10
     1102.425140
 20
     1001.642213
 30
       19.163193
  0
POINT
  8
Default
 62
255
 10
     1102.434735
 20
     1001.662210
 30
       19.161916
  0
POINT
  8
Default
 62
255
 10
     1102.425679
 20
     1001.640240
 30
       19.148790
  0
POINT
  8
Default
 62
255
 10
     1102.430147
 20
     1001.626938
 30
       19.086026
  0
POINT
  8
Default
 62
255
 10
     1102.423159
 20
     1001.606145
 30
       19.083965
  0
POINT
  8
Default
 62
255
 10
     1102.429034
 20
     1001.588581
 30
       19.067212
  0
POINT
  8
Default
 62
255
 10
     1102.422072
 20
     1001.661302
 30
       19.197330
  0
POINT
  8
Default
 62
255
 10
     1102.424693
 20
     1001.653853
 30
       19.182455
  0
POINT
  8
Default
 62
255
 10
     1102.442042
 20
     1001.682235
 30
       19.268889
  0
POINT
  8
Default
 62
255
 10
     1102.429506
 20
     1001.661855
 30
       19.267867
  0
POINT
  8
Default
 62
255
 10
     1102.405645
 20
     1001.642461
 30
       19.283939
  0
POINT
  8
Default
 62
255
 10
     1102.402842
 20
     1001.586036
 30
       19.086414
  0
POINT
  8
Default
 62
255
 10
     1102.407655
 20
     1001.598122
 30
       19.115819
  0
POINT
  8
Default
 62
255
 10
     1102.445690
 20
     1001.673211
 30
       19.266953
  0
POINT
  8
Default
 62
255
 10
     1102.331841
 20
     1001.580420
 30
       19.327694
  0
POINT
  8
Default
 62
255
 10
     1102.348011
 20
     1001.592336
 30
       19.324218
  0
POINT
  8
Default
 62
255
 10
     1102.348925
 20
     1001.537363
 30
       19.209345
  0
POINT
  8
Default
 62
255
 10
     1102.358789
 20
     1001.545136
 30
       19.194225
  0
POINT
  8
Default
 62
255
 10
     1102.392047
 20
     1001.570217
 30
       19.103785
  0
POINT
  8
Default
 62
255
 10
     1102.402149
 20
     1001.594093
 30
       19.130283
  0
POINT
  8
Default
 62
255
 10
     1102.384354
 20
     1001.576095
 30
       19.144742
  0
POINT
  8
Default
 62
255
 10
     1102.378385
 20
     1001.580420
 30
       19.156712
  0
POINT
  8
Default
 62
255
 10
     1102.362195
 20
     1001.562489
 30
       19.155169
  0
POINT
  8
Default
 62
255
 10
     1102.380065
 20
     1001.554459
 30
       19.085993
  0
POINT
  8
Default
 62
255
 10
     1102.394952
 20
     1001.564496
 30
       19.079513
  0
POINT
  8
Default
 62
255
 10
     1102.400818
 20
     1001.616252
 30
       19.186851
  0
POINT
  8
Default
 62
255
 10
     1102.414845
 20
     1001.631683
 30
       19.152897
  0
POINT
  8
Default
 62
255
 10
     1102.409398
 20
     1001.637377
 30
       19.186648
  0
POINT
  8
Default
 62
255
 10
     1102.420077
 20
     1001.655367
 30
       19.267917
  0
POINT
  8
Default
 62
255
 10
     1102.376164
 20
     1001.587254
 30
       19.196964
  0
POINT
  8
Default
 62
255
 10
     1102.390889
 20
     1001.588453
 30
       19.155923
  0
POINT
  8
Default
 62
255
 10
     1102.381025
 20
     1001.562660
 30
       19.116383
  0
POINT
  8
Default
 62
255
 10
     1102.425636
 20
     1001.643524
 30
       19.251045
  0
POINT
  8
Default
 62
255
 10
     1102.408390
 20
     1001.629723
 30
       19.249938
  0
POINT
  8
Default
 62
255
 10
     1102.402635
 20
     1001.622412
 30
       19.231798
  0
POINT
  8
Default
 62
255
 10
     1102.385383
 20
     1001.604171
 30
       19.256901
  0
POINT
  8
Default
 62
255
 10
     1102.377391
 20
     1001.601522
 30
       19.282920
  0
POINT
  8
Default
 62
255
 10
     1102.387679
 20
     1001.604972
 30
       19.227595
  0
POINT
  8
Default
 62
255
 10
     1102.366936
 20
     1001.563815
 30
       19.195932
  0
POINT
  8
Default
 62
255
 10
     1102.363244
 20
     1001.503136
 30
       19.085376
  0
POINT
  8
Default
 62
255
 10
     1102.347485
 20
     1001.521073
 30
       19.127122
  0
POINT
  8
Default
 62
255
 10
     1102.336217
 20
     1001.497977
 30
       19.125038
  0
POINT
  8
Default
 62
255
 10
     1102.357626
 20
     1001.483481
 30
       19.076207
  0
POINT
  8
Default
 62
255
 10
     1102.356315
 20
     1001.523782
 30
       19.109023
  0
POINT
  8
Default
 62
255
 10
     1102.370612
 20
     1001.543211
 30
       19.125121
  0
POINT
  8
Default
 62
255
 10
     1102.329247
 20
     1001.503256
 30
       19.163206
  0
POINT
  8
Default
 62
255
 10
     1102.322463
 20
     1001.523540
 30
       19.300467
  0
POINT
  8
Default
 62
255
 10
     1102.336555
 20
     1001.580711
 30
       19.195245
  0
POINT
  8
Default
 62
255
 10
     1102.317414
 20
     1001.544632
 30
       19.308981
  0
POINT
  8
Default
 62
255
 10
     1102.323667
 20
     1001.482536
 30
       19.162664
  0
POINT
  8
Default
 62
255
 10
     1102.330884
 20
     1001.520814
 30
       19.188340
  0
POINT
  8
Default
 62
255
 10
     1102.338765
 20
     1001.523289
 30
       19.234397
  0
POINT
  8
Default
 62
255
 10
     1102.356228
 20
     1001.569095
 30
       19.313089
  0
POINT
  8
Default
 62
255
 10
     1102.368889
 20
     1001.597539
 30
       19.308005
  0
POINT
  8
Default
 62
255
 10
     1102.343630
 20
     1001.554769
 30
       19.290010
  0
POINT
  8
Default
 62
255
 10
     1102.334094
 20
     1001.526828
 30
       19.270205
  0
POINT
  8
Default
 62
255
 10
     1102.346485
 20
     1001.548431
 30
       19.255079
  0
POINT
  8
Default
 62
255
 10
     1102.257470
 20
     1001.429833
 30
       19.291352
  0
POINT
  8
Default
 62
255
 10
     1102.269992
 20
     1001.431067
 30
       19.266951
  0
POINT
  8
Default
 62
255
 10
     1102.268794
 20
     1001.453852
 30
       19.230414
  0
POINT
  8
Default
 62
255
 10
     1102.255692
 20
     1001.410830
 30
       19.215741
  0
POINT
  8
Default
 62
255
 10
     1102.264525
 20
     1001.431901
 30
       19.230759
  0
POINT
  8
Default
 62
255
 10
     1102.274664
 20
     1001.423460
 30
       19.193903
  0
POINT
  8
Default
 62
255
 10
     1102.257286
 20
     1001.401200
 30
       19.250856
  0
POINT
  8
Default
 62
255
 10
     1102.286432
 20
     1001.437247
 30
       19.201925
  0
POINT
  8
Default
 62
255
 10
     1102.294055
 20
     1001.473146
 30
       19.200342
  0
POINT
  8
Default
 62
255
 10
     1102.287216
 20
     1001.471043
 30
       19.218797
  0
POINT
  8
Default
 62
255
 10
     1102.281154
 20
     1001.477884
 30
       19.240488
  0
POINT
  8
Default
 62
255
 10
     1102.286090
 20
     1001.492603
 30
       19.260602
  0
POINT
  8
Default
 62
255
 10
     1102.251033
 20
     1001.457807
 30
       19.327657
  0
POINT
  8
Default
 62
255
 10
     1102.262629
 20
     1001.457534
 30
       19.323923
  0
POINT
  8
Default
 62
255
 10
     1102.264183
 20
     1001.449360
 30
       19.279628
  0
POINT
  8
Default
 62
255
 10
     1102.292733
 20
     1001.488269
 30
       19.318867
  0
POINT
  8
Default
 62
255
 10
     1102.291158
 20
     1001.491400
 30
       19.294838
  0
POINT
  8
Default
 62
255
 10
     1102.271025
 20
     1001.406443
 30
       19.174107
  0
POINT
  8
Default
 62
255
 10
     1102.237151
 20
     1001.410194
 30
       19.308869
  0
POINT
  8
Default
 62
255
 10
     1102.252192
 20
     1001.407449
 30
       19.257651
  0
POINT
  8
Default
 62
255
 10
     1102.217705
 20
     1001.384157
 30
       19.309531
  0
POINT
  8
Default
 62
255
 10
     1102.061868
 20
     1001.083166
 30
       19.141433
  0
POINT
  8
Default
 62
255
 10
     1102.074954
 20
     1001.124932
 30
       19.152852
  0
POINT
  8
Default
 62
255
 10
     1102.093490
 20
     1001.151479
 30
       19.167509
  0
POINT
  8
Default
 62
255
 10
     1102.089781
 20
     1001.150120
 30
       19.201441
  0
POINT
  8
Default
 62
255
 10
     1102.074919
 20
     1001.078427
 30
       19.131470
  0
POINT
  8
Default
 62
255
 10
     1102.059434
 20
     1001.090284
 30
       19.183100
  0
POINT
  8
Default
 62
255
 10
     1102.078977
 20
     1001.125084
 30
       19.198272
  0
POINT
  8
Default
 62
255
 10
     1102.049052
 20
     1001.091032
 30
       19.236532
  0
POINT
  8
Default
 62
255
 10
     1102.116000
 20
     1001.062480
 30
       19.136102
  0
POINT
  8
Default
 62
255
 10
     1102.068269
 20
     1001.060043
 30
       19.140778
  0
POINT
  8
Default
 62
255
 10
     1102.071109
 20
     1001.062153
 30
       19.162850
  0
POINT
  8
Default
 62
255
 10
     1102.061933
 20
     1001.126752
 30
       19.235900
  0
POINT
  8
Default
 62
255
 10
     1102.059960
 20
     1001.115850
 30
       19.225224
  0
POINT
  8
Default
 62
255
 10
     1102.078487
 20
     1001.135648
 30
       19.211351
  0
POINT
  8
Default
 62
255
 10
     1102.039979
 20
     1001.094487
 30
       19.248983
  0
POINT
  8
Default
 62
255
 10
     1102.080623
 20
     1001.144932
 30
       19.261836
  0
POINT
  8
Default
 62
255
 10
     1102.097134
 20
     1001.160952
 30
       19.247988
  0
POINT
  8
Default
 62
255
 10
     1102.070193
 20
     1001.161356
 30
       19.276156
  0
POINT
  8
Default
 62
255
 10
     1102.064237
 20
     1001.138061
 30
       19.288669
  0
POINT
  8
Default
 62
255
 10
     1102.047875
 20
     1001.104483
 30
       19.246681
  0
POINT
  8
Default
 62
255
 10
     1102.038038
 20
     1001.123842
 30
       19.323353
  0
POINT
  8
Default
 62
255
 10
     1102.015968
 20
     1001.020945
 30
       19.268346
  0
POINT
  8
Default
 62
255
 10
     1102.017458
 20
     1001.055504
 30
       19.279047
  0
POINT
  8
Default
 62
255
 10
     1102.024683
 20
     1001.074785
 30
       19.235548
  0
POINT
  8
Default
 62
255
 10
     1102.020877
 20
     1001.091976
 30
       19.315593
  0
POINT
  8
Default
 62
255
 10
     1102.022116
 20
     1001.104012
 30
       19.338965
  0
POINT
  8
Default
 62
255
 10
     1102.023652
 20
     1001.129347
 30
       19.338821
  0
POINT
  8
Default
 62
255
 10
     1102.018397
 20
     1001.034834
 30
       19.210242
  0
POINT
  8
Default
 62
255
 10
     1102.026171
 20
     1001.041673
 30
       19.198409
  0
POINT
  8
Default
 62
255
 10
     1102.026414
 20
     1001.047854
 30
       19.209933
  0
POINT
  8
Default
 62
255
 10
     1102.022705
 20
     1001.055479
 30
       19.223940
  0
POINT
  8
Default
 62
255
 10
     1102.024922
 20
     1001.006310
 30
       19.171310
  0
POINT
  8
Default
 62
255
 10
     1102.052630
 20
     1001.018023
 30
       19.142295
  0
POINT
  8
Default
 62
255
 10
     1102.013880
 20
     1000.978896
 30
       19.171927
  0
POINT
  8
Default
 62
255
 10
     1102.005169
 20
     1001.019523
 30
       19.194173
  0
POINT
  8
Default
 62
255
 10
     1102.004589
 20
     1000.998193
 30
       19.192539
  0
POINT
  8
Default
 62
255
 10
     1101.975671
 20
     1000.986073
 30
       19.214414
  0
POINT
  8
Default
 62
255
 10
     1102.016079
 20
     1001.035273
 30
       19.270018
  0
POINT
  8
Default
 62
255
 10
     1102.009002
 20
     1001.056871
 30
       19.312494
  0
POINT
  8
Default
 62
255
 10
     1102.024914
 20
     1001.075214
 30
       19.298386
  0
POINT
  8
Default
 62
255
 10
     1102.052256
 20
     1001.111844
 30
       19.314579
  0
POINT
  8
Default
 62
255
 10
     1102.055034
 20
     1001.125621
 30
       19.274065
  0
POINT
  8
Default
 62
255
 10
     1102.044154
 20
     1001.105767
 30
       19.269619
  0
POINT
  8
Default
 62
255
 10
     1102.017335
 20
     1001.039618
 30
       19.232198
  0
POINT
  8
Default
 62
255
 10
     1102.017536
 20
     1000.968438
 30
       19.165517
  0
POINT
  8
Default
 62
255
 10
     1102.020942
 20
     1000.992529
 30
       19.164266
  0
POINT
  8
Default
 62
255
 10
     1101.996076
 20
     1001.007612
 30
       19.216018
  0
POINT
  8
Default
 62
255
 10
     1101.999351
 20
     1001.092008
 30
       19.334576
  0
POINT
  8
Default
 62
255
 10
     1102.002495
 20
     1001.133303
 30
       19.344360
  0
POINT
  8
Default
 62
255
 10
     1101.979371
 20
     1001.102316
 30
       19.346549
  0
POINT
  8
Default
 62
255
 10
     1101.963588
 20
     1001.098536
 30
       19.353050
  0
POINT
  8
Default
 62
255
 10
     1101.970835
 20
     1001.124107
 30
       19.355665
  0
POINT
  8
Default
 62
255
 10
     1101.916481
 20
     1001.079816
 30
       19.357668
  0
POINT
  8
Default
 62
255
 10
     1101.933708
 20
     1001.057800
 30
       19.356420
  0
POINT
  8
Default
 62
255
 10
     1101.942365
 20
     1001.077985
 30
       19.352270
  0
POINT
  8
Default
 62
255
 10
     1101.932895
 20
     1001.095509
 30
       19.356667
  0
POINT
  8
Default
 62
255
 10
     1101.976120
 20
     1001.064022
 30
       19.335586
  0
POINT
  8
Default
 62
255
 10
     1101.961176
 20
     1001.048180
 30
       19.335558
  0
POINT
  8
Default
 62
255
 10
     1101.983839
 20
     1001.083759
 30
       19.342523
  0
POINT
  8
Default
 62
255
 10
     1101.957938
 20
     1001.070911
 30
       19.346864
  0
POINT
  8
Default
 62
255
 10
     1101.941615
 20
     1001.033254
 30
       19.349660
  0
POINT
  8
Default
 62
255
 10
     1101.945257
 20
     1001.053930
 30
       19.349248
  0
POINT
  8
Default
 62
255
 10
     1101.915375
 20
     1001.036108
 30
       19.363868
  0
POINT
  8
Default
 62
255
 10
     1101.934804
 20
     1000.984427
 30
       19.335344
  0
POINT
  8
Default
 62
255
 10
     1101.958336
 20
     1001.026762
 30
       19.330717
  0
POINT
  8
Default
 62
255
 10
     1101.961978
 20
     1001.011922
 30
       19.320384
  0
POINT
  8
Default
 62
255
 10
     1101.975031
 20
     1001.033970
 30
       19.327025
  0
POINT
  8
Default
 62
255
 10
     1101.990928
 20
     1001.049397
 30
       19.323415
  0
POINT
  8
Default
 62
255
 10
     1101.984721
 20
     1001.024943
 30
       19.324235
  0
POINT
  8
Default
 62
255
 10
     1101.968898
 20
     1001.003250
 30
       19.304417
  0
POINT
  8
Default
 62
255
 10
     1101.907689
 20
     1000.935657
 30
       19.334375
  0
POINT
  8
Default
 62
255
 10
     1101.890992
 20
     1000.961408
 30
       19.344167
  0
POINT
  8
Default
 62
255
 10
     1101.914604
 20
     1000.984641
 30
       19.345379
  0
POINT
  8
Default
 62
255
 10
     1101.915645
 20
     1001.017457
 30
       19.366421
  0
POINT
  8
Default
 62
255
 10
     1101.925840
 20
     1001.005529
 30
       19.350437
  0
POINT
  8
Default
 62
255
 10
     1101.881051
 20
     1000.966972
 30
       19.351378
  0
POINT
  8
Default
 62
255
 10
     1101.880497
 20
     1001.009459
 30
       19.365002
  0
POINT
  8
Default
 62
255
 10
     1101.858681
 20
     1000.990117
 30
       19.364291
  0
POINT
  8
Default
 62
255
 10
     1101.863405
 20
     1000.945047
 30
       19.361516
  0
POINT
  8
Default
 62
255
 10
     1101.848805
 20
     1000.974412
 30
       19.368217
  0
POINT
  8
Default
 62
255
 10
     1101.898721
 20
     1001.029237
 30
       19.371492
  0
POINT
  8
Default
 62
255
 10
     1101.949277
 20
     1000.986216
 30
       19.329967
  0
POINT
  8
Default
 62
255
 10
     1101.956762
 20
     1000.907842
 30
       19.304908
  0
POINT
  8
Default
 62
255
 10
     1102.004080
 20
     1000.888975
 30
       19.284714
  0
POINT
  8
Default
 62
255
 10
     1102.027732
 20
     1000.860310
 30
       19.308607
  0
POINT
  8
Default
 62
255
 10
     1102.005410
 20
     1000.857876
 30
       19.299197
  0
POINT
  8
Default
 62
255
 10
     1101.989971
 20
     1000.880217
 30
       19.290284
  0
POINT
  8
Default
 62
255
 10
     1101.912006
 20
     1000.868803
 30
       19.312708
  0
POINT
  8
Default
 62
255
 10
     1101.904302
 20
     1000.895920
 30
       19.321411
  0
POINT
  8
Default
 62
255
 10
     1101.916706
 20
     1000.925673
 30
       19.321588
  0
POINT
  8
Default
 62
255
 10
     1101.922095
 20
     1000.903189
 30
       19.316674
  0
POINT
  8
Default
 62
255
 10
     1102.136502
 20
     1001.182658
 30
       19.159037
  0
POINT
  8
Default
 62
255
 10
     1102.162495
 20
     1001.197435
 30
       19.126793
  0
POINT
  8
Default
 62
255
 10
     1102.172271
 20
     1001.204410
 30
       19.117668
  0
POINT
  8
Default
 62
255
 10
     1102.166130
 20
     1001.184519
 30
       19.107105
  0
POINT
  8
Default
 62
255
 10
     1102.155296
 20
     1001.190996
 30
       19.169406
  0
POINT
  8
Default
 62
255
 10
     1102.166412
 20
     1001.228511
 30
       19.155307
  0
POINT
  8
Default
 62
255
 10
     1102.167860
 20
     1001.212462
 30
       19.136322
  0
POINT
  8
Default
 62
255
 10
     1102.169079
 20
     1001.242257
 30
       19.161064
  0
POINT
  8
Default
 62
255
 10
     1102.184467
 20
     1001.252635
 30
       19.140117
  0
POINT
  8
Default
 62
255
 10
     1102.141389
 20
     1001.227866
 30
       19.187867
  0
POINT
  8
Default
 62
255
 10
     1102.120113
 20
     1001.193373
 30
       19.181642
  0
POINT
  8
Default
 62
255
 10
     1102.123962
 20
     1001.206880
 30
       19.181558
  0
POINT
  8
Default
 62
255
 10
     1102.178204
 20
     1001.250308
 30
       19.200147
  0
POINT
  8
Default
 62
255
 10
     1102.155601
 20
     1001.247445
 30
       19.192576
  0
POINT
  8
Default
 62
255
 10
     1102.149241
 20
     1001.184301
 30
       19.130148
  0
POINT
  8
Default
 62
255
 10
     1102.166431
 20
     1001.200392
 30
       19.151426
  0
POINT
  8
Default
 62
255
 10
     1102.155869
 20
     1001.228348
 30
       19.171850
  0
POINT
  8
Default
 62
255
 10
     1102.202902
 20
     1001.277837
 30
       19.174156
  0
POINT
  8
Default
 62
255
 10
     1102.199419
 20
     1001.266705
 30
       19.147171
  0
POINT
  8
Default
 62
255
 10
     1102.210482
 20
     1001.315501
 30
       19.173680
  0
POINT
  8
Default
 62
255
 10
     1102.199947
 20
     1001.296228
 30
       19.189527
  0
POINT
  8
Default
 62
255
 10
     1102.189001
 20
     1001.284647
 30
       19.210480
  0
POINT
  8
Default
 62
255
 10
     1102.323630
 20
     1001.286718
 30
       19.094942
  0
POINT
  8
Default
 62
255
 10
     1102.288970
 20
     1001.299748
 30
       19.089376
  0
POINT
  8
Default
 62
255
 10
     1102.277739
 20
     1001.312828
 30
       19.096969
  0
POINT
  8
Default
 62
255
 10
     1102.233216
 20
     1001.321143
 30
       19.114931
  0
POINT
  8
Default
 62
255
 10
     1102.268840
 20
     1001.276786
 30
       19.114348
  0
POINT
  8
Default
 62
255
 10
     1102.263354
 20
     1001.289967
 30
       19.110534
  0
POINT
  8
Default
 62
255
 10
     1102.250966
 20
     1001.295773
 30
       19.128379
  0
POINT
  8
Default
 62
255
 10
     1102.233873
 20
     1001.309519
 30
       19.115945
  0
POINT
  8
Default
 62
255
 10
     1102.222420
 20
     1001.314573
 30
       19.138947
  0
POINT
  8
Default
 62
255
 10
     1102.256613
 20
     1001.329357
 30
       19.096051
  0
POINT
  8
Default
 62
255
 10
     1102.255807
 20
     1001.312704
 30
       19.098783
  0
POINT
  8
Default
 62
255
 10
     1102.237665
 20
     1001.349895
 30
       19.173207
  0
POINT
  8
Default
 62
255
 10
     1102.251198
 20
     1001.354800
 30
       19.172469
  0
POINT
  8
Default
 62
255
 10
     1102.238071
 20
     1001.362017
 30
       19.202400
  0
POINT
  8
Default
 62
255
 10
     1102.259449
 20
     1001.397781
 30
       19.184093
  0
POINT
  8
Default
 62
255
 10
     1102.197283
 20
     1001.307731
 30
       19.197015
  0
POINT
  8
Default
 62
255
 10
     1102.207401
 20
     1001.329829
 30
       19.215100
  0
POINT
  8
Default
 62
255
 10
     1102.226361
 20
     1001.350117
 30
       19.269178
  0
POINT
  8
Default
 62
255
 10
     1102.203065
 20
     1001.343381
 30
       19.310749
  0
POINT
  8
Default
 62
255
 10
     1102.198753
 20
     1001.354082
 30
       19.322413
  0
POINT
  8
Default
 62
255
 10
     1102.162236
 20
     1001.323304
 30
       19.313584
  0
POINT
  8
Default
 62
255
 10
     1102.175342
 20
     1001.336486
 30
       19.314605
  0
POINT
  8
Default
 62
255
 10
     1102.198254
 20
     1001.333681
 30
       19.274763
  0
POINT
  8
Default
 62
255
 10
     1102.194160
 20
     1001.316642
 30
       19.268257
  0
POINT
  8
Default
 62
255
 10
     1102.161740
 20
     1001.296405
 30
       19.280464
  0
POINT
  8
Default
 62
255
 10
     1102.185436
 20
     1001.344429
 30
       19.291866
  0
POINT
  8
Default
 62
255
 10
     1102.158872
 20
     1001.307103
 30
       19.297489
  0
POINT
  8
Default
 62
255
 10
     1102.203929
 20
     1001.331570
 30
       19.245109
  0
POINT
  8
Default
 62
255
 10
     1102.222386
 20
     1001.351308
 30
       19.204444
  0
POINT
  8
Default
 62
255
 10
     1102.243059
 20
     1001.373481
 30
       19.242459
  0
POINT
  8
Default
 62
255
 10
     1102.173499
 20
     1001.308971
 30
       19.269271
  0
POINT
  8
Default
 62
255
 10
     1102.127869
 20
     1001.250680
 30
       19.272534
  0
POINT
  8
Default
 62
255
 10
     1102.118275
 20
     1001.265775
 30
       19.294814
  0
POINT
  8
Default
 62
255
 10
     1102.126193
 20
     1001.283873
 30
       19.303659
  0
POINT
  8
Default
 62
255
 10
     1102.113943
 20
     1001.297031
 30
       19.329433
  0
POINT
  8
Default
 62
255
 10
     1102.099411
 20
     1001.237086
 30
       19.297129
  0
POINT
  8
Default
 62
255
 10
     1102.135092
 20
     1001.230836
 30
       19.205554
  0
POINT
  8
Default
 62
255
 10
     1102.131104
 20
     1001.233631
 30
       19.249970
  0
POINT
  8
Default
 62
255
 10
     1102.158905
 20
     1001.264403
 30
       19.223670
  0
POINT
  8
Default
 62
255
 10
     1102.152946
 20
     1001.259114
 30
       19.248504
  0
POINT
  8
Default
 62
255
 10
     1102.177290
 20
     1001.299838
 30
       19.221693
  0
POINT
  8
Default
 62
255
 10
     1102.162889
 20
     1001.290215
 30
       19.255022
  0
POINT
  8
Default
 62
255
 10
     1102.145163
 20
     1001.269945
 30
       19.270578
  0
POINT
  8
Default
 62
255
 10
     1102.103125
 20
     1001.188484
 30
       19.187589
  0
POINT
  8
Default
 62
255
 10
     1102.092342
 20
     1001.193027
 30
       19.265021
  0
POINT
  8
Default
 62
255
 10
     1102.106429
 20
     1001.192209
 30
       19.229932
  0
POINT
  8
Default
 62
255
 10
     1102.095479
 20
     1001.185848
 30
       19.250686
  0
POINT
  8
Default
 62
255
 10
     1102.109987
 20
     1001.217660
 30
       19.280461
  0
POINT
  8
Default
 62
255
 10
     1102.075573
 20
     1001.191786
 30
       19.299027
  0
POINT
  8
Default
 62
255
 10
     1102.086351
 20
     1001.193674
 30
       19.287251
  0
POINT
  8
Default
 62
255
 10
     1102.088710
 20
     1001.208423
 30
       19.291509
  0
POINT
  8
Default
 62
255
 10
     1102.071927
 20
     1001.211040
 30
       19.310121
  0
POINT
  8
Default
 62
255
 10
     1102.092615
 20
     1001.239996
 30
       19.310398
  0
POINT
  8
Default
 62
255
 10
     1102.083918
 20
     1001.231095
 30
       19.317328
  0
POINT
  8
Default
 62
255
 10
     1102.077230
 20
     1001.257883
 30
       19.336877
  0
POINT
  8
Default
 62
255
 10
     1102.098672
 20
     1001.259543
 30
       19.314828
  0
POINT
  8
Default
 62
255
 10
     1102.125734
 20
     1001.298062
 30
       19.321014
  0
POINT
  8
Default
 62
255
 10
     1102.129264
 20
     1001.318972
 30
       19.326683
  0
POINT
  8
Default
 62
255
 10
     1102.056754
 20
     1001.218393
 30
       19.332411
  0
POINT
  8
Default
 62
255
 10
     1102.038827
 20
     1001.216729
 30
       19.340002
  0
POINT
  8
Default
 62
255
 10
     1102.068748
 20
     1001.247693
 30
       19.336686
  0
POINT
  8
Default
 62
255
 10
     1102.040015
 20
     1001.248687
 30
       19.347946
  0
POINT
  8
Default
 62
255
 10
     1102.071088
 20
     1001.279419
 30
       19.340877
  0
POINT
  8
Default
 62
255
 10
     1102.029692
 20
     1000.951517
 30
       19.269995
  0
POINT
  8
Default
 62
255
 10
     1102.055303
 20
     1000.906874
 30
       19.209683
  0
POINT
  8
Default
 62
255
 10
     1102.074949
 20
     1000.884790
 30
       19.267229
  0
POINT
  8
Default
 62
255
 10
     1102.057053
 20
     1000.857582
 30
       19.307775
  0
POINT
  8
Default
 62
255
 10
     1102.197262
 20
     1001.011926
 30
       19.119161
  0
POINT
  8
Default
 62
255
 10
     1102.170028
 20
     1000.964925
 30
       19.120392
  0
POINT
  8
Default
 62
255
 10
     1102.153255
 20
     1000.979258
 30
       19.121039
  0
POINT
  8
Default
 62
255
 10
     1102.147333
 20
     1000.982023
 30
       19.130752
  0
POINT
  8
Default
 62
255
 10
     1102.141668
 20
     1000.988374
 30
       19.131441
  0
POINT
  8
Default
 62
255
 10
     1102.185241
 20
     1000.963244
 30
       19.119503
  0
POINT
  8
Default
 62
255
 10
     1102.214746
 20
     1000.978386
 30
       19.108846
  0
POINT
  8
Default
 62
255
 10
     1102.203610
 20
     1000.983041
 30
       19.122337
  0
POINT
  8
Default
 62
255
 10
     1102.239065
 20
     1000.981568
 30
       19.101953
  0
POINT
  8
Default
 62
255
 10
     1102.172230
 20
     1000.905218
 30
       19.106352
  0
POINT
  8
Default
 62
255
 10
     1102.189931
 20
     1000.915576
 30
       19.103403
  0
POINT
  8
Default
 62
255
 10
     1102.193507
 20
     1000.900283
 30
       19.105995
  0
POINT
  8
Default
 62
255
 10
     1102.161861
 20
     1000.953824
 30
       19.122429
  0
POINT
  8
Default
 62
255
 10
     1102.142664
 20
     1000.921936
 30
       19.110323
  0
POINT
  8
Default
 62
255
 10
     1102.119663
 20
     1000.907272
 30
       19.128357
  0
POINT
  8
Default
 62
255
 10
     1102.126235
 20
     1000.947666
 30
       19.114316
  0
POINT
  8
Default
 62
255
 10
     1102.113230
 20
     1000.955037
 30
       19.113929
  0
POINT
  8
Default
 62
255
 10
     1102.084373
 20
     1000.955964
 30
       19.122947
  0
POINT
  8
Default
 62
255
 10
     1102.076811
 20
     1000.941224
 30
       19.132649
  0
POINT
  8
Default
 62
255
 10
     1102.093055
 20
     1000.934221
 30
       19.126084
  0
POINT
  8
Default
 62
255
 10
     1102.095312
 20
     1000.909594
 30
       19.153121
  0
POINT
  8
Default
 62
255
 10
     1102.115858
 20
     1000.888903
 30
       19.173497
  0
POINT
  8
Default
 62
255
 10
     1102.066751
 20
     1000.938293
 30
       19.140087
  0
POINT
  8
Default
 62
255
 10
     1102.074451
 20
     1000.912829
 30
       19.153580
  0
POINT
  8
Default
 62
255
 10
     1102.152662
 20
     1000.869754
 30
       19.145076
  0
POINT
  8
Default
 62
255
 10
     1102.194746
 20
     1000.879976
 30
       19.121275
  0
POINT
  8
Default
 62
255
 10
     1102.169673
 20
     1000.894539
 30
       19.114553
  0
POINT
  8
Default
 62
255
 10
     1102.170291
 20
     1000.884241
 30
       19.124744
  0
POINT
  8
Default
 62
255
 10
     1102.145009
 20
     1000.894588
 30
       19.120041
  0
POINT
  8
Default
 62
255
 10
     1102.196401
 20
     1000.856719
 30
       19.122892
  0
POINT
  8
Default
 62
255
 10
     1102.190043
 20
     1000.842227
 30
       19.149430
  0
POINT
  8
Default
 62
255
 10
     1102.161743
 20
     1000.855180
 30
       19.154449
  0
POINT
  8
Default
 62
255
 10
     1102.173322
 20
     1000.841275
 30
       19.156130
  0
POINT
  8
Default
 62
255
 10
     1102.123591
 20
     1000.882130
 30
       19.224021
  0
POINT
  8
Default
 62
255
 10
     1102.129549
 20
     1000.861458
 30
       19.225286
  0
POINT
  8
Default
 62
255
 10
     1102.247294
 20
     1000.832013
 30
       19.109505
  0
POINT
  8
Default
 62
255
 10
     1102.277527
 20
     1000.842008
 30
       19.109508
  0
POINT
  8
Default
 62
255
 10
     1102.280040
 20
     1000.815129
 30
       19.106742
  0
POINT
  8
Default
 62
255
 10
     1102.265885
 20
     1000.810808
 30
       19.122307
  0
POINT
  8
Default
 62
255
 10
     1102.258154
 20
     1000.816830
 30
       19.124516
  0
POINT
  8
Default
 62
255
 10
     1102.250254
 20
     1000.804147
 30
       19.129096
  0
POINT
  8
Default
 62
255
 10
     1102.254378
 20
     1000.789243
 30
       19.136538
  0
POINT
  8
Default
 62
255
 10
     1102.232865
 20
     1000.810623
 30
       19.136590
  0
POINT
  8
Default
 62
255
 10
     1102.204872
 20
     1000.807036
 30
       19.173406
  0
POINT
  8
Default
 62
255
 10
     1102.208835
 20
     1000.834353
 30
       19.142304
  0
POINT
  8
Default
 62
255
 10
     1102.224862
 20
     1000.826048
 30
       19.130843
  0
POINT
  8
Default
 62
255
 10
     1102.272572
 20
     1000.769850
 30
       19.157343
  0
POINT
  8
Default
 62
255
 10
     1102.073099
 20
     1000.875991
 30
       19.222120
  0
POINT
  8
Default
 62
255
 10
     1102.093598
 20
     1000.887634
 30
       19.203785
  0
POINT
  8
Default
 62
255
 10
     1102.096697
 20
     1000.896062
 30
       19.168858
  0
POINT
  8
Default
 62
255
 10
     1102.134505
 20
     1000.855735
 30
       19.277238
  0
POINT
  8
Default
 62
255
 10
     1102.152881
 20
     1000.856693
 30
       19.263985
  0
POINT
  8
Default
 62
255
 10
     1102.145393
 20
     1000.862685
 30
       19.163927
  0
POINT
  8
Default
 62
255
 10
     1102.176655
 20
     1000.823260
 30
       19.167604
  0
POINT
  8
Default
 62
255
 10
     1102.175597
 20
     1000.860443
 30
       19.136634
  0
POINT
  8
Default
 62
255
 10
     1102.146557
 20
     1000.884237
 30
       19.134496
  0
POINT
  8
Default
 62
255
 10
     1102.097204
 20
     1000.878899
 30
       19.214156
  0
POINT
  8
Default
 62
255
 10
     1102.129851
 20
     1000.886199
 30
       19.145034
  0
POINT
  8
Default
 62
255
 10
     1102.261092
 20
     1000.851089
 30
       19.112185
  0
POINT
  8
Default
 62
255
 10
     1102.346609
 20
     1000.720050
 30
       19.220357
  0
POINT
  8
Default
 62
255
 10
     1102.349446
 20
     1000.721792
 30
       19.255768
  0
POINT
  8
Default
 62
255
 10
     1102.304725
 20
     1000.743006
 30
       19.258189
  0
POINT
  8
Default
 62
255
 10
     1102.304851
 20
     1000.764928
 30
       19.231543
  0
POINT
  8
Default
 62
255
 10
     1102.349453
 20
     1000.720144
 30
       19.204268
  0
POINT
  8
Default
 62
255
 10
     1102.304187
 20
     1000.755653
 30
       19.140025
  0
POINT
  8
Default
 62
255
 10
     1102.240863
 20
     1000.790066
 30
       19.246601
  0
POINT
  8
Default
 62
255
 10
     1102.295739
 20
     1000.754112
 30
       19.250760
  0
POINT
  8
Default
 62
255
 10
     1102.317406
 20
     1000.748373
 30
       19.216277
  0
POINT
  8
Default
 62
255
 10
     1102.295667
 20
     1000.763574
 30
       19.136385
  0
POINT
  8
Default
 62
255
 10
     1102.352124
 20
     1000.714066
 30
       19.188843
  0
POINT
  8
Default
 62
255
 10
     1102.333160
 20
     1000.714114
 30
       19.266655
  0
POINT
  8
Default
 62
255
 10
     1102.304125
 20
     1000.700904
 30
       19.283268
  0
POINT
  8
Default
 62
255
 10
     1102.274234
 20
     1000.760511
 30
       19.284518
  0
POINT
  8
Default
 62
255
 10
     1102.278181
 20
     1000.724804
 30
       19.288294
  0
POINT
  8
Default
 62
255
 10
     1102.391018
 20
     1000.683499
 30
       19.245867
  0
POINT
  8
Default
 62
255
 10
     1102.421127
 20
     1000.636565
 30
       19.257587
  0
POINT
  8
Default
 62
255
 10
     1102.402770
 20
     1000.638873
 30
       19.263003
  0
POINT
  8
Default
 62
255
 10
     1102.428942
 20
     1000.643262
 30
       19.136560
  0
POINT
  8
Default
 62
255
 10
     1102.399614
 20
     1000.667179
 30
       19.183201
  0
POINT
  8
Default
 62
255
 10
     1102.370567
 20
     1000.710140
 30
       19.167689
  0
POINT
  8
Default
 62
255
 10
     1102.489485
 20
     1000.601335
 30
       19.142375
  0
POINT
  8
Default
 62
255
 10
     1102.478850
 20
     1000.605232
 30
       19.134209
  0
POINT
  8
Default
 62
255
 10
     1102.463671
 20
     1000.617852
 30
       19.152946
  0
POINT
  8
Default
 62
255
 10
     1102.498299
 20
     1000.583989
 30
       19.167878
  0
POINT
  8
Default
 62
255
 10
     1102.470385
 20
     1000.567547
 30
       19.290240
  0
POINT
  8
Default
 62
255
 10
     1102.464372
 20
     1000.606841
 30
       19.270986
  0
POINT
  8
Default
 62
255
 10
     1102.476625
 20
     1000.605887
 30
       19.244780
  0
POINT
  8
Default
 62
255
 10
     1102.430078
 20
     1000.625504
 30
       19.265779
  0
POINT
  8
Default
 62
255
 10
     1102.461176
 20
     1000.616907
 30
       19.252671
  0
POINT
  8
Default
 62
255
 10
     1102.523117
 20
     1000.575209
 30
       19.253000
  0
POINT
  8
Default
 62
255
 10
     1102.486352
 20
     1000.597196
 30
       19.267931
  0
POINT
  8
Default
 62
255
 10
     1102.443665
 20
     1001.717232
 30
       19.302515
  0
POINT
  8
Default
 62
255
 10
     1102.455999
 20
     1001.711150
 30
       19.274343
  0
POINT
  8
Default
 62
255
 10
     1102.435350
 20
     1001.733002
 30
       19.313039
  0
POINT
  8
Default
 62
255
 10
     1102.409510
 20
     1001.718509
 30
       19.320590
  0
POINT
  8
Default
 62
255
 10
     1102.451046
 20
     1001.763193
 30
       19.312487
  0
POINT
  8
Default
 62
255
 10
     1102.460412
 20
     1001.759017
 30
       19.306003
  0
POINT
  8
Default
 62
255
 10
     1102.462561
 20
     1001.720512
 30
       19.293855
  0
POINT
  8
Default
 62
255
 10
     1102.464326
 20
     1001.754274
 30
       19.300831
  0
POINT
  8
Default
 62
255
 10
     1102.435721
 20
     1001.755166
 30
       19.322820
  0
POINT
  8
Default
 62
255
 10
     1102.440459
 20
     1001.765471
 30
       19.319238
  0
POINT
  8
Default
 62
255
 10
     1102.415793
 20
     1001.736052
 30
       19.323502
  0
POINT
  8
Default
 62
255
 10
     1102.421341
 20
     1001.727741
 30
       19.317605
  0
POINT
  8
Default
 62
255
 10
     1102.422388
 20
     1001.753026
 30
       19.324865
  0
POINT
  8
Default
 62
255
 10
     1102.402719
 20
     1001.751396
 30
       19.324934
  0
POINT
  8
Default
 62
255
 10
     1102.367090
 20
     1001.746496
 30
       19.326545
  0
POINT
  8
Default
 62
255
 10
     1102.354985
 20
     1001.741744
 30
       19.327557
  0
POINT
  8
Default
 62
255
 10
     1102.382639
 20
     1001.773528
 30
       19.322921
  0
POINT
  8
Default
 62
255
 10
     1102.393591
 20
     1001.772325
 30
       19.322983
  0
POINT
  8
Default
 62
255
 10
     1102.394663
 20
     1001.736545
 30
       19.324012
  0
POINT
  8
Default
 62
255
 10
     1102.406875
 20
     1001.746968
 30
       19.324528
  0
POINT
  8
Default
 62
255
 10
     1102.425280
 20
     1001.772901
 30
       19.322242
  0
POINT
  8
Default
 62
255
 10
     1102.407469
 20
     1001.771397
 30
       19.323520
  0
POINT
  8
Default
 62
255
 10
     1102.353017
 20
     1001.775212
 30
       19.346185
  0
POINT
  8
Default
 62
255
 10
     1102.360466
 20
     1001.757861
 30
       19.342584
  0
POINT
  8
Default
 62
255
 10
     1102.359027
 20
     1001.787357
 30
       19.331969
  0
POINT
  8
Default
 62
255
 10
     1102.353974
 20
     1001.797129
 30
       19.321133
  0
POINT
  8
Default
 62
255
 10
     1102.382612
 20
     1001.784966
 30
       19.320392
  0
POINT
  8
Default
 62
255
 10
     1102.421057
 20
     1001.787315
 30
       19.321584
  0
POINT
  8
Default
 62
255
 10
     1102.497186
 20
     1001.774131
 30
       19.292815
  0
POINT
  8
Default
 62
255
 10
     1102.461501
 20
     1001.791461
 30
       19.318675
  0
POINT
  8
Default
 62
255
 10
     1102.437441
 20
     1001.791470
 30
       19.321873
  0
POINT
  8
Default
 62
255
 10
     1102.444986
 20
     1001.782752
 30
       19.320552
  0
POINT
  8
Default
 62
255
 10
     1102.475671
 20
     1001.810081
 30
       19.319831
  0
POINT
  8
Default
 62
255
 10
     1102.480488
 20
     1001.772447
 30
       19.294870
  0
POINT
  8
Default
 62
255
 10
     1102.487478
 20
     1001.811630
 30
       19.316580
  0
POINT
  8
Default
 62
255
 10
     1102.420390
 20
     1001.825700
 30
       19.324328
  0
POINT
  8
Default
 62
255
 10
     1102.433423
 20
     1001.803483
 30
       19.322450
  0
POINT
  8
Default
 62
255
 10
     1102.408577
 20
     1001.800125
 30
       19.321327
  0
POINT
  8
Default
 62
255
 10
     1102.460583
 20
     1001.812596
 30
       19.323460
  0
POINT
  8
Default
 62
255
 10
     1102.461296
 20
     1001.829092
 30
       19.325958
  0
POINT
  8
Default
 62
255
 10
     1102.482101
 20
     1001.824242
 30
       19.317796
  0
POINT
  8
Default
 62
255
 10
     1102.485781
 20
     1001.839835
 30
       19.323957
  0
POINT
  8
Default
 62
255
 10
     1102.448971
 20
     1001.866758
 30
       19.322949
  0
POINT
  8
Default
 62
255
 10
     1102.461831
 20
     1001.844841
 30
       19.326983
  0
POINT
  8
Default
 62
255
 10
     1102.468973
 20
     1001.836946
 30
       19.326120
  0
POINT
  8
Default
 62
255
 10
     1102.494954
 20
     1001.837601
 30
       19.319324
  0
POINT
  8
Default
 62
255
 10
     1102.490370
 20
     1001.856607
 30
       19.324863
  0
POINT
  8
Default
 62
255
 10
     1102.480227
 20
     1001.881786
 30
       19.327412
  0
POINT
  8
Default
 62
255
 10
     1102.465273
 20
     1001.873334
 30
       19.324146
  0
POINT
  8
Default
 62
255
 10
     1102.501354
 20
     1001.861200
 30
       19.322636
  0
POINT
  8
Default
 62
255
 10
     1102.507985
 20
     1001.877849
 30
       19.326403
  0
POINT
  8
Default
 62
255
 10
     1102.532751
 20
     1001.851501
 30
       19.306246
  0
POINT
  8
Default
 62
255
 10
     1102.538102
 20
     1001.867654
 30
       19.310537
  0
POINT
  8
Default
 62
255
 10
     1102.518175
 20
     1001.883378
 30
       19.322873
  0
POINT
  8
Default
 62
255
 10
     1102.524081
 20
     1001.860896
 30
       19.314038
  0
POINT
  8
Default
 62
255
 10
     1102.507922
 20
     1001.852562
 30
       19.312379
  0
POINT
  8
Default
 62
255
 10
     1102.549658
 20
     1001.889583
 30
       19.317319
  0
POINT
  8
Default
 62
255
 10
     1102.564159
 20
     1001.888348
 30
       19.308747
  0
POINT
  8
Default
 62
255
 10
     1102.559447
 20
     1001.873512
 30
       19.302725
  0
POINT
  8
Default
 62
255
 10
     1102.529472
 20
     1001.885768
 30
       19.323030
  0
POINT
  8
Default
 62
255
 10
     1102.519488
 20
     1001.893688
 30
       19.325755
  0
POINT
  8
Default
 62
255
 10
     1102.493188
 20
     1001.892003
 30
       19.324994
  0
POINT
  8
Default
 62
255
 10
     1102.509414
 20
     1001.897068
 30
       19.328581
  0
POINT
  8
Default
 62
255
 10
     1102.529671
 20
     1001.905334
 30
       19.326947
  0
POINT
  8
Default
 62
255
 10
     1102.539441
 20
     1001.897256
 30
       19.326023
  0
POINT
  8
Default
 62
255
 10
     1102.581604
 20
     1001.876931
 30
       19.296196
  0
POINT
  8
Default
 62
255
 10
     1102.581833
 20
     1001.895324
 30
       19.308186
  0
POINT
  8
Default
 62
255
 10
     1102.567691
 20
     1001.903983
 30
       19.313957
  0
POINT
  8
Default
 62
255
 10
     1102.583009
 20
     1001.918642
 30
       19.318107
  0
POINT
  8
Default
 62
255
 10
     1102.592855
 20
     1001.908995
 30
       19.306360
  0
POINT
  8
Default
 62
255
 10
     1102.562678
 20
     1001.916603
 30
       19.322987
  0
POINT
  8
Default
 62
255
 10
     1102.547398
 20
     1001.920944
 30
       19.329017
  0
POINT
  8
Default
 62
255
 10
     1102.529344
 20
     1001.934106
 30
       19.330272
  0
POINT
  8
Default
 62
255
 10
     1102.562024
 20
     1001.939178
 30
       19.334009
  0
POINT
  8
Default
 62
255
 10
     1102.594424
 20
     1001.933764
 30
       19.316843
  0
POINT
  8
Default
 62
255
 10
     1102.571061
 20
     1001.965412
 30
       19.337816
  0
POINT
  8
Default
 62
255
 10
     1102.573165
 20
     1001.947972
 30
       19.334816
  0
POINT
  8
Default
 62
255
 10
     1102.589874
 20
     1001.946906
 30
       19.324235
  0
POINT
  8
Default
 62
255
 10
     1102.619540
 20
     1001.939446
 30
       19.312399
  0
POINT
  8
Default
 62
255
 10
     1102.609688
 20
     1001.932167
 30
       19.309378
  0
POINT
  8
Default
 62
255
 10
     1102.636323
 20
     1001.913390
 30
       19.300304
  0
POINT
  8
Default
 62
255
 10
     1102.313389
 20
     1001.756654
 30
       19.327306
  0
POINT
  8
Default
 62
255
 10
     1102.323679
 20
     1001.741729
 30
       19.325590
  0
POINT
  8
Default
 62
255
 10
     1102.328611
 20
     1001.720681
 30
       19.327899
  0
POINT
  8
Default
 62
255
 10
     1102.331519
 20
     1001.732788
 30
       19.326080
  0
POINT
  8
Default
 62
255
 10
     1102.300986
 20
     1001.728100
 30
       19.327421
  0
POINT
  8
Default
 62
255
 10
     1102.316480
 20
     1001.730957
 30
       19.325264
  0
POINT
  8
Default
 62
255
 10
     1102.296440
 20
     1001.707004
 30
       19.332124
  0
POINT
  8
Default
 62
255
 10
     1102.307231
 20
     1001.707713
 30
       19.328736
  0
POINT
  8
Default
 62
255
 10
     1102.291552
 20
     1001.686160
 30
       19.334677
  0
POINT
  8
Default
 62
255
 10
     1102.313407
 20
     1001.678480
 30
       19.331974
  0
POINT
  8
Default
 62
255
 10
     1102.311951
 20
     1001.689397
 30
       19.331806
  0
POINT
  8
Default
 62
255
 10
     1102.340709
 20
     1001.713643
 30
       19.327783
  0
POINT
  8
Default
 62
255
 10
     1102.322734
 20
     1001.699760
 30
       19.330506
  0
POINT
  8
Default
 62
255
 10
     1102.374881
 20
     1001.718437
 30
       19.328947
  0
POINT
  8
Default
 62
255
 10
     1102.359046
 20
     1001.720594
 30
       19.329291
  0
POINT
  8
Default
 62
255
 10
     1102.346048
 20
     1001.728994
 30
       19.326880
  0
POINT
  8
Default
 62
255
 10
     1102.346086
 20
     1001.702727
 30
       19.332334
  0
POINT
  8
Default
 62
255
 10
     1102.315875
 20
     1001.662051
 30
       19.334037
  0
POINT
  8
Default
 62
255
 10
     1102.320186
 20
     1001.637668
 30
       19.339585
  0
POINT
  8
Default
 62
255
 10
     1102.349171
 20
     1001.632036
 30
       19.330289
  0
POINT
  8
Default
 62
255
 10
     1102.361298
 20
     1001.667425
 30
       19.333678
  0
POINT
  8
Default
 62
255
 10
     1102.356368
 20
     1001.652544
 30
       19.331024
  0
POINT
  8
Default
 62
255
 10
     1102.361573
 20
     1001.615230
 30
       19.316398
  0
POINT
  8
Default
 62
255
 10
     1102.360426
 20
     1001.599289
 30
       19.316146
  0
POINT
  8
Default
 62
255
 10
     1102.374070
 20
     1001.636263
 30
       19.317975
  0
POINT
  8
Default
 62
255
 10
     1102.389148
 20
     1001.638970
 30
       19.304673
  0
POINT
  8
Default
 62
255
 10
     1102.368568
 20
     1001.634754
 30
       19.325731
  0
POINT
  8
Default
 62
255
 10
     1102.375337
 20
     1001.677133
 30
       19.332188
  0
POINT
  8
Default
 62
255
 10
     1102.352038
 20
     1001.689002
 30
       19.330798
  0
POINT
  8
Default
 62
255
 10
     1102.339715
 20
     1001.660595
 30
       19.335280
  0
POINT
  8
Default
 62
255
 10
     1102.340904
 20
     1001.647517
 30
       19.334563
  0
POINT
  8
Default
 62
255
 10
     1102.286384
 20
     1001.643074
 30
       19.338145
  0
POINT
  8
Default
 62
255
 10
     1102.298678
 20
     1001.652029
 30
       19.335252
  0
POINT
  8
Default
 62
255
 10
     1102.415126
 20
     1001.699473
 30
       19.306253
  0
POINT
  8
Default
 62
255
 10
     1102.389797
 20
     1001.707607
 30
       19.326971
  0
POINT
  8
Default
 62
255
 10
     1102.393998
 20
     1001.688036
 30
       19.322277
  0
POINT
  8
Default
 62
255
 10
     1102.378529
 20
     1001.686878
 30
       19.328981
  0
POINT
  8
Default
 62
255
 10
     1102.379380
 20
     1001.701345
 30
       19.326134
  0
POINT
  8
Default
 62
255
 10
     1102.353909
 20
     1001.705878
 30
       19.326485
  0
POINT
  8
Default
 62
255
 10
     1102.419939
 20
     1001.691291
 30
       19.294598
  0
POINT
  8
Default
 62
255
 10
     1102.428663
 20
     1001.676412
 30
       19.289639
  0
POINT
  8
Default
 62
255
 10
     1102.401985
 20
     1001.651578
 30
       19.299656
  0
POINT
  8
Default
 62
255
 10
     1102.401979
 20
     1001.670923
 30
       19.305471
  0
POINT
  8
Default
 62
255
 10
     1102.302061
 20
     1001.573667
 30
       19.332614
  0
POINT
  8
Default
 62
255
 10
     1102.210344
 20
     1001.557079
 30
       19.351580
  0
POINT
  8
Default
 62
255
 10
     1102.221984
 20
     1001.590521
 30
       19.338032
  0
POINT
  8
Default
 62
255
 10
     1102.244248
 20
     1001.644165
 30
       19.335470
  0
POINT
  8
Default
 62
255
 10
     1102.246367
 20
     1001.666949
 30
       19.334645
  0
POINT
  8
Default
 62
255
 10
     1102.236978
 20
     1001.629479
 30
       19.336194
  0
POINT
  8
Default
 62
255
 10
     1102.260427
 20
     1001.618459
 30
       19.340431
  0
POINT
  8
Default
 62
255
 10
     1102.277007
 20
     1001.609071
 30
       19.336829
  0
POINT
  8
Default
 62
255
 10
     1102.302042
 20
     1001.617324
 30
       19.339190
  0
POINT
  8
Default
 62
255
 10
     1102.285176
 20
     1001.624259
 30
       19.338263
  0
POINT
  8
Default
 62
255
 10
     1102.320158
 20
     1001.620867
 30
       19.337226
  0
POINT
  8
Default
 62
255
 10
     1102.330570
 20
     1001.585645
 30
       19.328196
  0
POINT
  8
Default
 62
255
 10
     1102.287176
 20
     1001.578868
 30
       19.340652
  0
POINT
  8
Default
 62
255
 10
     1102.249149
 20
     1001.587637
 30
       19.360456
  0
POINT
  8
Default
 62
255
 10
     1102.240447
 20
     1001.552781
 30
       19.356097
  0
POINT
  8
Default
 62
255
 10
     1102.224108
 20
     1001.556324
 30
       19.357408
  0
POINT
  8
Default
 62
255
 10
     1102.255037
 20
     1001.569562
 30
       19.357486
  0
POINT
  8
Default
 62
255
 10
     1102.262297
 20
     1001.607661
 30
       19.359180
  0
POINT
  8
Default
 62
255
 10
     1102.276315
 20
     1001.572717
 30
       19.340233
  0
POINT
  8
Default
 62
255
 10
     1102.290674
 20
     1001.547432
 30
       19.327617
  0
POINT
  8
Default
 62
255
 10
     1102.314962
 20
     1001.564021
 30
       19.318312
  0
POINT
  8
Default
 62
255
 10
     1102.264829
 20
     1001.669799
 30
       19.333970
  0
POINT
  8
Default
 62
255
 10
     1102.325154
 20
     1001.564017
 30
       19.313282
  0
POINT
  8
Default
 62
255
 10
     1102.349697
 20
     1001.569020
 30
       19.322691
  0
POINT
  8
Default
 62
255
 10
     1102.212120
 20
     1001.483610
 30
       19.341563
  0
POINT
  8
Default
 62
255
 10
     1102.234798
 20
     1001.464061
 30
       19.338705
  0
POINT
  8
Default
 62
255
 10
     1102.256263
 20
     1001.480857
 30
       19.335769
  0
POINT
  8
Default
 62
255
 10
     1102.282426
 20
     1001.496266
 30
       19.322355
  0
POINT
  8
Default
 62
255
 10
     1102.279522
 20
     1001.513215
 30
       19.328275
  0
POINT
  8
Default
 62
255
 10
     1102.266040
 20
     1001.516481
 30
       19.338052
  0
POINT
  8
Default
 62
255
 10
     1102.242077
 20
     1001.541692
 30
       19.335064
  0
POINT
  8
Default
 62
255
 10
     1102.264193
 20
     1001.540391
 30
       19.339099
  0
POINT
  8
Default
 62
255
 10
     1102.273621
 20
     1001.532970
 30
       19.334835
  0
POINT
  8
Default
 62
255
 10
     1102.152529
 20
     1001.497866
 30
       19.345743
  0
POINT
  8
Default
 62
255
 10
     1102.175787
 20
     1001.501037
 30
       19.341207
  0
POINT
  8
Default
 62
255
 10
     1102.190572
 20
     1001.517987
 30
       19.341354
  0
POINT
  8
Default
 62
255
 10
     1102.211016
 20
     1001.457332
 30
       19.345587
  0
POINT
  8
Default
 62
255
 10
     1102.190297
 20
     1001.467552
 30
       19.344486
  0
POINT
  8
Default
 62
255
 10
     1102.222436
 20
     1001.489796
 30
       19.347779
  0
POINT
  8
Default
 62
255
 10
     1102.226528
 20
     1001.483750
 30
       19.352140
  0
POINT
  8
Default
 62
255
 10
     1102.238590
 20
     1001.478542
 30
       19.344960
  0
POINT
  8
Default
 62
255
 10
     1102.247248
 20
     1001.512184
 30
       19.343841
  0
POINT
  8
Default
 62
255
 10
     1102.254010
 20
     1001.501463
 30
       19.343741
  0
POINT
  8
Default
 62
255
 10
     1102.269735
 20
     1001.499668
 30
       19.328231
  0
POINT
  8
Default
 62
255
 10
     1102.220762
 20
     1001.540950
 30
       19.339197
  0
POINT
  8
Default
 62
255
 10
     1102.208896
 20
     1001.537663
 30
       19.339026
  0
POINT
  8
Default
 62
255
 10
     1102.214574
 20
     1001.523066
 30
       19.341032
  0
POINT
  8
Default
 62
255
 10
     1102.228493
 20
     1001.513686
 30
       19.343502
  0
POINT
  8
Default
 62
255
 10
     1102.258662
 20
     1001.468184
 30
       19.330508
  0
POINT
  8
Default
 62
255
 10
     1102.191491
 20
     1001.563635
 30
       19.340274
  0
POINT
  8
Default
 62
255
 10
     1102.167992
 20
     1001.463261
 30
       19.348112
  0
POINT
  8
Default
 62
255
 10
     1102.200165
 20
     1001.379653
 30
       19.322957
  0
POINT
  8
Default
 62
255
 10
     1102.217409
 20
     1001.398017
 30
       19.316780
  0
POINT
  8
Default
 62
255
 10
     1102.186683
 20
     1001.385487
 30
       19.334756
  0
POINT
  8
Default
 62
255
 10
     1102.192598
 20
     1001.454596
 30
       19.340455
  0
POINT
  8
Default
 62
255
 10
     1102.110050
 20
     1001.441414
 30
       19.341014
  0
POINT
  8
Default
 62
255
 10
     1102.106651
 20
     1001.428398
 30
       19.357605
  0
POINT
  8
Default
 62
255
 10
     1102.129667
 20
     1001.462402
 30
       19.345185
  0
POINT
  8
Default
 62
255
 10
     1102.136674
 20
     1001.485468
 30
       19.343088
  0
POINT
  8
Default
 62
255
 10
     1102.144487
 20
     1001.445566
 30
       19.341036
  0
POINT
  8
Default
 62
255
 10
     1102.148010
 20
     1001.426357
 30
       19.342519
  0
POINT
  8
Default
 62
255
 10
     1102.158548
 20
     1001.404563
 30
       19.340088
  0
POINT
  8
Default
 62
255
 10
     1102.169554
 20
     1001.427613
 30
       19.341787
  0
POINT
  8
Default
 62
255
 10
     1102.142130
 20
     1001.402048
 30
       19.340168
  0
POINT
  8
Default
 62
255
 10
     1102.196707
 20
     1001.423589
 30
       19.340558
  0
POINT
  8
Default
 62
255
 10
     1102.181497
 20
     1001.412791
 30
       19.339160
  0
POINT
  8
Default
 62
255
 10
     1102.185194
 20
     1001.429982
 30
       19.342156
  0
POINT
  8
Default
 62
255
 10
     1102.212184
 20
     1001.447189
 30
       19.343358
  0
POINT
  8
Default
 62
255
 10
     1102.199228
 20
     1001.412536
 30
       19.335625
  0
POINT
  8
Default
 62
255
 10
     1102.211672
 20
     1001.422617
 30
       19.340018
  0
POINT
  8
Default
 62
255
 10
     1102.234590
 20
     1001.430836
 30
       19.328718
  0
POINT
  8
Default
 62
255
 10
     1102.244555
 20
     1001.442406
 30
       19.324170
  0
POINT
  8
Default
 62
255
 10
     1102.089513
 20
     1001.339104
 30
       19.342160
  0
POINT
  8
Default
 62
255
 10
     1102.041674
 20
     1001.304528
 30
       19.341921
  0
POINT
  8
Default
 62
255
 10
     1102.172063
 20
     1001.356735
 30
       19.331626
  0
POINT
  8
Default
 62
255
 10
     1102.137798
 20
     1001.329972
 30
       19.330087
  0
POINT
  8
Default
 62
255
 10
     1102.144308
 20
     1001.344595
 30
       19.333346
  0
POINT
  8
Default
 62
255
 10
     1102.164266
 20
     1001.346716
 30
       19.328057
  0
POINT
  8
Default
 62
255
 10
     1102.162927
 20
     1001.369007
 30
       19.337369
  0
POINT
  8
Default
 62
255
 10
     1102.119358
 20
     1001.361471
 30
       19.336648
  0
POINT
  8
Default
 62
255
 10
     1102.108997
 20
     1001.346061
 30
       19.339862
  0
POINT
  8
Default
 62
255
 10
     1102.062580
 20
     1001.344452
 30
       19.340656
  0
POINT
  8
Default
 62
255
 10
     1102.073619
 20
     1001.364653
 30
       19.341280
  0
POINT
  8
Default
 62
255
 10
     1102.056901
 20
     1001.363901
 30
       19.341186
  0
POINT
  8
Default
 62
255
 10
     1102.073789
 20
     1001.381793
 30
       19.339343
  0
POINT
  8
Default
 62
255
 10
     1102.119467
 20
     1001.377678
 30
       19.337711
  0
POINT
  8
Default
 62
255
 10
     1102.096815
 20
     1001.374027
 30
       19.339041
  0
POINT
  8
Default
 62
255
 10
     1102.136133
 20
     1001.372783
 30
       19.339751
  0
POINT
  8
Default
 62
255
 10
     1102.091331
 20
     1001.313149
 30
       19.340483
  0
POINT
  8
Default
 62
255
 10
     1102.067470
 20
     1001.317178
 30
       19.341244
  0
POINT
  8
Default
 62
255
 10
     1102.045000
 20
     1001.288705
 30
       19.342517
  0
POINT
  8
Default
 62
255
 10
     1102.032208
 20
     1001.228280
 30
       19.346011
  0
POINT
  8
Default
 62
255
 10
     1102.073371
 20
     1001.268079
 30
       19.339590
  0
POINT
  8
Default
 62
255
 10
     1102.049175
 20
     1001.264922
 30
       19.339743
  0
POINT
  8
Default
 62
255
 10
     1102.001197
 20
     1001.268986
 30
       19.348457
  0
POINT
  8
Default
 62
255
 10
     1102.035393
 20
     1001.260439
 30
       19.342345
  0
POINT
  8
Default
 62
255
 10
     1102.096426
 20
     1001.275210
 30
       19.334617
  0
POINT
  8
Default
 62
255
 10
     1101.990203
 20
     1001.206062
 30
       19.349561
  0
POINT
  8
Default
 62
255
 10
     1101.967648
 20
     1001.193680
 30
       19.350921
  0
POINT
  8
Default
 62
255
 10
     1102.011577
 20
     1001.194331
 30
       19.347287
  0
POINT
  8
Default
 62
255
 10
     1102.030153
 20
     1001.142049
 30
       19.331461
  0
POINT
  8
Default
 62
255
 10
     1102.040781
 20
     1001.144748
 30
       19.311096
  0
POINT
  8
Default
 62
255
 10
     1102.012874
 20
     1001.152094
 30
       19.342499
  0
POINT
  8
Default
 62
255
 10
     1101.994469
 20
     1001.168925
 30
       19.348289
  0
POINT
  8
Default
 62
255
 10
     1102.046695
 20
     1001.179726
 30
       19.324756
  0
POINT
  8
Default
 62
255
 10
     1102.061133
 20
     1001.168024
 30
       19.299695
  0
POINT
  8
Default
 62
255
 10
     1102.022334
 20
     1001.185283
 30
       19.346803
  0
POINT
  8
Default
 62
255
 10
     1101.992638
 20
     1001.182084
 30
       19.347894
  0
POINT
  8
Default
 62
255
 10
     1101.977002
 20
     1001.171005
 30
       19.349153
  0
POINT
  8
Default
 62
255
 10
     1101.997389
 20
     1001.153845
 30
       19.345292
  0
POINT
  8
Default
 62
255
 10
     1101.990516
 20
     1001.131370
 30
       19.347330
  0
POINT
  8
Default
 62
255
 10
     1103.170857
 20
     1001.412570
 30
       19.275536
  0
POINT
  8
Default
 62
255
 10
     1103.157075
 20
     1001.347330
 30
       19.265288
  0
POINT
  8
Default
 62
255
 10
     1102.818096
 20
     1001.526975
 30
       19.170795
  0
POINT
  8
Default
 62
255
 10
     1102.911953
 20
     1001.469616
 30
       19.197221
  0
POINT
  8
Default
 62
255
 10
     1102.901310
 20
     1001.475719
 30
       19.193442
  0
POINT
  8
Default
 62
255
 10
     1102.858830
 20
     1001.510785
 30
       19.159468
  0
POINT
  8
Default
 62
255
 10
     1102.860194
 20
     1001.519190
 30
       19.220777
  0
LINE
  8
Default
 62
255
 10
     1103.157075
 20
     1001.347330
 30
       19.265288
 11
     1103.119490
 21
     1001.379957
 31
       19.286789
  0
LINE
  8
Default
 62
255
 10
     1103.119490
 20
     1001.379957
 30
       19.286789
 11
     1103.097204
 21
     1001.404395
 31
       19.289235
  0
LINE
  8
Default
 62
255
 10
     1103.097204
 20
     1001.404395
 30
       19.289235
 11
     1103.079117
 21
     1001.407211
 31
       19.276972
  0
LINE
  8
Default
 62
255
 10
     1103.079117
 20
     1001.407211
 30
       19.276972
 11
     1103.053023
 21
     1001.416291
 31
       19.267166
  0
LINE
  8
Default
 62
255
 10
     1103.053023
 20
     1001.416291
 30
       19.267166
 11
     1103.035416
 21
     1001.424621
 31
       19.270170
  0
LINE
  8
Default
 62
255
 10
     1103.035416
 20
     1001.424621
 30
       19.270170
 11
     1102.961024
 21
     1001.465058
 31
       19.263023
  0
LINE
  8
Default
 62
255
 10
     1102.961024
 20
     1001.465058
 30
       19.263023
 11
     1102.951516
 21
     1001.484226
 31
       19.268446
  0
LINE
  8
Default
 62
255
 10
     1102.951516
 20
     1001.484226
 30
       19.268446
 11
     1102.894907
 21
     1001.528486
 31
       19.253235
  0
LINE
  8
Default
 62
255
 10
     1102.894907
 20
     1001.528486
 30
       19.253235
 11
     1102.867386
 21
     1001.528327
 31
       19.245279
  0
LINE
  8
Default
 62
255
 10
     1102.867386
 20
     1001.528327
 30
       19.245279
 11
     1102.854529
 21
     1001.542156
 31
       19.252351
  0
LINE
  8
Default
 62
255
 10
     1102.854529
 20
     1001.542156
 30
       19.252351
 11
     1102.836840
 21
     1001.557685
 31
       19.262933
  0
LINE
  8
Default
 62
255
 10
     1102.836840
 20
     1001.557685
 30
       19.262933
 11
     1102.830444
 21
     1001.584831
 31
       19.260567
  0
LINE
  8
Default
 62
255
 10
     1102.830444
 20
     1001.584831
 30
       19.260567
 11
     1102.828137
 21
     1001.599080
 31
       19.262232
  0
LINE
  8
Default
 62
255
 10
     1102.828137
 20
     1001.599080
 30
       19.262232
 11
     1102.836657
 21
     1001.620262
 31
       19.267270
  0
LINE
  8
Default
 62
255
 10
     1102.836657
 20
     1001.620262
 30
       19.267270
 11
     1102.824892
 21
     1001.650408
 31
       19.272455
  0
LINE
  8
Default
 62
255
 10
     1102.824892
 20
     1001.650408
 30
       19.272455
 11
     1102.810392
 21
     1001.670901
 31
       19.277880
  0
LINE
  8
Default
 62
255
 10
     1102.810392
 20
     1001.670901
 30
       19.277880
 11
     1102.779136
 21
     1001.682837
 31
       19.277750
  0
LINE
  8
Default
 62
255
 10
     1102.779136
 20
     1001.682837
 30
       19.277750
 11
     1102.760580
 21
     1001.683261
 31
       19.269973
  0
LINE
  8
Default
 62
255
 10
     1102.760580
 20
     1001.683261
 30
       19.269973
 11
     1102.733484
 21
     1001.700138
 31
       19.279990
  0
LINE
  8
Default
 62
255
 10
     1102.733484
 20
     1001.700138
 30
       19.279990
 11
     1102.688391
 21
     1001.688246
 31
       19.274607
  0
LINE
  8
Default
 62
255
 10
     1102.688391
 20
     1001.688246
 30
       19.274607
 11
     1102.670916
 21
     1001.682620
 31
       19.263144
  0
LINE
  8
Default
 62
255
 10
     1102.670916
 20
     1001.682620
 30
       19.263144
 11
     1102.668944
 21
     1001.695729
 31
       19.268200
  0
LINE
  8
Default
 62
255
 10
     1102.668944
 20
     1001.695729
 30
       19.268200
 11
     1102.667012
 21
     1001.718647
 31
       19.274482
  0
LINE
  8
Default
 62
255
 10
     1102.667012
 20
     1001.718647
 30
       19.274482
 11
     1102.645372
 21
     1001.776088
 31
       19.273845
  0
LINE
  8
Default
 62
255
 10
     1102.645372
 20
     1001.776088
 30
       19.273845
 11
     1102.636872
 21
     1001.792832
 31
       19.277441
  0
LINE
  8
Default
 62
255
 10
     1102.636872
 20
     1001.792832
 30
       19.277441
 11
     1102.609297
 21
     1001.804764
 31
       19.285917
  0
LINE
  8
Default
 62
255
 10
     1102.609297
 20
     1001.804764
 30
       19.285917
 11
     1102.589625
 21
     1001.820653
 31
       19.297053
  0
LINE
  8
Default
 62
255
 10
     1102.589625
 20
     1001.820653
 30
       19.297053
 11
     1102.557978
 21
     1001.833527
 31
       19.292143
  0
LINE
  8
Default
 62
255
 10
     1102.557978
 20
     1001.833527
 30
       19.292143
 11
     1102.507922
 21
     1001.852562
 31
       19.312379
  0
LINE
  8
Default
 62
255
 10
     1102.507922
 20
     1001.852562
 30
       19.312379
 11
     1102.487478
 21
     1001.811630
 31
       19.316580
  0
LINE
  8
Default
 62
255
 10
     1102.487478
 20
     1001.811630
 30
       19.316580
 11
     1102.451046
 21
     1001.763193
 31
       19.312487
  0
LINE
  8
Default
 62
255
 10
     1102.451046
 20
     1001.763193
 30
       19.312487
 11
     1102.435350
 21
     1001.733002
 31
       19.313039
  0
LINE
  8
Default
 62
255
 10
     1102.435350
 20
     1001.733002
 30
       19.313039
 11
     1102.415126
 21
     1001.699473
 31
       19.306253
  0
LINE
  8
Default
 62
255
 10
     1102.415126
 20
     1001.699473
 30
       19.306253
 11
     1102.368568
 21
     1001.634754
 31
       19.325731
  0
LINE
  8
Default
 62
255
 10
     1102.368568
 20
     1001.634754
 30
       19.325731
 11
     1102.361573
 21
     1001.615230
 31
       19.316398
  0
LINE
  8
Default
 62
255
 10
     1102.361573
 20
     1001.615230
 30
       19.316398
 11
     1102.360426
 21
     1001.599289
 31
       19.316146
  0
LINE
  8
Default
 62
255
 10
     1102.360426
 20
     1001.599289
 30
       19.316146
 11
     1102.349697
 21
     1001.569020
 31
       19.322691
  0
LINE
  8
Default
 62
255
 10
     1102.349697
 20
     1001.569020
 30
       19.322691
 11
     1102.325154
 21
     1001.564017
 31
       19.313282
  0
LINE
  8
Default
 62
255
 10
     1102.325154
 20
     1001.564017
 30
       19.313282
 11
     1102.314962
 21
     1001.564021
 31
       19.318312
  0
LINE
  8
Default
 62
255
 10
     1102.314962
 20
     1001.564021
 30
       19.318312
 11
     1102.282426
 21
     1001.496266
 31
       19.322355
  0
LINE
  8
Default
 62
255
 10
     1102.282426
 20
     1001.496266
 30
       19.322355
 11
     1102.258662
 21
     1001.468184
 31
       19.330508
  0
LINE
  8
Default
 62
255
 10
     1102.258662
 20
     1001.468184
 30
       19.330508
 11
     1102.244555
 21
     1001.442406
 31
       19.324170
  0
LINE
  8
Default
 62
255
 10
     1102.244555
 20
     1001.442406
 30
       19.324170
 11
     1102.234590
 21
     1001.430836
 31
       19.328718
  0
LINE
  8
Default
 62
255
 10
     1102.234590
 20
     1001.430836
 30
       19.328718
 11
     1102.217409
 21
     1001.398017
 31
       19.316780
  0
LINE
  8
Default
 62
255
 10
     1102.217409
 20
     1001.398017
 30
       19.316780
 11
     1102.200165
 21
     1001.379653
 31
       19.322957
  0
LINE
  8
Default
 62
255
 10
     1102.200165
 20
     1001.379653
 30
       19.322957
 11
     1102.172063
 21
     1001.356735
 31
       19.331626
  0
LINE
  8
Default
 62
255
 10
     1102.172063
 20
     1001.356735
 30
       19.331626
 11
     1102.164266
 21
     1001.346716
 31
       19.328057
  0
LINE
  8
Default
 62
255
 10
     1102.164266
 20
     1001.346716
 30
       19.328057
 11
     1102.137798
 21
     1001.329972
 31
       19.330087
  0
LINE
  8
Default
 62
255
 10
     1102.137798
 20
     1001.329972
 30
       19.330087
 11
     1102.096426
 21
     1001.275210
 31
       19.334617
  0
LINE
  8
Default
 62
255
 10
     1102.096426
 20
     1001.275210
 30
       19.334617
 11
     1102.046695
 21
     1001.179726
 31
       19.324756
  0
LINE
  8
Default
 62
255
 10
     1102.046695
 20
     1001.179726
 30
       19.324756
 11
     1102.030153
 21
     1001.142049
 31
       19.331461
  0
LINE
  8
Default
 62
255
 10
     1102.030153
 20
     1001.142049
 30
       19.331461
 11
     1101.990928
 21
     1001.049397
 31
       19.323415
  0
LINE
  8
Default
 62
255
 10
     1101.990928
 20
     1001.049397
 30
       19.323415
 11
     1101.984721
 21
     1001.024943
 31
       19.324235
  0
LINE
  8
Default
 62
255
 10
     1101.984721
 20
     1001.024943
 30
       19.324235
 11
     1101.968898
 21
     1001.003250
 31
       19.304417
  0
LINE
  8
Default
 62
255
 10
     1101.968898
 20
     1001.003250
 30
       19.304417
 11
     1101.949277
 21
     1000.986216
 31
       19.329967
  0
LINE
  8
Default
 62
255
 10
     1101.949277
 20
     1000.986216
 30
       19.329967
 11
     1101.933578
 21
     1000.953885
 31
       19.319889
  0
LINE
  8
Default
 62
255
 10
     1101.933578
 20
     1000.953885
 30
       19.319889
 11
     1101.932375
 21
     1000.911842
 31
       19.307583
  0
LINE
  8
Default
 62
255
 10
     1101.932375
 20
     1000.911842
 30
       19.307583
 11
     1101.979316
 21
     1000.875285
 31
       19.297941
  0
LINE
  8
Default
 62
255
 10
     1101.979316
 20
     1000.875285
 30
       19.297941
 11
     1102.005410
 21
     1000.857876
 31
       19.299197
  0
LINE
  8
Default
 62
255
 10
     1102.005410
 20
     1000.857876
 30
       19.299197
 11
     1102.027732
 21
     1000.860310
 31
       19.308607
  0
LINE
  8
Default
 62
255
 10
     1102.027732
 20
     1000.860310
 30
       19.308607
 11
     1102.100018
 21
     1000.852674
 31
       19.285641
  0
LINE
  8
Default
 62
255
 10
     1102.100018
 20
     1000.852674
 30
       19.285641
 11
     1102.119863
 21
     1000.858230
 31
       19.276055
  0
LINE
  8
Default
 62
255
 10
     1102.119863
 20
     1000.858230
 30
       19.276055
 11
     1102.167964
 21
     1000.839710
 31
       19.284471
  0
LINE
  8
Default
 62
255
 10
     1102.167964
 20
     1000.839710
 30
       19.284471
 11
     1102.209695
 21
     1000.802561
 31
       19.275615
  0
LINE
  8
Default
 62
255
 10
     1102.209695
 20
     1000.802561
 30
       19.275615
 11
     1102.221772
 21
     1000.773330
 31
       19.284160
  0
LINE
  8
Default
 62
255
 10
     1102.221772
 20
     1000.773330
 30
       19.284160
 11
     1102.246555
 21
     1000.762724
 31
       19.283509
  0
LINE
  8
Default
 62
255
 10
     1102.246555
 20
     1000.762724
 30
       19.283509
 11
     1102.310718
 21
     1000.733529
 31
       19.275469
  0
LINE
  8
Default
 62
255
 10
     1102.310718
 20
     1000.733529
 30
       19.275469
 11
     1102.351742
 21
     1000.686418
 31
       19.268361
  0
LINE
  8
Default
 62
255
 10
     1102.351742
 20
     1000.686418
 30
       19.268361
 11
     1102.414918
 21
     1000.616237
 31
       19.276267
  0
LINE
  8
Default
 62
255
 10
     1102.414918
 20
     1000.616237
 30
       19.276267
 11
     1102.475496
 21
     1000.584617
 31
       19.278764
  0
LINE
  8
Default
 62
255
 10
     1102.475496
 20
     1000.584617
 30
       19.278764
 11
     1102.515927
 21
     1000.556881
 31
       19.279870
  0
LINE
  8
Default
 62
255
 10
     1102.515927
 20
     1000.556881
 30
       19.279870
 11
     1102.535793
 21
     1000.507345
 31
       19.296541
  0
LINE
  8
Default
 62
255
 10
     1102.535793
 20
     1000.507345
 30
       19.296541
 11
     1102.571389
 21
     1000.502561
 31
       19.295876
  0
LINE
  8
Default
 62
255
 10
     1102.571389
 20
     1000.502561
 30
       19.295876
 11
     1102.587507
 21
     1000.505105
 31
       19.285564
  0
LINE
  8
Default
 62
255
 10
     1102.587507
 20
     1000.505105
 30
       19.285564
 11
     1102.608124
 21
     1000.500265
 31
       19.287194
  0
LINE
  8
Default
 62
255
 10
     1102.608124
 20
     1000.500265
 30
       19.287194
 11
     1102.628581
 21
     1000.503906
 31
       19.281678
  0
LINE
  8
Default
 62
255
 10
     1102.628581
 20
     1000.503906
 30
       19.281678
 11
     1102.658520
 21
     1000.518024
 31
       19.281298
  0
LINE
  8
Default
 62
255
 10
     1102.658520
 20
     1000.518024
 30
       19.281298
 11
     1102.670103
 21
     1000.489488
 31
       19.285217
  0
LINE
  8
Default
 62
255
 10
     1102.670103
 20
     1000.489488
 30
       19.285217
 11
     1102.680601
 21
     1000.475972
 31
       19.282457
  0
LINE
  8
Default
 62
255
 10
     1102.680601
 20
     1000.475972
 30
       19.282457
 11
     1102.682372
 21
     1000.460353
 31
       19.302842
  0
LINE
  8
Default
 62
255
 10
     1102.682372
 20
     1000.460353
 30
       19.302842
 11
     1102.676955
 21
     1000.442143
 31
       19.297161
  0
LINE
  8
Default
 62
255
 10
     1102.676955
 20
     1000.442143
 30
       19.297161
 11
     1102.658824
 21
     1000.423882
 31
       19.302276
  0
LINE
  8
Default
 62
255
 10
     1102.658824
 20
     1000.423882
 30
       19.302276
 11
     1102.613220
 21
     1000.361844
 31
       19.319080
  0
LINE
  8
Default
 62
255
 10
     1102.613220
 20
     1000.361844
 30
       19.319080
 11
     1102.596439
 21
     1000.341415
 31
       19.321578
  0
LINE
  8
Default
 62
255
 10
     1102.795576
 20
     1000.477400
 30
       19.337053
 11
     1102.782846
 21
     1000.459267
 31
       19.330640
  0
LINE
  8
Default
 62
255
 10
     1102.782846
 20
     1000.459267
 30
       19.330640
 11
     1102.764484
 21
     1000.443167
 31
       19.333002
  0
LINE
  8
Default
 62
255
 10
     1102.764484
 20
     1000.443167
 30
       19.333002
 11
     1102.734851
 21
     1000.400775
 31
       19.340773
  0
LINE
  8
Default
 62
255
 10
     1102.734851
 20
     1000.400775
 30
       19.340773
 11
     1102.696603
 21
     1000.340250
 31
       19.357646
  0
LINE
  8
Default
 62
255
 10
     1102.696603
 20
     1000.340250
 30
       19.357646
 11
     1102.689239
 21
     1000.327758
 31
       19.360335
  0
LINE
  8
Default
 62
255
 10
     1102.689239
 20
     1000.327758
 30
       19.360335
 11
     1102.676770
 21
     1000.317109
 31
       19.361494
  0
LINE
  8
Default
 62
255
 10
     1102.676770
 20
     1000.317109
 30
       19.361494
 11
     1102.653287
 21
     1000.298272
 31
       19.359975
  0
LINE
  8
Default
 62
255
 10
     1102.795576
 20
     1000.477400
 30
       19.337053
 11
     1102.804550
 21
     1000.507142
 31
       19.321026
  0
LINE
  8
Default
 62
255
 10
     1102.804550
 20
     1000.507142
 30
       19.321026
 11
     1102.824892
 21
     1000.526101
 31
       19.320743
  0
LINE
  8
Default
 62
255
 10
     1102.824892
 20
     1000.526101
 30
       19.320743
 11
     1102.836625
 21
     1000.565953
 31
       19.312950
  0
LINE
  8
Default
 62
255
 10
     1102.836625
 20
     1000.565953
 30
       19.312950
 11
     1102.841371
 21
     1000.583115
 31
       19.308056
  0
LINE
  8
Default
 62
255
 10
     1102.841371
 20
     1000.583115
 30
       19.308056
 11
     1102.908805
 21
     1000.662693
 31
       19.317940
  0
LINE
  8
Default
 62
255
 10
     1102.908805
 20
     1000.662693
 30
       19.317940
 11
     1102.952522
 21
     1000.718108
 31
       19.313529
  0
LINE
  8
Default
 62
255
 10
     1102.952522
 20
     1000.718108
 30
       19.313529
 11
     1102.996629
 21
     1000.800232
 31
       19.280161
  0
LINE
  8
Default
 62
255
 10
     1102.996629
 20
     1000.800232
 30
       19.280161
 11
     1103.036921
 21
     1000.829474
 31
       19.308238
  0
LINE
  8
Default
 62
255
 10
     1103.036921
 20
     1000.829474
 30
       19.308238
 11
     1103.061286
 21
     1000.837855
 31
       19.319092
  0
LINE
  8
Default
 62
255
 10
     1103.061286
 20
     1000.837855
 30
       19.319092
 11
     1103.096434
 21
     1000.905983
 31
       19.307720
  0
LINE
  8
Default
 62
255
 10
     1103.096434
 20
     1000.905983
 30
       19.307720
 11
     1103.104739
 21
     1000.925967
 31
       19.304431
  0
LINE
  8
Default
 62
255
 10
     1103.104739
 20
     1000.925967
 30
       19.304431
 11
     1103.116977
 21
     1000.957814
 31
       19.306865
  0
LINE
  8
Default
 62
255
 10
     1103.116977
 20
     1000.957814
 30
       19.306865
 11
     1103.143625
 21
     1000.979861
 31
       19.319815
  0
LINE
  8
Default
 62
255
 10
     1103.143625
 20
     1000.979861
 30
       19.319815
 11
     1103.167244
 21
     1001.015861
 31
       19.319507
  0
LINE
  8
Default
 62
255
 10
     1103.167244
 20
     1001.015861
 30
       19.319507
 11
     1103.180009
 21
     1001.044124
 31
       19.321806
  0
LINE
  8
Default
 62
255
 10
     1103.180009
 20
     1001.044124
 30
       19.321806
 11
     1103.228884
 21
     1001.113621
 31
       19.310339
  0
LINE
  8
Default
 62
255
 10
     1103.228884
 20
     1001.113621
 30
       19.310339
 11
     1103.258622
 21
     1001.154044
 31
       19.333714
  0
LINE
  8
Default
 62
255
 10
     1103.258622
 20
     1001.154044
 30
       19.333714
 11
     1103.301070
 21
     1001.218543
 31
       19.312659
  0
LINE
  8
Default
 62
255
 10
     1103.301070
 20
     1001.218543
 30
       19.312659
 11
     1103.339986
 21
     1001.279502
 31
       19.312107
  0
LINE
  8
Default
 62
255
 10
     1103.339986
 20
     1001.279502
 30
       19.312107
 11
     1103.364084
 21
     1001.292238
 31
       19.309824
  0
LINE
  8
Default
 62
255
 10
     1103.364084
 20
     1001.292238
 30
       19.309824
 11
     1103.390834
 21
     1001.358246
 31
       19.308034
  0
LINE
  8
Default
 62
255
 10
     1103.358796
 20
     1001.414089
 30
       19.281408
 11
     1103.337169
 21
     1001.370482
 31
       19.268448
  0
LINE
  8
Default
 62
255
 10
     1103.337169
 20
     1001.370482
 30
       19.268448
 11
     1103.313493
 21
     1001.346765
 31
       19.266024
  0
LINE
  8
Default
 62
255
 10
     1103.313493
 20
     1001.346765
 30
       19.266024
 11
     1103.287825
 21
     1001.321106
 31
       19.253210
  0
LINE
  8
Default
 62
255
 10
     1103.287825
 20
     1001.321106
 30
       19.253210
 11
     1103.270727
 21
     1001.318624
 31
       19.239415
  0
LINE
  8
Default
 62
255
 10
     1103.270727
 20
     1001.318624
 30
       19.239415
 11
     1103.242146
 21
     1001.321620
 31
       19.222278
  0
LINE
  8
Default
 62
255
 10
     1103.242146
 20
     1001.321620
 30
       19.222278
 11
     1103.223312
 21
     1001.331156
 31
       19.222378
  0
LINE
  8
Default
 62
255
 10
     1103.223312
 20
     1001.331156
 30
       19.222378
 11
     1103.198826
 21
     1001.340960
 31
       19.223572
  0
LINE
  8
Default
 62
255
 10
     1103.198826
 20
     1001.340960
 30
       19.223572
 11
     1103.157075
 21
     1001.347330
 31
       19.265288
  0
LINE
  8
Default
 62
255
 10
     1103.163795
 20
     1001.286997
 30
       18.993468
 11
     1103.170844
 21
     1001.256111
 31
       18.988813
  0
LINE
  8
Default
 62
255
 10
     1103.170844
 20
     1001.256111
 30
       18.988813
 11
     1103.143740
 21
     1001.182321
 31
       18.988360
  0
LINE
  8
Default
 62
255
 10
     1103.143740
 20
     1001.182321
 30
       18.988360
 11
     1103.129410
 21
     1001.162346
 31
       18.993998
  0
LINE
  8
Default
 62
255
 10
     1103.129410
 20
     1001.162346
 30
       18.993998
 11
     1103.120457
 21
     1001.134056
 31
       19.004045
  0
LINE
  8
Default
 62
255
 10
     1103.120457
 20
     1001.134056
 30
       19.004045
 11
     1103.098964
 21
     1001.119212
 31
       19.012810
  0
LINE
  8
Default
 62
255
 10
     1103.098964
 20
     1001.119212
 30
       19.012810
 11
     1103.066939
 21
     1001.084000
 31
       19.027599
  0
LINE
  8
Default
 62
255
 10
     1103.066939
 20
     1001.084000
 30
       19.027599
 11
     1103.036538
 21
     1001.018103
 31
       19.011251
  0
LINE
  8
Default
 62
255
 10
     1103.036538
 20
     1001.018103
 30
       19.011251
 11
     1102.997855
 21
     1000.970902
 31
       19.010703
  0
LINE
  8
Default
 62
255
 10
     1102.997855
 20
     1000.970902
 30
       19.010703
 11
     1102.963054
 21
     1000.917695
 31
       19.014536
  0
LINE
  8
Default
 62
255
 10
     1102.963054
 20
     1000.917695
 30
       19.014536
 11
     1102.931728
 21
     1000.869644
 31
       19.024412
  0
LINE
  8
Default
 62
255
 10
     1102.931728
 20
     1000.869644
 30
       19.024412
 11
     1102.908419
 21
     1000.852091
 31
       19.057990
  0
LINE
  8
Default
 62
255
 10
     1102.908419
 20
     1000.852091
 30
       19.057990
 11
     1102.885346
 21
     1000.808856
 31
       19.055046
  0
LINE
  8
Default
 62
255
 10
     1102.885346
 20
     1000.808856
 30
       19.055046
 11
     1102.866245
 21
     1000.769796
 31
       19.032543
  0
LINE
  8
Default
 62
255
 10
     1102.866245
 20
     1000.769796
 30
       19.032543
 11
     1102.837406
 21
     1000.743068
 31
       19.035054
  0
LINE
  8
Default
 62
255
 10
     1102.837406
 20
     1000.743068
 30
       19.035054
 11
     1102.744341
 21
     1000.635580
 31
       19.065774
  0
LINE
  8
Default
 62
255
 10
     1102.744341
 20
     1000.635580
 30
       19.065774
 11
     1102.713996
 21
     1000.597683
 31
       19.051221
  0
LINE
  8
Default
 62
255
 10
     1102.713996
 20
     1000.597683
 30
       19.051221
 11
     1102.694226
 21
     1000.572305
 31
       19.062494
  0
LINE
  8
Default
 62
255
 10
     1102.694226
 20
     1000.572305
 30
       19.062494
 11
     1102.660148
 21
     1000.546617
 31
       19.092550
  0
LINE
  8
Default
 62
255
 10
     1102.660148
 20
     1000.546617
 30
       19.092550
 11
     1102.654414
 21
     1000.564607
 31
       19.070113
  0
LINE
  8
Default
 62
255
 10
     1102.654414
 20
     1000.564607
 30
       19.070113
 11
     1102.630889
 21
     1000.580328
 31
       19.063965
  0
LINE
  8
Default
 62
255
 10
     1102.630889
 20
     1000.580328
 30
       19.063965
 11
     1102.618427
 21
     1000.599299
 31
       19.054899
  0
LINE
  8
Default
 62
255
 10
     1102.618427
 20
     1000.599299
 30
       19.054899
 11
     1102.573760
 21
     1000.608919
 31
       19.065930
  0
LINE
  8
Default
 62
255
 10
     1102.573760
 20
     1000.608919
 30
       19.065930
 11
     1102.524748
 21
     1000.639339
 31
       19.070751
  0
LINE
  8
Default
 62
255
 10
     1102.524748
 20
     1000.639339
 30
       19.070751
 11
     1102.488723
 21
     1000.651097
 31
       19.065331
  0
LINE
  8
Default
 62
255
 10
     1102.488723
 20
     1000.651097
 30
       19.065331
 11
     1102.442167
 21
     1000.666261
 31
       19.088207
  0
LINE
  8
Default
 62
255
 10
     1102.442167
 20
     1000.666261
 30
       19.088207
 11
     1102.428852
 21
     1000.684755
 31
       19.085885
  0
LINE
  8
Default
 62
255
 10
     1102.428852
 20
     1000.684755
 30
       19.085885
 11
     1102.415534
 21
     1000.696592
 31
       19.092003
  0
LINE
  8
Default
 62
255
 10
     1102.415534
 20
     1000.696592
 30
       19.092003
 11
     1102.404322
 21
     1000.707118
 31
       19.094787
  0
LINE
  8
Default
 62
255
 10
     1102.404322
 20
     1000.707118
 30
       19.094787
 11
     1102.380941
 21
     1000.716587
 31
       19.129809
  0
LINE
  8
Default
 62
255
 10
     1102.380941
 20
     1000.716587
 30
       19.129809
 11
     1102.373782
 21
     1000.723070
 31
       19.120163
  0
LINE
  8
Default
 62
255
 10
     1102.373782
 20
     1000.723070
 30
       19.120163
 11
     1102.336622
 21
     1000.757476
 31
       19.107400
  0
LINE
  8
Default
 62
255
 10
     1102.336622
 20
     1000.757476
 30
       19.107400
 11
     1102.288703
 21
     1000.782223
 31
       19.122786
  0
LINE
  8
Default
 62
255
 10
     1102.288703
 20
     1000.782223
 30
       19.122786
 11
     1102.265885
 21
     1000.810808
 31
       19.122307
  0
LINE
  8
Default
 62
255
 10
     1102.265885
 20
     1000.810808
 30
       19.122307
 11
     1102.258154
 21
     1000.816830
 31
       19.124516
  0
LINE
  8
Default
 62
255
 10
     1102.258154
 20
     1000.816830
 30
       19.124516
 11
     1102.196401
 21
     1000.856719
 31
       19.122892
  0
LINE
  8
Default
 62
255
 10
     1102.196401
 20
     1000.856719
 30
       19.122892
 11
     1102.170291
 21
     1000.884241
 31
       19.124744
  0
LINE
  8
Default
 62
255
 10
     1102.170291
 20
     1000.884241
 30
       19.124744
 11
     1102.145009
 21
     1000.894588
 31
       19.120041
  0
LINE
  8
Default
 62
255
 10
     1102.145009
 20
     1000.894588
 30
       19.120041
 11
     1102.093055
 21
     1000.934221
 31
       19.126084
  0
LINE
  8
Default
 62
255
 10
     1102.093055
 20
     1000.934221
 30
       19.126084
 11
     1102.076811
 21
     1000.941224
 31
       19.132649
  0
LINE
  8
Default
 62
255
 10
     1102.076811
 20
     1000.941224
 30
       19.132649
 11
     1102.067229
 21
     1000.950085
 31
       19.131488
  0
LINE
  8
Default
 62
255
 10
     1102.067229
 20
     1000.950085
 30
       19.131488
 11
     1102.057862
 21
     1000.982643
 31
       19.135566
  0
LINE
  8
Default
 62
255
 10
     1103.163795
 20
     1001.286997
 30
       18.993468
 11
     1103.134819
 21
     1001.336679
 31
       19.012833
  0
LINE
  8
Default
 62
255
 10
     1103.134819
 20
     1001.336679
 30
       19.012833
 11
     1103.090491
 21
     1001.367295
 31
       19.020564
  0
LINE
  8
Default
 62
255
 10
     1103.090491
 20
     1001.367295
 30
       19.020564
 11
     1103.079542
 21
     1001.366882
 31
       19.015419
  0
LINE
  8
Default
 62
255
 10
     1103.079542
 20
     1001.366882
 30
       19.015419
 11
     1102.995224
 21
     1001.388066
 31
       18.989531
  0
LINE
  8
Default
 62
255
 10
     1102.995224
 20
     1001.388066
 30
       18.989531
 11
     1102.934072
 21
     1001.408759
 31
       19.011973
  0
LINE
  8
Default
 62
255
 10
     1102.934072
 20
     1001.408759
 30
       19.011973
 11
     1102.927048
 21
     1001.422825
 31
       19.006501
  0
LINE
  8
Default
 62
255
 10
     1102.927048
 20
     1001.422825
 30
       19.006501
 11
     1102.905274
 21
     1001.417001
 31
       18.998045
  0
LINE
  8
Default
 62
255
 10
     1102.905274
 20
     1001.417001
 30
       18.998045
 11
     1102.729790
 21
     1001.473672
 31
       19.051979
  0
LINE
  8
Default
 62
255
 10
     1102.729790
 20
     1001.473672
 30
       19.051979
 11
     1102.711221
 21
     1001.495106
 31
       19.053883
  0
LINE
  8
Default
 62
255
 10
     1102.711221
 20
     1001.495106
 30
       19.053883
 11
     1102.679271
 21
     1001.517916
 31
       19.037139
  0
LINE
  8
Default
 62
255
 10
     1102.679271
 20
     1001.517916
 30
       19.037139
 11
     1102.629938
 21
     1001.569785
 31
       19.033995
  0
LINE
  8
Default
 62
255
 10
     1102.629938
 20
     1001.569785
 30
       19.033995
 11
     1102.612125
 21
     1001.580770
 31
       19.039240
  0
LINE
  8
Default
 62
255
 10
     1102.612125
 20
     1001.580770
 30
       19.039240
 11
     1102.598466
 21
     1001.608823
 31
       19.040493
  0
LINE
  8
Default
 62
255
 10
     1102.057862
 20
     1000.982643
 30
       19.135566
 11
     1102.072807
 21
     1001.035251
 31
       19.134081
  0
LINE
  8
Default
 62
255
 10
     1102.072807
 20
     1001.035251
 30
       19.134081
 11
     1102.088815
 21
     1001.099347
 31
       19.120888
  0
LINE
  8
Default
 62
255
 10
     1102.088815
 20
     1001.099347
 30
       19.120888
 11
     1102.109469
 21
     1001.130456
 31
       19.115693
  0
LINE
  8
Default
 62
255
 10
     1102.109469
 20
     1001.130456
 30
       19.115693
 11
     1102.141054
 21
     1001.167801
 31
       19.127009
  0
LINE
  8
Default
 62
255
 10
     1102.141054
 20
     1001.167801
 30
       19.127009
 11
     1102.162495
 21
     1001.197435
 31
       19.126793
  0
LINE
  8
Default
 62
255
 10
     1102.162495
 20
     1001.197435
 30
       19.126793
 11
     1102.188200
 21
     1001.242984
 31
       19.126770
  0
LINE
  8
Default
 62
255
 10
     1102.188200
 20
     1001.242984
 30
       19.126770
 11
     1102.214098
 21
     1001.284503
 31
       19.147847
  0
LINE
  8
Default
 62
255
 10
     1102.214098
 20
     1001.284503
 30
       19.147847
 11
     1102.233216
 21
     1001.321143
 31
       19.114931
  0
LINE
  8
Default
 62
255
 10
     1102.233216
 20
     1001.321143
 30
       19.114931
 11
     1102.278916
 21
     1001.389864
 31
       19.155052
  0
LINE
  8
Default
 62
255
 10
     1102.278916
 20
     1001.389864
 30
       19.155052
 11
     1102.282420
 21
     1001.412178
 31
       19.164592
  0
LINE
  8
Default
 62
255
 10
     1102.282420
 20
     1001.412178
 30
       19.164592
 11
     1102.293659
 21
     1001.423907
 31
       19.162728
  0
LINE
  8
Default
 62
255
 10
     1102.293659
 20
     1001.423907
 30
       19.162728
 11
     1102.322925
 21
     1001.444811
 31
       19.179898
  0
LINE
  8
Default
 62
255
 10
     1102.322925
 20
     1001.444811
 30
       19.179898
 11
     1102.336217
 21
     1001.497977
 31
       19.125038
  0
LINE
  8
Default
 62
255
 10
     1102.336217
 20
     1001.497977
 30
       19.125038
 11
     1102.356315
 21
     1001.523782
 31
       19.109023
  0
LINE
  8
Default
 62
255
 10
     1102.356315
 20
     1001.523782
 30
       19.109023
 11
     1102.392047
 21
     1001.570217
 31
       19.103785
  0
LINE
  8
Default
 62
255
 10
     1102.392047
 20
     1001.570217
 30
       19.103785
 11
     1102.442046
 21
     1001.652341
 31
       19.104348
  0
LINE
  8
Default
 62
255
 10
     1102.442046
 20
     1001.652341
 30
       19.104348
 11
     1102.499371
 21
     1001.685481
 31
       19.145339
  0
LINE
  8
Default
 62
255
 10
     1102.499371
 20
     1001.685481
 30
       19.145339
 11
     1102.532590
 21
     1001.703344
 31
       19.142314
  0
LINE
  8
Default
 62
255
 10
     1102.532590
 20
     1001.703344
 30
       19.142314
 11
     1102.546280
 21
     1001.691487
 31
       19.141254
  0
LINE
  8
Default
 62
255
 10
     1102.546280
 20
     1001.691487
 30
       19.141254
 11
     1102.578570
 21
     1001.673061
 31
       19.095633
  0
LINE
  8
Default
 62
255
 10
     1102.578570
 20
     1001.673061
 30
       19.095633
 11
     1102.587622
 21
     1001.659243
 31
       19.084794
  0
LINE
  8
Default
 62
255
 10
     1102.587622
 20
     1001.659243
 30
       19.084794
 11
     1102.590770
 21
     1001.629827
 31
       19.052042
  0
LINE
  8
Default
 62
255
 10
     1102.590770
 20
     1001.629827
 30
       19.052042
 11
     1102.598466
 21
     1001.608823
 31
       19.040493
  0
ENDSEC
  0
EOF
