  0
SECTION
  2
HEADER
  9
$PDMODE
 70
   34
  9
$PDSIZE
 40
   -3.0
  0
ENDSEC
  0
SECTION
  2
TABLES
  0
TABLE
  2
LTYPE
 70
 1
  0
LTYPE
  2
CONTINUOUS
  70
 64
  3
Solid line
  72
 65
 73
 0
  40
 0.0
  0
ENDTAB
  0
TABLE
  2
LAYER
 70
 2
 0
LAYER
  2
Default
  70
 0
 62
 7
  6
CONTINUOUS
 0
LAYER
  2
Barrier_Lines
  70
 0
 62
 7
  6
CONTINUOUS
  0
ENDTAB
  0 
ENDSEC
  0
SECTION
  2
ENTITIES
  0
POINT
  8
Default
 62
255
 10
     1101.829600
 20
     1000.441900
 30
       19.409500
  0
POINT
  8
Default
 62
255
 10
     1101.859100
 20
     1001.311000
 30
       19.342400
  0
POINT
  8
Default
 62
255
 10
     1102.418600
 20
     1002.100300
 30
       19.346500
  0
POINT
  8
Default
 62
255
 10
     1102.782100
 20
     1002.524600
 30
       19.389500
  0
POINT
  8
Default
 62
255
 10
     1103.508000
 20
     1002.577300
 30
       19.256000
  0
POINT
  8
Default
 62
255
 10
     1103.930600
 20
     1001.769500
 30
       19.388900
  0
POINT
  8
Default
 62
255
 10
     1103.603100
 20
     1001.254400
 30
       19.317500
  0
POINT
  8
Default
 62
255
 10
     1102.911900
 20
     1000.385200
 30
       19.314700
  0
POINT
  8
Default
 62
255
 10
     1102.406200
 20
      999.819900
 30
       19.427200
  0
POINT
  8
Default
 62
255
 10
     1101.776000
 20
      999.859500
 30
       19.616300
  0
POINT
  8
Default
 62
255
 10
     1101.731880
 20
     1000.199265
 30
       19.428077
  0
POINT
  8
Default
 62
255
 10
     1101.791909
 20
     1000.318667
 30
       19.427478
  0
POINT
  8
Default
 62
255
 10
     1101.738574
 20
     1000.664142
 30
       19.409398
  0
POINT
  8
Default
 62
255
 10
     1101.841903
 20
     1000.209760
 30
       19.395027
  0
POINT
  8
Default
 62
255
 10
     1101.754142
 20
     1000.582944
 30
       19.413359
  0
POINT
  8
Default
 62
255
 10
     1101.937517
 20
     1000.585357
 30
       19.349627
  0
POINT
  8
Default
 62
255
 10
     1101.857673
 20
      999.958157
 30
       19.419149
  0
POINT
  8
Default
 62
255
 10
     1101.838810
 20
     1000.097434
 30
       19.396428
  0
POINT
  8
Default
 62
255
 10
     1101.899385
 20
      999.902021
 30
       19.439350
  0
POINT
  8
Default
 62
255
 10
     1102.166071
 20
     1000.202186
 30
       19.330086
  0
POINT
  8
Default
 62
255
 10
     1102.111772
 20
     1000.039053
 30
       19.374289
  0
POINT
  8
Default
 62
255
 10
     1102.233372
 20
      999.860390
 30
       19.386950
  0
POINT
  8
Default
 62
255
 10
     1102.177108
 20
      999.756278
 30
       19.421380
  0
POINT
  8
Default
 62
255
 10
     1101.952966
 20
      999.724303
 30
       19.567436
  0
POINT
  8
Default
 62
255
 10
     1102.257819
 20
     1000.041988
 30
       19.351824
  0
POINT
  8
Default
 62
255
 10
     1102.308109
 20
     1000.173476
 30
       19.330223
  0
POINT
  8
Default
 62
255
 10
     1102.353027
 20
      999.965558
 30
       19.379929
  0
POINT
  8
Default
 62
255
 10
     1102.419089
 20
     1000.053120
 30
       19.347767
  0
POINT
  8
Default
 62
255
 10
     1102.456860
 20
     1000.261021
 30
       19.338902
  0
POINT
  8
Default
 62
255
 10
     1102.273096
 20
     1000.511824
 30
       19.325115
  0
POINT
  8
Default
 62
255
 10
     1102.007422
 20
     1000.490610
 30
       19.346929
  0
POINT
  8
Default
 62
255
 10
     1102.301717
 20
     1000.333403
 30
       19.332204
  0
POINT
  8
Default
 62
255
 10
     1102.439473
 20
     1000.448974
 30
       19.332973
  0
POINT
  8
Default
 62
255
 10
     1102.160377
 20
     1000.616531
 30
       19.321373
  0
POINT
  8
Default
 62
255
 10
     1101.984643
 20
     1000.720113
 30
       19.339029
  0
POINT
  8
Default
 62
255
 10
     1102.192414
 20
     1000.798915
 30
       19.316166
  0
POINT
  8
Default
 62
255
 10
     1101.916956
 20
     1000.888801
 30
       19.311707
  0
POINT
  8
Default
 62
255
 10
     1102.280135
 20
     1000.663645
 30
       19.325036
  0
POINT
  8
Default
 62
255
 10
     1102.582070
 20
     1000.446913
 30
       19.328479
  0
POINT
  8
Default
 62
255
 10
     1102.532405
 20
     1000.728920
 30
       19.302708
  0
POINT
  8
Default
 62
255
 10
     1102.346649
 20
     1000.847648
 30
       19.311386
  0
POINT
  8
Default
 62
255
 10
     1102.166722
 20
     1000.990972
 30
       19.314821
  0
POINT
  8
Default
 62
255
 10
     1102.072285
 20
     1001.204037
 30
       19.330429
  0
POINT
  8
Default
 62
255
 10
     1102.367327
 20
     1001.137073
 30
       19.321819
  0
POINT
  8
Default
 62
255
 10
     1102.229131
 20
     1001.275815
 30
       19.307920
  0
POINT
  8
Default
 62
255
 10
     1102.429039
 20
     1001.371511
 30
       19.309305
  0
POINT
  8
Default
 62
255
 10
     1102.533544
 20
     1001.150725
 30
       19.311941
  0
POINT
  8
Default
 62
255
 10
     1102.585248
 20
     1000.961071
 30
       19.306887
  0
POINT
  8
Default
 62
255
 10
     1102.719462
 20
     1000.884525
 30
       19.286344
  0
POINT
  8
Default
 62
255
 10
     1102.616585
 20
     1000.651340
 30
       19.296276
  0
POINT
  8
Default
 62
255
 10
     1102.823926
 20
     1000.711712
 30
       19.293261
  0
POINT
  8
Default
 62
255
 10
     1102.990681
 20
     1001.070269
 30
       19.276607
  0
POINT
  8
Default
 62
255
 10
     1102.857584
 20
     1001.027020
 30
       19.289174
  0
POINT
  8
Default
 62
255
 10
     1102.791645
 20
     1001.154770
 30
       19.296870
  0
POINT
  8
Default
 62
255
 10
     1102.616871
 20
     1001.134456
 30
       19.313009
  0
POINT
  8
Default
 62
255
 10
     1102.604097
 20
     1001.445177
 30
       19.309832
  0
POINT
  8
Default
 62
255
 10
     1102.954390
 20
     1001.201843
 30
       19.287633
  0
POINT
  8
Default
 62
255
 10
     1102.892101
 20
     1001.429967
 30
       19.304855
  0
POINT
  8
Default
 62
255
 10
     1102.725644
 20
     1001.618313
 30
       19.317516
  0
POINT
  8
Default
 62
255
 10
     1102.569569
 20
     1001.590076
 30
       19.300448
  0
POINT
  8
Default
 62
255
 10
     1102.511458
 20
     1001.820457
 30
       19.333017
  0
POINT
  8
Default
 62
255
 10
     1103.188120
 20
     1001.212720
 30
       19.282352
  0
POINT
  8
Default
 62
255
 10
     1103.164023
 20
     1001.377018
 30
       19.321763
  0
POINT
  8
Default
 62
255
 10
     1103.000708
 20
     1001.581130
 30
       19.307651
  0
POINT
  8
Default
 62
255
 10
     1103.244926
 20
     1001.656926
 30
       19.318650
  0
POINT
  8
Default
 62
255
 10
     1103.381615
 20
     1001.460251
 30
       19.313942
  0
POINT
  8
Default
 62
255
 10
     1103.127878
 20
     1001.841558
 30
       19.331954
  0
POINT
  8
Default
 62
255
 10
     1102.892015
 20
     1001.685001
 30
       19.307831
  0
POINT
  8
Default
 62
255
 10
     1102.831253
 20
     1001.889075
 30
       19.322399
  0
POINT
  8
Default
 62
255
 10
     1102.682655
 20
     1002.026148
 30
       19.319334
  0
POINT
  8
Default
 62
255
 10
     1102.882280
 20
     1002.163183
 30
       19.320082
  0
POINT
  8
Default
 62
255
 10
     1103.019139
 20
     1002.110225
 30
       19.326206
  0
POINT
  8
Default
 62
255
 10
     1103.496041
 20
     1001.852591
 30
       19.321127
  0
POINT
  8
Default
 62
255
 10
     1103.217057
 20
     1002.096041
 30
       19.327421
  0
POINT
  8
Default
 62
255
 10
     1103.523071
 20
     1001.728467
 30
       19.350081
  0
POINT
  8
Default
 62
255
 10
     1103.564593
 20
     1001.780698
 30
       19.353387
  0
POINT
  8
Default
 62
255
 10
     1103.439096
 20
     1001.885885
 30
       19.318166
  0
POINT
  8
Default
 62
255
 10
     1103.498954
 20
     1001.988322
 30
       19.337134
  0
POINT
  8
Default
 62
255
 10
     1103.595988
 20
     1001.906089
 30
       19.327620
  0
POINT
  8
Default
 62
255
 10
     1103.720967
 20
     1002.181240
 30
       19.285488
  0
POINT
  8
Default
 62
255
 10
     1103.619570
 20
     1001.589044
 30
       19.374434
  0
POINT
  8
Default
 62
255
 10
     1103.703939
 20
     1001.731689
 30
       19.388397
  0
POINT
  8
Default
 62
255
 10
     1103.701739
 20
     1001.862647
 30
       19.413881
  0
POINT
  8
Default
 62
255
 10
     1103.817170
 20
     1001.723438
 30
       19.388594
  0
POINT
  8
Default
 62
255
 10
     1103.467487
 20
     1001.572350
 30
       19.325024
  0
POINT
  8
Default
 62
255
 10
     1102.585436
 20
     1002.119230
 30
       19.362244
  0
POINT
  8
Default
 62
255
 10
     1102.598983
 20
     1002.469390
 30
       19.379168
  0
POINT
  8
Default
 62
255
 10
     1102.280410
 20
     1002.134957
 30
       19.350059
  0
POINT
  8
Default
 62
255
 10
     1101.982145
 20
     1001.463239
 30
       19.331170
  0
POINT
  8
Default
 62
255
 10
     1101.688555
 20
     1001.231913
 30
       19.345265
  0
POINT
  8
Default
 62
255
 10
     1101.965433
 20
     1001.196488
 30
       19.348490
  0
POINT
  8
Default
 62
255
 10
     1101.797533
 20
     1001.024486
 30
       19.363729
  0
POINT
  8
Default
 62
255
 10
     1101.687059
 20
     1000.909424
 30
       19.364986
  0
POINT
  8
Default
 62
255
 10
     1101.838304
 20
     1000.801049
 30
       19.327396
  0
POINT
  8
Default
 62
255
 10
     1102.680629
 20
     1002.204658
 30
       19.370686
  0
POINT
  8
Default
 62
255
 10
     1102.985992
 20
     1002.456906
 30
       19.429141
  0
POINT
  8
Default
 62
255
 10
     1102.804277
 20
     1002.350697
 30
       19.402587
  0
POINT
  8
Default
 62
255
 10
     1102.256279
 20
      999.672056
 30
       19.443830
  0
POINT
  8
Default
 62
255
 10
     1102.162361
 20
      999.959351
 30
       19.377734
  0
POINT
  8
Default
 62
255
 10
     1102.349431
 20
      999.851146
 30
       19.416818
  0
POINT
  8
Default
 62
255
 10
     1102.544810
 20
      999.905445
 30
       19.404980
  0
POINT
  8
Default
 62
255
 10
     1102.598468
 20
     1000.061985
 30
       19.400909
  0
POINT
  8
Default
 62
255
 10
     1102.590750
 20
     1000.163184
 30
       19.385170
  0
POINT
  8
Default
 62
255
 10
     1102.558440
 20
      999.980115
 30
       19.401434
  0
POINT
  8
Default
 62
255
 10
     1102.514843
 20
     1000.120266
 30
       19.386615
  0
POINT
  8
Default
 62
255
 10
     1102.620300
 20
     1000.278681
 30
       19.357270
  0
POINT
  8
Default
 62
255
 10
     1102.740551
 20
     1000.216435
 30
       19.356181
  0
POINT
  8
Default
 62
255
 10
     1102.811161
 20
     1000.200709
 30
       19.365504
  0
POINT
  8
Default
 62
255
 10
     1102.852750
 20
     1000.404349
 30
       19.327875
  0
POINT
  8
Default
 62
255
 10
     1102.713709
 20
     1000.419740
 30
       19.334752
  0
POINT
  8
Default
 62
255
 10
     1102.832716
 20
     1000.485061
 30
       19.330125
  0
POINT
  8
Default
 62
255
 10
     1102.861378
 20
     1000.612678
 30
       19.331298
  0
POINT
  8
Default
 62
255
 10
     1103.086014
 20
     1000.611676
 30
       19.311858
  0
POINT
  8
Default
 62
255
 10
     1103.022726
 20
     1000.715671
 30
       19.330144
  0
POINT
  8
Default
 62
255
 10
     1103.030940
 20
     1000.913748
 30
       19.303024
  0
POINT
  8
Default
 62
255
 10
     1102.897704
 20
     1000.791339
 30
       19.284335
  0
POINT
  8
Default
 62
255
 10
     1102.935149
 20
     1000.537044
 30
       19.318740
  0
POINT
  8
Default
 62
255
 10
     1103.219233
 20
     1000.972397
 30
       19.327578
  0
POINT
  8
Default
 62
255
 10
     1103.298735
 20
     1001.045491
 30
       19.347457
  0
POINT
  8
Default
 62
255
 10
     1103.394776
 20
     1001.209472
 30
       19.324290
  0
POINT
  8
Default
 62
255
 10
     1103.251508
 20
     1001.148682
 30
       19.332001
  0
POINT
  8
Default
 62
255
 10
     1103.518583
 20
     1001.308292
 30
       19.339484
  0
POINT
  8
Default
 62
255
 10
     1103.404274
 20
     1001.379643
 30
       19.353479
  0
POINT
  8
Default
 62
255
 10
     1103.744598
 20
     1001.428750
 30
       19.370114
  0
POINT
  8
Default
 62
255
 10
     1103.643507
 20
     1001.519468
 30
       19.367116
  0
POINT
  8
Default
 62
255
 10
     1103.857389
 20
     1001.636391
 30
       19.425064
  0
POINT
  8
Default
 62
255
 10
     1103.634027
 20
     1001.779361
 30
       19.392738
  0
POINT
  8
Default
 62
255
 10
     1103.597847
 20
     1001.851753
 30
       19.334454
  0
POINT
  8
Default
 62
255
 10
     1103.781103
 20
     1001.909032
 30
       19.419291
  0
POINT
  8
Default
 62
255
 10
     1103.345884
 20
     1001.836358
 30
       19.323891
  0
POINT
  8
Default
 62
255
 10
     1103.245148
 20
     1001.949961
 30
       19.335942
  0
POINT
  8
Default
 62
255
 10
     1101.716275
 20
     1000.765875
 30
       19.394509
  0
POINT
  8
Default
 62
255
 10
     1102.132552
 20
     1001.430427
 30
       19.337829
  0
POINT
  8
Default
 62
255
 10
     1101.661401
 20
     1000.086313
 30
       19.420346
  0
POINT
  8
Default
 62
255
 10
     1103.333439
 20
     1002.399157
 30
       19.297523
  0
POINT
  8
Default
 62
255
 10
     1103.098564
 20
     1002.402430
 30
       19.335534
  0
POINT
  8
Default
 62
255
 10
     1103.377384
 20
     1002.507025
 30
       19.280239
  0
POINT
  8
Default
 62
255
 10
     1103.493483
 20
     1002.390326
 30
       19.281065
  0
POINT
  8
Default
 62
255
 10
     1103.575844
 20
     1002.220933
 30
       19.290120
  0
POINT
  8
Default
 62
255
 10
     1103.506476
 20
     1002.256386
 30
       19.292767
  0
POINT
  8
Default
 62
255
 10
     1103.152755
 20
     1002.283651
 30
       19.350672
  0
POINT
  8
Default
 62
255
 10
     1103.147350
 20
     1002.560871
 30
       19.342134
  0
POINT
  8
Default
 62
255
 10
     1102.107960
 20
     1000.386754
 30
       19.336080
  0
POINT
  8
Default
 62
255
 10
     1102.092611
 20
     1000.223936
 30
       19.345747
  0
POINT
  8
Default
 62
255
 10
     1101.977573
 20
     1000.275946
 30
       19.345993
  0
POINT
  8
Default
 62
255
 10
     1102.006150
 20
     1000.029862
 30
       19.372885
  0
POINT
  8
Default
 62
255
 10
     1102.226100
 20
      999.732313
 30
       19.420506
  0
POINT
  8
Default
 62
255
 10
     1102.290414
 20
      999.749429
 30
       19.415505
  0
LINE
  8
Barrier_Lines
 62
255
 10
     1103.634027
 20
     1001.779361
 30
       19.392738
 11
     1103.251508
 21
     1001.148682
 31
       19.332001
  0
LINE
  8
Barrier_Lines
 62
255
 10
     1103.251508
 20
     1001.148682
 30
       19.332001
 11
     1102.832716
 21
     1000.485061
 31
       19.330125
  0
LINE
  8
Barrier_Lines
 62
255
 10
     1102.832716
 20
     1000.485061
 30
       19.330125
 11
     1102.590750
 21
     1000.163184
 31
       19.385170
  0
LINE
  8
Barrier_Lines
 62
255
 10
     1102.590750
 20
     1000.163184
 30
       19.385170
 11
     1102.406200
 21
      999.819900
 31
       19.427200
  0
LINE
  8
Barrier_Lines
 62
255
 10
     1101.829600
 20
     1000.441900
 30
       19.409500
 11
     1101.754142
 21
     1000.582944
 31
       19.413359
  0
LINE
  8
Barrier_Lines
 62
255
 10
     1101.754142
 20
     1000.582944
 30
       19.413359
 11
     1101.738574
 21
     1000.664142
 31
       19.409398
  0
LINE
  8
Barrier_Lines
 62
255
 10
     1101.738574
 20
     1000.664142
 30
       19.409398
 11
     1101.716275
 21
     1000.765875
 31
       19.394509
  0
LINE
  8
Barrier_Lines
 62
255
 10
     1101.716275
 20
     1000.765875
 30
       19.394509
 11
     1101.965433
 21
     1001.196488
 31
       19.348490
  0
LINE
  8
Barrier_Lines
 62
255
 10
     1101.965433
 20
     1001.196488
 30
       19.348490
 11
     1102.132552
 21
     1001.430427
 31
       19.337829
  0
LINE
  8
Barrier_Lines
 62
255
 10
     1102.132552
 20
     1001.430427
 30
       19.337829
 11
     1102.804277
 21
     1002.350697
 31
       19.402587
  0
LINE
  8
Barrier_Lines
 62
255
 10
     1102.804277
 20
     1002.350697
 30
       19.402587
 11
     1102.985992
 21
     1002.456906
 31
       19.429141
  0
LINE
  8
Barrier_Lines
 62
255
 10
     1102.177108
 20
      999.756278
 30
       19.421380
 11
     1101.899385
 21
      999.902021
 31
       19.439350
  0
LINE
  8
Barrier_Lines
 62
255
 10
     1101.899385
 20
      999.902021
 30
       19.439350
 11
     1101.661401
 21
     1000.086313
 31
       19.420346
  0
LINE
  8
Barrier_Lines
 62
255
 10
     1101.661401
 20
     1000.086313
 30
       19.420346
 11
     1101.731880
 21
     1000.199265
 31
       19.428077
  0
LINE
  8
Barrier_Lines
 62
255
 10
     1101.731880
 20
     1000.199265
 30
       19.428077
 11
     1101.829600
 21
     1000.441900
 31
       19.409500
  0
ENDSEC
  0
EOF
